999
Erzeugt mit innoplus bad 
0
SECTION
2
HEADER
9
$ACADVER
1
AC1009
9
$DWGCODEPAGE
3
ISO8859-1
0
ENDSEC
0
SECTION
2
TABLES
0
TABLE
2
LAYER
70
1
0
LAYER
2
0
70
0
62
7
6
CONTINUOUS
0
ENDTAB
0
ENDSEC
0
SECTION
2
ENTITIES
0
LINE
8
0
6
CONTINUOUS
10
-139.699022
20
-78.487255
30
0.0
11
-139.699022
21
-76.487254
31
0.0
0
LINE
8
0
6
CONTINUOUS
10
-138.377022
20
-78.487255
30
0.0
11
-139.699022
21
-78.487255
31
0.0
0
LINE
8
0
6
CONTINUOUS
10
-138.377022
20
-76.487254
30
0.0
11
-138.377022
21
-78.487255
31
0.0
0
LINE
8
0
6
CONTINUOUS
10
-140.265022
20
-78.487255
30
0.0
11
-140.265022
21
-76.487254
31
0.0
0
LINE
8
0
6
CONTINUOUS
10
-139.699022
20
-78.487255
30
0.0
11
-140.265022
21
-78.487255
31
0.0
0
LINE
8
0
6
CONTINUOUS
10
-139.699022
20
-76.487254
30
0.0
11
-139.699022
21
-78.487255
31
0.0
0
LINE
8
0
6
CONTINUOUS
10
-140.265022
20
-76.487254
30
0.0
11
-140.265022
21
-78.487255
31
0.0
0
LINE
8
0
6
CONTINUOUS
10
-136.490022
20
-78.487255
30
0.0
11
-136.490022
21
-76.487254
31
0.0
0
LINE
8
0
6
CONTINUOUS
10
-137.056022
20
-78.487255
30
0.0
11
-137.056022
21
-76.487254
31
0.0
0
LINE
8
0
6
CONTINUOUS
10
-136.490022
20
-78.487255
30
0.0
11
-137.056022
21
-78.487255
31
0.0
0
LINE
8
0
6
CONTINUOUS
10
-136.490022
20
-76.487254
30
0.0
11
-136.490022
21
-78.487255
31
0.0
0
LINE
8
0
6
CONTINUOUS
10
-138.377022
20
-78.487255
30
0.0
11
-138.377022
21
-76.487254
31
0.0
0
LINE
8
0
6
CONTINUOUS
10
-137.056022
20
-78.487255
30
0.0
11
-138.377022
21
-78.487255
31
0.0
0
LINE
8
0
6
CONTINUOUS
10
-137.056022
20
-76.487254
30
0.0
11
-137.056022
21
-78.487255
31
0.0
0
LINE
8
0
6
CONTINUOUS
10
-139.699022
20
-78.487255
30
0.0
11
-138.377022
21
-78.487255
31
0.0
0
LINE
8
0
6
CONTINUOUS
10
-140.265022
20
-78.487255
30
0.0
11
-139.699022
21
-78.487255
31
0.0
0
LINE
8
0
6
CONTINUOUS
10
-137.056022
20
-78.487255
30
0.0
11
-136.490022
21
-78.487255
31
0.0
0
LINE
8
0
6
CONTINUOUS
10
-138.377022
20
-78.487255
30
0.0
11
-137.056022
21
-78.487255
31
0.0
0
LINE
8
0
6
CONTINUOUS
10
-121.454022
20
-78.487255
30
0.0
11
-121.454022
21
-76.487254
31
0.0
0
LINE
8
0
6
CONTINUOUS
10
-120.132022
20
-78.487255
30
0.0
11
-121.454022
21
-78.487255
31
0.0
0
LINE
8
0
6
CONTINUOUS
10
-120.132022
20
-76.487254
30
0.0
11
-120.132022
21
-78.487255
31
0.0
0
LINE
8
0
6
CONTINUOUS
10
-122.020022
20
-78.487255
30
0.0
11
-122.020022
21
-76.487254
31
0.0
0
LINE
8
0
6
CONTINUOUS
10
-121.454022
20
-78.487255
30
0.0
11
-122.020022
21
-78.487255
31
0.0
0
LINE
8
0
6
CONTINUOUS
10
-121.454022
20
-76.487254
30
0.0
11
-121.454022
21
-78.487255
31
0.0
0
LINE
8
0
6
CONTINUOUS
10
-122.020022
20
-76.487254
30
0.0
11
-122.020022
21
-78.487255
31
0.0
0
LINE
8
0
6
CONTINUOUS
10
-118.245022
20
-78.487255
30
0.0
11
-118.245022
21
-76.487254
31
0.0
0
LINE
8
0
6
CONTINUOUS
10
-118.811022
20
-78.487255
30
0.0
11
-118.811022
21
-76.487254
31
0.0
0
LINE
8
0
6
CONTINUOUS
10
-118.245022
20
-78.487255
30
0.0
11
-118.811022
21
-78.487255
31
0.0
0
LINE
8
0
6
CONTINUOUS
10
-118.245022
20
-76.487254
30
0.0
11
-118.245022
21
-78.487255
31
0.0
0
LINE
8
0
6
CONTINUOUS
10
-120.132022
20
-78.487255
30
0.0
11
-120.132022
21
-76.487254
31
0.0
0
LINE
8
0
6
CONTINUOUS
10
-118.811022
20
-78.487255
30
0.0
11
-120.132022
21
-78.487255
31
0.0
0
LINE
8
0
6
CONTINUOUS
10
-118.811022
20
-76.487254
30
0.0
11
-118.811022
21
-78.487255
31
0.0
0
LINE
8
0
6
CONTINUOUS
10
-121.454022
20
-78.487255
30
0.0
11
-120.132022
21
-78.487255
31
0.0
0
LINE
8
0
6
CONTINUOUS
10
-122.020022
20
-78.487255
30
0.0
11
-121.454022
21
-78.487255
31
0.0
0
LINE
8
0
6
CONTINUOUS
10
-118.811022
20
-78.487255
30
0.0
11
-118.245022
21
-78.487255
31
0.0
0
LINE
8
0
6
CONTINUOUS
10
-120.132022
20
-78.487255
30
0.0
11
-118.811022
21
-78.487255
31
0.0
0
LINE
8
0
6
CONTINUOUS
10
-84.964022
20
-78.487255
30
0.0
11
-84.964022
21
-76.487254
31
0.0
0
LINE
8
0
6
CONTINUOUS
10
-83.642022
20
-78.487255
30
0.0
11
-84.964022
21
-78.487255
31
0.0
0
LINE
8
0
6
CONTINUOUS
10
-83.642022
20
-76.487254
30
0.0
11
-83.642022
21
-78.487255
31
0.0
0
LINE
8
0
6
CONTINUOUS
10
-85.530022
20
-78.487255
30
0.0
11
-85.530022
21
-76.487254
31
0.0
0
LINE
8
0
6
CONTINUOUS
10
-84.964022
20
-78.487255
30
0.0
11
-85.530022
21
-78.487255
31
0.0
0
LINE
8
0
6
CONTINUOUS
10
-84.964022
20
-76.487254
30
0.0
11
-84.964022
21
-78.487255
31
0.0
0
LINE
8
0
6
CONTINUOUS
10
-85.530022
20
-76.487254
30
0.0
11
-85.530022
21
-78.487255
31
0.0
0
LINE
8
0
6
CONTINUOUS
10
-81.755022
20
-78.487255
30
0.0
11
-81.755022
21
-76.487254
31
0.0
0
LINE
8
0
6
CONTINUOUS
10
-82.321022
20
-78.487255
30
0.0
11
-82.321022
21
-76.487254
31
0.0
0
LINE
8
0
6
CONTINUOUS
10
-81.755022
20
-78.487255
30
0.0
11
-82.321022
21
-78.487255
31
0.0
0
LINE
8
0
6
CONTINUOUS
10
-81.755022
20
-76.487254
30
0.0
11
-81.755022
21
-78.487255
31
0.0
0
LINE
8
0
6
CONTINUOUS
10
-83.642022
20
-78.487255
30
0.0
11
-83.642022
21
-76.487254
31
0.0
0
LINE
8
0
6
CONTINUOUS
10
-82.321022
20
-78.487255
30
0.0
11
-83.642022
21
-78.487255
31
0.0
0
LINE
8
0
6
CONTINUOUS
10
-82.321022
20
-76.487254
30
0.0
11
-82.321022
21
-78.487255
31
0.0
0
LINE
8
0
6
CONTINUOUS
10
-84.964022
20
-78.487255
30
0.0
11
-83.642022
21
-78.487255
31
0.0
0
LINE
8
0
6
CONTINUOUS
10
-85.530022
20
-78.487255
30
0.0
11
-84.964022
21
-78.487255
31
0.0
0
LINE
8
0
6
CONTINUOUS
10
-82.321022
20
-78.487255
30
0.0
11
-81.755022
21
-78.487255
31
0.0
0
LINE
8
0
6
CONTINUOUS
10
-83.642022
20
-78.487255
30
0.0
11
-82.321022
21
-78.487255
31
0.0
0
LINE
8
0
6
CONTINUOUS
10
-103.209022
20
-78.487255
30
0.0
11
-103.209022
21
-76.487254
31
0.0
0
LINE
8
0
6
CONTINUOUS
10
-101.887022
20
-78.487255
30
0.0
11
-103.209022
21
-78.487255
31
0.0
0
LINE
8
0
6
CONTINUOUS
10
-101.887022
20
-76.487254
30
0.0
11
-101.887022
21
-78.487255
31
0.0
0
LINE
8
0
6
CONTINUOUS
10
-103.775022
20
-78.487255
30
0.0
11
-103.775022
21
-76.487254
31
0.0
0
LINE
8
0
6
CONTINUOUS
10
-103.209022
20
-78.487255
30
0.0
11
-103.775022
21
-78.487255
31
0.0
0
LINE
8
0
6
CONTINUOUS
10
-103.209022
20
-76.487254
30
0.0
11
-103.209022
21
-78.487255
31
0.0
0
LINE
8
0
6
CONTINUOUS
10
-103.775022
20
-76.487254
30
0.0
11
-103.775022
21
-78.487255
31
0.0
0
LINE
8
0
6
CONTINUOUS
10
-100.000022
20
-78.487255
30
0.0
11
-100.000022
21
-76.487254
31
0.0
0
LINE
8
0
6
CONTINUOUS
10
-100.566022
20
-78.487255
30
0.0
11
-100.566022
21
-76.487254
31
0.0
0
LINE
8
0
6
CONTINUOUS
10
-100.000022
20
-78.487255
30
0.0
11
-100.566022
21
-78.487255
31
0.0
0
LINE
8
0
6
CONTINUOUS
10
-100.000022
20
-76.487254
30
0.0
11
-100.000022
21
-78.487255
31
0.0
0
LINE
8
0
6
CONTINUOUS
10
-101.887022
20
-78.487255
30
0.0
11
-101.887022
21
-76.487254
31
0.0
0
LINE
8
0
6
CONTINUOUS
10
-100.566022
20
-78.487255
30
0.0
11
-101.887022
21
-78.487255
31
0.0
0
LINE
8
0
6
CONTINUOUS
10
-100.566022
20
-76.487254
30
0.0
11
-100.566022
21
-78.487255
31
0.0
0
LINE
8
0
6
CONTINUOUS
10
-103.209022
20
-78.487255
30
0.0
11
-101.887022
21
-78.487255
31
0.0
0
LINE
8
0
6
CONTINUOUS
10
-103.775022
20
-78.487255
30
0.0
11
-103.209022
21
-78.487255
31
0.0
0
LINE
8
0
6
CONTINUOUS
10
-100.566022
20
-78.487255
30
0.0
11
-100.000022
21
-78.487255
31
0.0
0
LINE
8
0
6
CONTINUOUS
10
-101.887022
20
-78.487255
30
0.0
11
-100.566022
21
-78.487255
31
0.0
0
LINE
8
0
6
CONTINUOUS
10
-66.719022
20
-78.487255
30
0.0
11
-66.719022
21
-76.487254
31
0.0
0
LINE
8
0
6
CONTINUOUS
10
-65.397022
20
-78.487255
30
0.0
11
-66.719022
21
-78.487255
31
0.0
0
LINE
8
0
6
CONTINUOUS
10
-65.397022
20
-76.487254
30
0.0
11
-65.397022
21
-78.487255
31
0.0
0
LINE
8
0
6
CONTINUOUS
10
-67.285022
20
-78.487255
30
0.0
11
-67.285022
21
-76.487254
31
0.0
0
LINE
8
0
6
CONTINUOUS
10
-66.719022
20
-78.487255
30
0.0
11
-67.285022
21
-78.487255
31
0.0
0
LINE
8
0
6
CONTINUOUS
10
-66.719022
20
-76.487254
30
0.0
11
-66.719022
21
-78.487255
31
0.0
0
LINE
8
0
6
CONTINUOUS
10
-67.285022
20
-76.487254
30
0.0
11
-67.285022
21
-78.487255
31
0.0
0
LINE
8
0
6
CONTINUOUS
10
-63.510022
20
-78.487255
30
0.0
11
-63.510022
21
-76.487254
31
0.0
0
LINE
8
0
6
CONTINUOUS
10
-64.076022
20
-78.487255
30
0.0
11
-64.076022
21
-76.487254
31
0.0
0
LINE
8
0
6
CONTINUOUS
10
-63.510022
20
-78.487255
30
0.0
11
-64.076022
21
-78.487255
31
0.0
0
LINE
8
0
6
CONTINUOUS
10
-63.510022
20
-76.487254
30
0.0
11
-63.510022
21
-78.487255
31
0.0
0
LINE
8
0
6
CONTINUOUS
10
-65.397022
20
-78.487255
30
0.0
11
-65.397022
21
-76.487254
31
0.0
0
LINE
8
0
6
CONTINUOUS
10
-64.076022
20
-78.487255
30
0.0
11
-65.397022
21
-78.487255
31
0.0
0
LINE
8
0
6
CONTINUOUS
10
-64.076022
20
-76.487254
30
0.0
11
-64.076022
21
-78.487255
31
0.0
0
LINE
8
0
6
CONTINUOUS
10
-66.719022
20
-78.487255
30
0.0
11
-65.397022
21
-78.487255
31
0.0
0
LINE
8
0
6
CONTINUOUS
10
-67.285022
20
-78.487255
30
0.0
11
-66.719022
21
-78.487255
31
0.0
0
LINE
8
0
6
CONTINUOUS
10
-64.076022
20
-78.487255
30
0.0
11
-63.510022
21
-78.487255
31
0.0
0
LINE
8
0
6
CONTINUOUS
10
-65.397022
20
-78.487255
30
0.0
11
-64.076022
21
-78.487255
31
0.0
0
LINE
8
0
6
CONTINUOUS
10
-155.301322
20
-78.487255
30
0.0
11
-155.301322
21
-76.487254
31
0.0
0
LINE
8
0
6
CONTINUOUS
10
-156.622522
20
-78.487255
30
0.0
11
-155.301322
21
-78.487255
31
0.0
0
LINE
8
0
6
CONTINUOUS
10
-156.622522
20
-76.487254
30
0.0
11
-156.622522
21
-78.487255
31
0.0
0
LINE
8
0
6
CONTINUOUS
10
-154.735122
20
-78.487255
30
0.0
11
-154.735122
21
-76.487254
31
0.0
0
LINE
8
0
6
CONTINUOUS
10
-155.301322
20
-78.487255
30
0.0
11
-154.735122
21
-78.487255
31
0.0
0
LINE
8
0
6
CONTINUOUS
10
-155.301322
20
-76.487254
30
0.0
11
-155.301322
21
-78.487255
31
0.0
0
LINE
8
0
6
CONTINUOUS
10
-154.735122
20
-76.487254
30
0.0
11
-154.735122
21
-78.487255
31
0.0
0
LINE
8
0
6
CONTINUOUS
10
-158.509922
20
-78.487255
30
0.0
11
-158.509922
21
-76.487254
31
0.0
0
LINE
8
0
6
CONTINUOUS
10
-157.943722
20
-78.487255
30
0.0
11
-157.943722
21
-76.487254
31
0.0
0
LINE
8
0
6
CONTINUOUS
10
-158.509922
20
-78.487255
30
0.0
11
-157.943722
21
-78.487255
31
0.0
0
LINE
8
0
6
CONTINUOUS
10
-158.509922
20
-76.487254
30
0.0
11
-158.509922
21
-78.487255
31
0.0
0
LINE
8
0
6
CONTINUOUS
10
-156.622522
20
-78.487255
30
0.0
11
-156.622522
21
-76.487254
31
0.0
0
LINE
8
0
6
CONTINUOUS
10
-157.943722
20
-78.487255
30
0.0
11
-156.622522
21
-78.487255
31
0.0
0
LINE
8
0
6
CONTINUOUS
10
-157.943722
20
-76.487254
30
0.0
11
-157.943722
21
-78.487255
31
0.0
0
LINE
8
0
6
CONTINUOUS
10
-155.301322
20
-78.487255
30
0.0
11
-156.622522
21
-78.487255
31
0.0
0
LINE
8
0
6
CONTINUOUS
10
-154.735122
20
-78.487255
30
0.0
11
-155.301322
21
-78.487255
31
0.0
0
LINE
8
0
6
CONTINUOUS
10
-157.943722
20
-78.487255
30
0.0
11
-158.509922
21
-78.487255
31
0.0
0
LINE
8
0
6
CONTINUOUS
10
-156.622522
20
-78.487255
30
0.0
11
-157.943722
21
-78.487255
31
0.0
0
LINE
8
0
6
CONTINUOUS
10
-173.546422
20
-78.487255
30
0.0
11
-173.546422
21
-76.487254
31
0.0
0
LINE
8
0
6
CONTINUOUS
10
-174.867522
20
-78.487255
30
0.0
11
-173.546422
21
-78.487255
31
0.0
0
LINE
8
0
6
CONTINUOUS
10
-174.867522
20
-76.487254
30
0.0
11
-174.867522
21
-78.487255
31
0.0
0
LINE
8
0
6
CONTINUOUS
10
-172.980122
20
-78.487255
30
0.0
11
-172.980122
21
-76.487254
31
0.0
0
LINE
8
0
6
CONTINUOUS
10
-173.546422
20
-78.487255
30
0.0
11
-172.980122
21
-78.487255
31
0.0
0
LINE
8
0
6
CONTINUOUS
10
-173.546422
20
-76.487254
30
0.0
11
-173.546422
21
-78.487255
31
0.0
0
LINE
8
0
6
CONTINUOUS
10
-172.980122
20
-76.487254
30
0.0
11
-172.980122
21
-78.487255
31
0.0
0
LINE
8
0
6
CONTINUOUS
10
-176.755022
20
-78.487255
30
0.0
11
-176.755022
21
-76.487254
31
0.0
0
LINE
8
0
6
CONTINUOUS
10
-176.188722
20
-78.487255
30
0.0
11
-176.188722
21
-76.487254
31
0.0
0
LINE
8
0
6
CONTINUOUS
10
-176.755022
20
-78.487255
30
0.0
11
-176.188722
21
-78.487255
31
0.0
0
LINE
8
0
6
CONTINUOUS
10
-176.755022
20
-76.487254
30
0.0
11
-176.755022
21
-78.487255
31
0.0
0
LINE
8
0
6
CONTINUOUS
10
-174.867522
20
-78.487255
30
0.0
11
-174.867522
21
-76.487254
31
0.0
0
LINE
8
0
6
CONTINUOUS
10
-176.188722
20
-78.487255
30
0.0
11
-174.867522
21
-78.487255
31
0.0
0
LINE
8
0
6
CONTINUOUS
10
-176.188722
20
-76.487254
30
0.0
11
-176.188722
21
-78.487255
31
0.0
0
LINE
8
0
6
CONTINUOUS
10
-173.546422
20
-78.487255
30
0.0
11
-174.867522
21
-78.487255
31
0.0
0
LINE
8
0
6
CONTINUOUS
10
-172.980122
20
-78.487255
30
0.0
11
-173.546422
21
-78.487255
31
0.0
0
LINE
8
0
6
CONTINUOUS
10
-176.188722
20
-78.487255
30
0.0
11
-176.755022
21
-78.487255
31
0.0
0
LINE
8
0
6
CONTINUOUS
10
-174.867522
20
-78.487255
30
0.0
11
-176.188722
21
-78.487255
31
0.0
0
LINE
8
0
6
CONTINUOUS
10
-210.036422
20
-78.487255
30
0.0
11
-210.036422
21
-76.487254
31
0.0
0
LINE
8
0
6
CONTINUOUS
10
-211.357622
20
-78.487255
30
0.0
11
-210.036422
21
-78.487255
31
0.0
0
LINE
8
0
6
CONTINUOUS
10
-211.357622
20
-76.487254
30
0.0
11
-211.357622
21
-78.487255
31
0.0
0
LINE
8
0
6
CONTINUOUS
10
-209.470222
20
-78.487255
30
0.0
11
-209.470222
21
-76.487254
31
0.0
0
LINE
8
0
6
CONTINUOUS
10
-210.036422
20
-78.487255
30
0.0
11
-209.470222
21
-78.487255
31
0.0
0
LINE
8
0
6
CONTINUOUS
10
-210.036422
20
-76.487254
30
0.0
11
-210.036422
21
-78.487255
31
0.0
0
LINE
8
0
6
CONTINUOUS
10
-209.470222
20
-76.487254
30
0.0
11
-209.470222
21
-78.487255
31
0.0
0
LINE
8
0
6
CONTINUOUS
10
-213.245022
20
-78.487255
30
0.0
11
-213.245022
21
-76.487254
31
0.0
0
LINE
8
0
6
CONTINUOUS
10
-212.678822
20
-78.487255
30
0.0
11
-212.678822
21
-76.487254
31
0.0
0
LINE
8
0
6
CONTINUOUS
10
-213.245022
20
-78.487255
30
0.0
11
-212.678822
21
-78.487255
31
0.0
0
LINE
8
0
6
CONTINUOUS
10
-213.245022
20
-76.487254
30
0.0
11
-213.245022
21
-78.487255
31
0.0
0
LINE
8
0
6
CONTINUOUS
10
-211.357622
20
-78.487255
30
0.0
11
-211.357622
21
-76.487254
31
0.0
0
LINE
8
0
6
CONTINUOUS
10
-212.678822
20
-78.487255
30
0.0
11
-211.357622
21
-78.487255
31
0.0
0
LINE
8
0
6
CONTINUOUS
10
-212.678822
20
-76.487254
30
0.0
11
-212.678822
21
-78.487255
31
0.0
0
LINE
8
0
6
CONTINUOUS
10
-210.036422
20
-78.487255
30
0.0
11
-211.357622
21
-78.487255
31
0.0
0
LINE
8
0
6
CONTINUOUS
10
-209.470222
20
-78.487255
30
0.0
11
-210.036422
21
-78.487255
31
0.0
0
LINE
8
0
6
CONTINUOUS
10
-212.678822
20
-78.487255
30
0.0
11
-213.245022
21
-78.487255
31
0.0
0
LINE
8
0
6
CONTINUOUS
10
-211.357622
20
-78.487255
30
0.0
11
-212.678822
21
-78.487255
31
0.0
0
LINE
8
0
6
CONTINUOUS
10
-191.791422
20
-78.487255
30
0.0
11
-191.791422
21
-76.487254
31
0.0
0
LINE
8
0
6
CONTINUOUS
10
-193.112622
20
-78.487255
30
0.0
11
-191.791422
21
-78.487255
31
0.0
0
LINE
8
0
6
CONTINUOUS
10
-193.112622
20
-76.487254
30
0.0
11
-193.112622
21
-78.487255
31
0.0
0
LINE
8
0
6
CONTINUOUS
10
-191.225222
20
-78.487255
30
0.0
11
-191.225222
21
-76.487254
31
0.0
0
LINE
8
0
6
CONTINUOUS
10
-191.791422
20
-78.487255
30
0.0
11
-191.225222
21
-78.487255
31
0.0
0
LINE
8
0
6
CONTINUOUS
10
-191.791422
20
-76.487254
30
0.0
11
-191.791422
21
-78.487255
31
0.0
0
LINE
8
0
6
CONTINUOUS
10
-191.225222
20
-76.487254
30
0.0
11
-191.225222
21
-78.487255
31
0.0
0
LINE
8
0
6
CONTINUOUS
10
-195.000022
20
-78.487255
30
0.0
11
-195.000022
21
-76.487254
31
0.0
0
LINE
8
0
6
CONTINUOUS
10
-194.433822
20
-78.487255
30
0.0
11
-194.433822
21
-76.487254
31
0.0
0
LINE
8
0
6
CONTINUOUS
10
-195.000022
20
-78.487255
30
0.0
11
-194.433822
21
-78.487255
31
0.0
0
LINE
8
0
6
CONTINUOUS
10
-195.000022
20
-76.487254
30
0.0
11
-195.000022
21
-78.487255
31
0.0
0
LINE
8
0
6
CONTINUOUS
10
-193.112622
20
-78.487255
30
0.0
11
-193.112622
21
-76.487254
31
0.0
0
LINE
8
0
6
CONTINUOUS
10
-194.433822
20
-78.487255
30
0.0
11
-193.112622
21
-78.487255
31
0.0
0
LINE
8
0
6
CONTINUOUS
10
-194.433822
20
-76.487254
30
0.0
11
-194.433822
21
-78.487255
31
0.0
0
LINE
8
0
6
CONTINUOUS
10
-191.791422
20
-78.487255
30
0.0
11
-193.112622
21
-78.487255
31
0.0
0
LINE
8
0
6
CONTINUOUS
10
-191.225222
20
-78.487255
30
0.0
11
-191.791422
21
-78.487255
31
0.0
0
LINE
8
0
6
CONTINUOUS
10
-194.433822
20
-78.487255
30
0.0
11
-195.000022
21
-78.487255
31
0.0
0
LINE
8
0
6
CONTINUOUS
10
-193.112622
20
-78.487255
30
0.0
11
-194.433822
21
-78.487255
31
0.0
0
LINE
8
0
6
CONTINUOUS
10
-228.281522
20
-78.487255
30
0.0
11
-228.281522
21
-76.487254
31
0.0
0
LINE
8
0
6
CONTINUOUS
10
-229.602622
20
-78.487255
30
0.0
11
-228.281522
21
-78.487255
31
0.0
0
LINE
8
0
6
CONTINUOUS
10
-229.602622
20
-76.487254
30
0.0
11
-229.602622
21
-78.487255
31
0.0
0
LINE
8
0
6
CONTINUOUS
10
-227.715222
20
-78.487255
30
0.0
11
-227.715222
21
-76.487254
31
0.0
0
LINE
8
0
6
CONTINUOUS
10
-228.281522
20
-78.487255
30
0.0
11
-227.715222
21
-78.487255
31
0.0
0
LINE
8
0
6
CONTINUOUS
10
-228.281522
20
-76.487254
30
0.0
11
-228.281522
21
-78.487255
31
0.0
0
LINE
8
0
6
CONTINUOUS
10
-227.715222
20
-76.487254
30
0.0
11
-227.715222
21
-78.487255
31
0.0
0
LINE
8
0
6
CONTINUOUS
10
-231.490122
20
-78.487255
30
0.0
11
-231.490122
21
-76.487254
31
0.0
0
LINE
8
0
6
CONTINUOUS
10
-230.923822
20
-78.487255
30
0.0
11
-230.923822
21
-76.487254
31
0.0
0
LINE
8
0
6
CONTINUOUS
10
-231.490122
20
-78.487255
30
0.0
11
-230.923822
21
-78.487255
31
0.0
0
LINE
8
0
6
CONTINUOUS
10
-231.490122
20
-76.487254
30
0.0
11
-231.490122
21
-78.487255
31
0.0
0
LINE
8
0
6
CONTINUOUS
10
-229.602622
20
-78.487255
30
0.0
11
-229.602622
21
-76.487254
31
0.0
0
LINE
8
0
6
CONTINUOUS
10
-230.923822
20
-78.487255
30
0.0
11
-229.602622
21
-78.487255
31
0.0
0
LINE
8
0
6
CONTINUOUS
10
-230.923822
20
-76.487254
30
0.0
11
-230.923822
21
-78.487255
31
0.0
0
LINE
8
0
6
CONTINUOUS
10
-228.281522
20
-78.487255
30
0.0
11
-229.602622
21
-78.487255
31
0.0
0
LINE
8
0
6
CONTINUOUS
10
-227.715222
20
-78.487255
30
0.0
11
-228.281522
21
-78.487255
31
0.0
0
LINE
8
0
6
CONTINUOUS
10
-230.923822
20
-78.487255
30
0.0
11
-231.490122
21
-78.487255
31
0.0
0
LINE
8
0
6
CONTINUOUS
10
-229.602622
20
-78.487255
30
0.0
11
-230.923822
21
-78.487255
31
0.0
0
LINE
8
0
6
CONTINUOUS
10
-158.020222
20
-2.136744
30
0.0
11
-156.506122
21
5.429156
31
0.0
0
LINE
8
0
6
CONTINUOUS
10
-158.563022
20
-9.606744
30
0.0
11
-158.020222
21
-2.136744
31
0.0
0
LINE
8
0
6
CONTINUOUS
10
-133.653022
20
4.302356
30
0.0
11
-135.216022
21
-0.278044
31
0.0
0
LINE
8
0
6
CONTINUOUS
10
-135.216022
20
-0.278044
30
0.0
11
-136.165022
21
-5.022944
31
0.0
0
LINE
8
0
6
CONTINUOUS
10
-136.165022
20
-5.022944
30
0.0
11
-136.448022
21
-9.606744
31
0.0
0
LINE
8
0
6
CONTINUOUS
10
-154.015022
20
12.733356
30
0.0
11
-150.589622
21
19.650456
31
0.0
0
LINE
8
0
6
CONTINUOUS
10
-146.288522
20
26.062256
30
0.0
11
-140.915022
21
32.129256
31
0.0
0
LINE
8
0
6
CONTINUOUS
10
-150.589622
20
19.650456
30
0.0
11
-146.288522
21
26.062256
31
0.0
0
LINE
8
0
6
CONTINUOUS
10
-156.506122
20
5.429156
30
0.0
11
-154.015022
21
12.733356
31
0.0
0
LINE
8
0
6
CONTINUOUS
10
-125.364022
20
16.540456
30
0.0
11
-128.808022
21
12.661355
31
0.0
0
LINE
8
0
6
CONTINUOUS
10
-128.808022
20
12.661355
30
0.0
11
-131.505022
21
8.640156
31
0.0
0
LINE
8
0
6
CONTINUOUS
10
-131.505022
20
8.640156
30
0.0
11
-133.653022
21
4.302356
31
0.0
0
LINE
8
0
6
CONTINUOUS
10
-134.917022
20
-78.487255
30
0.0
11
-134.917022
21
-76.487254
31
0.0
0
LINE
8
0
6
CONTINUOUS
10
-135.370022
20
-78.487255
30
0.0
11
-134.917022
21
-78.487255
31
0.0
0
LINE
8
0
6
CONTINUOUS
10
-136.578022
20
-78.487255
30
0.0
11
-135.370022
21
-78.487255
31
0.0
0
LINE
8
0
6
CONTINUOUS
10
-144.278822
20
-78.487255
30
0.0
11
-141.259022
21
-78.487255
31
0.0
0
LINE
8
0
6
CONTINUOUS
10
-147.500022
20
-78.487255
30
0.0
11
-144.278822
21
-78.487255
31
0.0
0
LINE
8
0
6
CONTINUOUS
10
-134.917022
20
-78.487255
30
0.0
11
-135.370022
21
-78.487255
31
0.0
0
LINE
8
0
6
CONTINUOUS
10
-135.370022
20
-78.487255
30
0.0
11
-136.578022
21
-78.487255
31
0.0
0
LINE
8
0
6
CONTINUOUS
10
-141.259022
20
-78.487255
30
0.0
11
-144.278822
21
-78.487255
31
0.0
0
LINE
8
0
6
CONTINUOUS
10
-144.278822
20
-78.487255
30
0.0
11
-147.500022
21
-78.487255
31
0.0
0
LINE
8
0
6
CONTINUOUS
10
-160.082822
20
-78.487255
30
0.0
11
-159.629822
21
-78.487255
31
0.0
0
LINE
8
0
6
CONTINUOUS
10
-159.629822
20
-78.487255
30
0.0
11
-158.421922
21
-78.487255
31
0.0
0
LINE
8
0
6
CONTINUOUS
10
-153.741122
20
-78.487255
30
0.0
11
-150.721222
21
-78.487255
31
0.0
0
LINE
8
0
6
CONTINUOUS
10
-150.721222
20
-78.487255
30
0.0
11
-147.500022
21
-78.487255
31
0.0
0
LINE
8
0
6
CONTINUOUS
10
-159.629822
20
-78.487255
30
0.0
11
-160.082822
21
-78.487255
31
0.0
0
LINE
8
0
6
CONTINUOUS
10
-158.421922
20
-78.487255
30
0.0
11
-159.629822
21
-78.487255
31
0.0
0
LINE
8
0
6
CONTINUOUS
10
-150.721222
20
-78.487255
30
0.0
11
-153.741122
21
-78.487255
31
0.0
0
LINE
8
0
6
CONTINUOUS
10
-147.500022
20
-78.487255
30
0.0
11
-150.721222
21
-78.487255
31
0.0
0
LINE
8
0
6
CONTINUOUS
10
-160.082822
20
-78.487255
30
0.0
11
-160.082822
21
-76.487254
31
0.0
0
LINE
8
0
6
CONTINUOUS
10
-206.009922
20
-58.487244
30
0.0
11
-197.202022
21
-57.820544
31
0.0
0
LINE
8
0
6
CONTINUOUS
10
-219.851022
20
-59.820544
30
0.0
11
-206.009922
21
-58.487244
31
0.0
0
LINE
8
0
6
CONTINUOUS
10
-229.917222
20
-61.153944
30
0.0
11
-219.851022
21
-59.820544
31
0.0
0
LINE
8
0
6
CONTINUOUS
10
-237.466872
20
-62.487244
30
0.0
11
-229.917222
21
-61.153944
31
0.0
0
LINE
8
0
6
CONTINUOUS
10
-166.625822
20
-56.487244
30
0.0
11
-166.827122
21
-56.487244
31
0.0
0
LINE
8
0
6
CONTINUOUS
10
-166.827122
20
-56.487244
30
0.0
11
-166.958022
21
-56.487244
31
0.0
0
LINE
8
0
6
CONTINUOUS
10
-166.958022
20
-56.487244
30
0.0
11
-167.003322
21
-56.487244
31
0.0
0
LINE
8
0
6
CONTINUOUS
10
-185.877522
20
-57.153944
30
0.0
11
-167.003322
21
-56.487244
31
0.0
0
LINE
8
0
6
CONTINUOUS
10
-166.349022
20
-56.487244
30
0.0
11
-166.625822
21
-56.487244
31
0.0
0
LINE
8
0
6
CONTINUOUS
10
-165.996722
20
-56.487244
30
0.0
11
-166.349022
21
-56.487244
31
0.0
0
LINE
8
0
6
CONTINUOUS
10
-165.629322
20
-56.487244
30
0.0
11
-165.996722
21
-56.487244
31
0.0
0
LINE
8
0
6
CONTINUOUS
10
-165.241722
20
-56.487244
30
0.0
11
-165.629322
21
-56.487244
31
0.0
0
LINE
8
0
6
CONTINUOUS
10
-147.500022
20
-56.487244
30
0.0
11
-165.241722
21
-56.487244
31
0.0
0
LINE
8
0
6
CONTINUOUS
10
-197.202022
20
-57.820544
30
0.0
11
-185.877522
21
-57.153944
31
0.0
0
LINE
8
0
6
CONTINUOUS
10
-127.997022
20
-56.487244
30
0.0
11
-109.123022
21
-57.153944
31
0.0
0
LINE
8
0
6
CONTINUOUS
10
-128.374022
20
-56.487244
30
0.0
11
-128.173022
21
-56.487244
31
0.0
0
LINE
8
0
6
CONTINUOUS
10
-128.173022
20
-56.487244
30
0.0
11
-128.042022
21
-56.487244
31
0.0
0
LINE
8
0
6
CONTINUOUS
10
-128.042022
20
-56.487244
30
0.0
11
-127.997022
21
-56.487244
31
0.0
0
LINE
8
0
6
CONTINUOUS
10
-128.651022
20
-56.487244
30
0.0
11
-128.374022
21
-56.487244
31
0.0
0
LINE
8
0
6
CONTINUOUS
10
-129.003022
20
-56.487244
30
0.0
11
-128.651022
21
-56.487244
31
0.0
0
LINE
8
0
6
CONTINUOUS
10
-129.371022
20
-56.487244
30
0.0
11
-129.003022
21
-56.487244
31
0.0
0
LINE
8
0
6
CONTINUOUS
10
-129.758022
20
-56.487244
30
0.0
11
-129.371022
21
-56.487244
31
0.0
0
LINE
8
0
6
CONTINUOUS
10
-147.500022
20
-56.487244
30
0.0
11
-129.758022
21
-56.487244
31
0.0
0
LINE
8
0
6
CONTINUOUS
10
-65.083022
20
-61.153944
30
0.0
11
-57.533022
21
-62.487244
31
0.0
0
LINE
8
0
6
CONTINUOUS
10
-75.149022
20
-59.820544
30
0.0
11
-65.083022
21
-61.153944
31
0.0
0
LINE
8
0
6
CONTINUOUS
10
-88.990022
20
-58.487244
30
0.0
11
-75.149022
21
-59.820544
31
0.0
0
LINE
8
0
6
CONTINUOUS
10
-97.798022
20
-57.820544
30
0.0
11
-88.990022
21
-58.487244
31
0.0
0
LINE
8
0
6
CONTINUOUS
10
-109.123022
20
-57.153944
30
0.0
11
-97.798022
21
-57.820544
31
0.0
0
LINE
8
0
6
CONTINUOUS
10
-241.619183
20
-64.487244
30
0.0
11
-240.612562
21
-64.487244
31
0.0
0
LINE
8
0
6
CONTINUOUS
10
-242.273488
20
-64.487244
30
0.0
11
-241.619183
21
-64.487244
31
0.0
0
LINE
8
0
6
CONTINUOUS
10
-242.499978
20
-64.487244
30
0.0
11
-242.273488
21
-64.487244
31
0.0
0
LINE
8
0
6
CONTINUOUS
10
-242.499978
20
-64.487244
30
0.0
11
-241.870839
21
-63.820544
31
0.0
0
LINE
8
0
6
CONTINUOUS
10
-240.612562
20
-64.487244
30
0.0
11
-239.228462
21
-64.487244
31
0.0
0
LINE
8
0
6
CONTINUOUS
10
-239.228462
20
-64.487244
30
0.0
11
-237.466872
21
-64.487244
31
0.0
0
LINE
8
0
6
CONTINUOUS
10
-237.466872
20
-64.487244
30
0.0
11
-235.629782
21
-64.487244
31
0.0
0
LINE
8
0
6
CONTINUOUS
10
-235.629782
20
-64.487244
30
0.0
11
-233.692032
21
-64.487244
31
0.0
0
LINE
8
0
6
CONTINUOUS
10
-233.692032
20
-64.487244
30
0.0
11
-147.500022
21
-64.487244
31
0.0
0
LINE
8
0
6
CONTINUOUS
10
-240.612562
20
-64.487244
30
0.0
11
-241.619183
21
-64.487244
31
0.0
0
LINE
8
0
6
CONTINUOUS
10
-241.619183
20
-75.820584
30
0.0
11
-240.612562
21
-75.820584
31
0.0
0
LINE
8
0
6
CONTINUOUS
10
-241.619183
20
-64.487244
30
0.0
11
-242.273488
21
-64.487244
31
0.0
0
LINE
8
0
6
CONTINUOUS
10
-242.273488
20
-75.820584
30
0.0
11
-241.619183
21
-75.820584
31
0.0
0
LINE
8
0
6
CONTINUOUS
10
-242.273488
20
-64.487244
30
0.0
11
-242.499978
21
-64.487244
31
0.0
0
LINE
8
0
6
CONTINUOUS
10
-242.499978
20
-75.820584
30
0.0
11
-242.273488
21
-75.820584
31
0.0
0
LINE
8
0
6
CONTINUOUS
10
-242.499978
20
-75.820584
30
0.0
11
-242.499978
21
-64.487244
31
0.0
0
LINE
8
0
6
CONTINUOUS
10
-240.612562
20
-75.820584
30
0.0
11
-239.228462
21
-75.820584
31
0.0
0
LINE
8
0
6
CONTINUOUS
10
-239.228462
20
-64.487244
30
0.0
11
-240.612562
21
-64.487244
31
0.0
0
LINE
8
0
6
CONTINUOUS
10
-239.228462
20
-75.820584
30
0.0
11
-237.466872
21
-75.820584
31
0.0
0
LINE
8
0
6
CONTINUOUS
10
-237.466872
20
-64.487244
30
0.0
11
-239.228462
21
-64.487244
31
0.0
0
LINE
8
0
6
CONTINUOUS
10
-237.466872
20
-75.820584
30
0.0
11
-235.629782
21
-75.820584
31
0.0
0
LINE
8
0
6
CONTINUOUS
10
-235.629782
20
-64.487244
30
0.0
11
-237.466872
21
-64.487244
31
0.0
0
LINE
8
0
6
CONTINUOUS
10
-235.629782
20
-75.820584
30
0.0
11
-233.692032
21
-75.820584
31
0.0
0
LINE
8
0
6
CONTINUOUS
10
-233.692032
20
-64.487244
30
0.0
11
-235.629782
21
-64.487244
31
0.0
0
LINE
8
0
6
CONTINUOUS
10
-233.692032
20
-75.820584
30
0.0
11
-147.500022
21
-75.820584
31
0.0
0
LINE
8
0
6
CONTINUOUS
10
-147.500022
20
-64.487244
30
0.0
11
-233.692032
21
-64.487244
31
0.0
0
LINE
8
0
6
CONTINUOUS
10
-240.612562
20
-75.820584
30
0.0
11
-241.619183
21
-75.820584
31
0.0
0
LINE
8
0
6
CONTINUOUS
10
-241.619183
20
-75.820584
30
0.0
11
-242.273488
21
-75.820584
31
0.0
0
LINE
8
0
6
CONTINUOUS
10
-242.273488
20
-75.820584
30
0.0
11
-242.499978
21
-75.820584
31
0.0
0
LINE
8
0
6
CONTINUOUS
10
-241.241702
20
-76.487254
30
0.0
11
-242.499978
21
-75.820584
31
0.0
0
LINE
8
0
6
CONTINUOUS
10
-239.228462
20
-75.820584
30
0.0
11
-240.612562
21
-75.820584
31
0.0
0
LINE
8
0
6
CONTINUOUS
10
-237.466872
20
-75.820584
30
0.0
11
-239.228462
21
-75.820584
31
0.0
0
LINE
8
0
6
CONTINUOUS
10
-235.629782
20
-75.820584
30
0.0
11
-237.466872
21
-75.820584
31
0.0
0
LINE
8
0
6
CONTINUOUS
10
-233.692032
20
-75.820584
30
0.0
11
-235.629782
21
-75.820584
31
0.0
0
LINE
8
0
6
CONTINUOUS
10
-147.500022
20
-75.820584
30
0.0
11
-233.692032
21
-75.820584
31
0.0
0
LINE
8
0
6
CONTINUOUS
10
-239.379452
20
-76.487254
30
0.0
11
-240.372652
21
-76.487254
31
0.0
0
LINE
8
0
6
CONTINUOUS
10
-240.372652
20
-76.487254
30
0.0
11
-241.018232
21
-76.487254
31
0.0
0
LINE
8
0
6
CONTINUOUS
10
-241.018232
20
-76.487254
30
0.0
11
-241.241702
21
-76.487254
31
0.0
0
LINE
8
0
6
CONTINUOUS
10
-238.013802
20
-76.487254
30
0.0
11
-239.379452
21
-76.487254
31
0.0
0
LINE
8
0
6
CONTINUOUS
10
-236.275692
20
-76.487254
30
0.0
11
-238.013802
21
-76.487254
31
0.0
0
LINE
8
0
6
CONTINUOUS
10
-234.463112
20
-76.487254
30
0.0
11
-236.275692
21
-76.487254
31
0.0
0
LINE
8
0
6
CONTINUOUS
10
-232.551192
20
-76.487254
30
0.0
11
-234.463112
21
-76.487254
31
0.0
0
LINE
8
0
6
CONTINUOUS
10
-147.500022
20
-76.487254
30
0.0
11
-232.551192
21
-76.487254
31
0.0
0
LINE
8
0
6
CONTINUOUS
10
-241.870839
20
-63.820544
30
0.0
11
-237.466872
21
-62.487244
31
0.0
0
LINE
8
0
6
CONTINUOUS
10
-57.533022
20
-62.487244
30
0.0
11
-53.129022
21
-63.820544
31
0.0
0
LINE
8
0
6
CONTINUOUS
10
-55.621022
20
-76.487254
30
0.0
11
-54.628022
21
-76.487254
31
0.0
0
LINE
8
0
6
CONTINUOUS
10
-53.381022
20
-75.820584
30
0.0
11
-54.387022
21
-75.820584
31
0.0
0
LINE
8
0
6
CONTINUOUS
10
-54.628022
20
-76.487254
30
0.0
11
-53.982022
21
-76.487254
31
0.0
0
LINE
8
0
6
CONTINUOUS
10
-52.726022
20
-75.820584
30
0.0
11
-53.381022
21
-75.820584
31
0.0
0
LINE
8
0
6
CONTINUOUS
10
-53.982022
20
-76.487254
30
0.0
11
-53.758022
21
-76.487254
31
0.0
0
LINE
8
0
6
CONTINUOUS
10
-52.500022
20
-75.820584
30
0.0
11
-52.726022
21
-75.820584
31
0.0
0
LINE
8
0
6
CONTINUOUS
10
-52.500022
20
-75.820584
30
0.0
11
-53.758022
21
-76.487254
31
0.0
0
LINE
8
0
6
CONTINUOUS
10
-54.387022
20
-75.820584
30
0.0
11
-55.772022
21
-75.820584
31
0.0
0
LINE
8
0
6
CONTINUOUS
10
-56.986022
20
-76.487254
30
0.0
11
-55.621022
21
-76.487254
31
0.0
0
LINE
8
0
6
CONTINUOUS
10
-55.772022
20
-75.820584
30
0.0
11
-57.533022
21
-75.820584
31
0.0
0
LINE
8
0
6
CONTINUOUS
10
-58.725022
20
-76.487254
30
0.0
11
-56.986022
21
-76.487254
31
0.0
0
LINE
8
0
6
CONTINUOUS
10
-57.533022
20
-75.820584
30
0.0
11
-59.370022
21
-75.820584
31
0.0
0
LINE
8
0
6
CONTINUOUS
10
-60.537022
20
-76.487254
30
0.0
11
-58.725022
21
-76.487254
31
0.0
0
LINE
8
0
6
CONTINUOUS
10
-59.370022
20
-75.820584
30
0.0
11
-61.308022
21
-75.820584
31
0.0
0
LINE
8
0
6
CONTINUOUS
10
-62.449022
20
-76.487254
30
0.0
11
-60.537022
21
-76.487254
31
0.0
0
LINE
8
0
6
CONTINUOUS
10
-61.308022
20
-75.820584
30
0.0
11
-147.500022
21
-75.820584
31
0.0
0
LINE
8
0
6
CONTINUOUS
10
-147.500022
20
-76.487254
30
0.0
11
-62.449022
21
-76.487254
31
0.0
0
LINE
8
0
6
CONTINUOUS
10
-54.387022
20
-75.820584
30
0.0
11
-53.381022
21
-75.820584
31
0.0
0
LINE
8
0
6
CONTINUOUS
10
-53.381022
20
-64.487245
30
0.0
11
-54.387022
21
-64.487245
31
0.0
0
LINE
8
0
6
CONTINUOUS
10
-53.381022
20
-75.820584
30
0.0
11
-52.726022
21
-75.820584
31
0.0
0
LINE
8
0
6
CONTINUOUS
10
-52.726022
20
-64.487245
30
0.0
11
-53.381022
21
-64.487245
31
0.0
0
LINE
8
0
6
CONTINUOUS
10
-52.726022
20
-75.820584
30
0.0
11
-52.500022
21
-75.820584
31
0.0
0
LINE
8
0
6
CONTINUOUS
10
-52.500022
20
-64.487245
30
0.0
11
-52.726022
21
-64.487245
31
0.0
0
LINE
8
0
6
CONTINUOUS
10
-52.500022
20
-64.487245
30
0.0
11
-52.500022
21
-75.820584
31
0.0
0
LINE
8
0
6
CONTINUOUS
10
-54.387022
20
-64.487245
30
0.0
11
-55.772022
21
-64.487245
31
0.0
0
LINE
8
0
6
CONTINUOUS
10
-55.772022
20
-75.820584
30
0.0
11
-54.387022
21
-75.820584
31
0.0
0
LINE
8
0
6
CONTINUOUS
10
-55.772022
20
-64.487245
30
0.0
11
-57.533022
21
-64.487245
31
0.0
0
LINE
8
0
6
CONTINUOUS
10
-57.533022
20
-75.820584
30
0.0
11
-55.772022
21
-75.820584
31
0.0
0
LINE
8
0
6
CONTINUOUS
10
-57.533022
20
-64.487245
30
0.0
11
-59.370022
21
-64.487244
31
0.0
0
LINE
8
0
6
CONTINUOUS
10
-59.370022
20
-75.820584
30
0.0
11
-57.533022
21
-75.820584
31
0.0
0
LINE
8
0
6
CONTINUOUS
10
-59.370022
20
-64.487244
30
0.0
11
-61.308022
21
-64.487244
31
0.0
0
LINE
8
0
6
CONTINUOUS
10
-61.308022
20
-75.820584
30
0.0
11
-59.370022
21
-75.820584
31
0.0
0
LINE
8
0
6
CONTINUOUS
10
-61.308022
20
-64.487244
30
0.0
11
-147.500022
21
-64.487244
31
0.0
0
LINE
8
0
6
CONTINUOUS
10
-147.500022
20
-75.820584
30
0.0
11
-61.308022
21
-75.820584
31
0.0
0
LINE
8
0
6
CONTINUOUS
10
-54.387022
20
-64.487245
30
0.0
11
-53.381022
21
-64.487245
31
0.0
0
LINE
8
0
6
CONTINUOUS
10
-53.381022
20
-64.487245
30
0.0
11
-52.726022
21
-64.487245
31
0.0
0
LINE
8
0
6
CONTINUOUS
10
-52.726022
20
-64.487245
30
0.0
11
-52.500022
21
-64.487245
31
0.0
0
LINE
8
0
6
CONTINUOUS
10
-53.129022
20
-63.820544
30
0.0
11
-52.500022
21
-64.487245
31
0.0
0
LINE
8
0
6
CONTINUOUS
10
-55.772022
20
-64.487245
30
0.0
11
-54.387022
21
-64.487245
31
0.0
0
LINE
8
0
6
CONTINUOUS
10
-57.533022
20
-64.487245
30
0.0
11
-55.772022
21
-64.487245
31
0.0
0
LINE
8
0
6
CONTINUOUS
10
-59.370022
20
-64.487244
30
0.0
11
-57.533022
21
-64.487245
31
0.0
0
LINE
8
0
6
CONTINUOUS
10
-61.308022
20
-64.487244
30
0.0
11
-59.370022
21
-64.487244
31
0.0
0
LINE
8
0
6
CONTINUOUS
10
-147.500022
20
-64.487244
30
0.0
11
-61.308022
21
-64.487244
31
0.0
0
LINE
8
0
6
CONTINUOUS
10
-151.154022
20
-24.487244
30
0.0
11
-147.500022
21
-24.487244
31
0.0
0
LINE
8
0
6
CONTINUOUS
10
-157.476022
20
-24.487244
30
0.0
11
-154.518022
21
-24.487244
31
0.0
0
LINE
8
0
6
CONTINUOUS
10
-159.738022
20
-24.487244
30
0.0
11
-157.476022
21
-24.487244
31
0.0
0
LINE
8
0
6
CONTINUOUS
10
-161.130022
20
-24.487244
30
0.0
11
-159.738022
21
-24.487244
31
0.0
0
LINE
8
0
6
CONTINUOUS
10
-161.652022
20
-24.487244
30
0.0
11
-161.130022
21
-24.487244
31
0.0
0
LINE
8
0
6
CONTINUOUS
10
-147.500022
20
-24.487244
30
0.0
11
-151.154022
21
-24.487244
31
0.0
0
LINE
8
0
6
CONTINUOUS
10
-151.212022
20
-24.914544
30
0.0
11
-147.500022
21
-24.914544
31
0.0
0
LINE
8
0
6
CONTINUOUS
10
-151.154022
20
-24.487244
30
0.0
11
-154.518022
21
-24.487244
31
0.0
0
LINE
8
0
6
CONTINUOUS
10
-154.692022
20
-24.914544
30
0.0
11
-151.212022
21
-24.914544
31
0.0
0
LINE
8
0
6
CONTINUOUS
10
-154.518022
20
-24.487244
30
0.0
11
-157.476022
21
-24.487244
31
0.0
0
LINE
8
0
6
CONTINUOUS
10
-157.766022
20
-24.914544
30
0.0
11
-154.692022
21
-24.914544
31
0.0
0
LINE
8
0
6
CONTINUOUS
10
-157.476022
20
-24.487244
30
0.0
11
-159.738022
21
-24.487244
31
0.0
0
LINE
8
0
6
CONTINUOUS
10
-160.086022
20
-24.914544
30
0.0
11
-157.766022
21
-24.914544
31
0.0
0
LINE
8
0
6
CONTINUOUS
10
-159.738022
20
-24.487244
30
0.0
11
-161.130022
21
-24.487244
31
0.0
0
LINE
8
0
6
CONTINUOUS
10
-161.478022
20
-24.914544
30
0.0
11
-160.086022
21
-24.914544
31
0.0
0
LINE
8
0
6
CONTINUOUS
10
-161.652022
20
-24.487244
30
0.0
11
-162.000022
21
-24.914544
31
0.0
0
LINE
8
0
6
CONTINUOUS
10
-161.130022
20
-24.487244
30
0.0
11
-161.652022
21
-24.487244
31
0.0
0
LINE
8
0
6
CONTINUOUS
10
-162.000022
20
-24.914544
30
0.0
11
-161.478022
21
-24.914544
31
0.0
0
LINE
8
0
6
CONTINUOUS
10
-151.212022
20
-46.487244
30
0.0
11
-147.500022
21
-46.487244
31
0.0
0
LINE
8
0
6
CONTINUOUS
10
-147.500022
20
-24.914544
30
0.0
11
-151.212022
21
-24.914544
31
0.0
0
LINE
8
0
6
CONTINUOUS
10
-154.692022
20
-46.487244
30
0.0
11
-151.212022
21
-46.487244
31
0.0
0
LINE
8
0
6
CONTINUOUS
10
-157.766022
20
-46.487244
30
0.0
11
-154.692022
21
-46.487244
31
0.0
0
LINE
8
0
6
CONTINUOUS
10
-154.692022
20
-24.914544
30
0.0
11
-157.766022
21
-24.914544
31
0.0
0
LINE
8
0
6
CONTINUOUS
10
-160.086022
20
-46.487244
30
0.0
11
-157.766022
21
-46.487244
31
0.0
0
LINE
8
0
6
CONTINUOUS
10
-157.766022
20
-24.914544
30
0.0
11
-160.086022
21
-24.914544
31
0.0
0
LINE
8
0
6
CONTINUOUS
10
-161.478022
20
-46.487244
30
0.0
11
-160.086022
21
-46.487244
31
0.0
0
LINE
8
0
6
CONTINUOUS
10
-160.086022
20
-24.914544
30
0.0
11
-161.478022
21
-24.914544
31
0.0
0
LINE
8
0
6
CONTINUOUS
10
-162.000022
20
-46.487244
30
0.0
11
-161.478022
21
-46.487244
31
0.0
0
LINE
8
0
6
CONTINUOUS
10
-162.000022
20
-24.914544
30
0.0
11
-162.000022
21
-46.487244
31
0.0
0
LINE
8
0
6
CONTINUOUS
10
-161.478022
20
-24.914544
30
0.0
11
-162.000022
21
-24.914544
31
0.0
0
LINE
8
0
6
CONTINUOUS
10
-147.500022
20
-46.487244
30
0.0
11
-143.788022
21
-46.487244
31
0.0
0
LINE
8
0
6
CONTINUOUS
10
-143.788022
20
-24.914544
30
0.0
11
-147.500022
21
-24.914544
31
0.0
0
LINE
8
0
6
CONTINUOUS
10
-143.788022
20
-46.487244
30
0.0
11
-140.308022
21
-46.487244
31
0.0
0
LINE
8
0
6
CONTINUOUS
10
-140.308022
20
-24.914544
30
0.0
11
-143.788022
21
-24.914544
31
0.0
0
LINE
8
0
6
CONTINUOUS
10
-140.308022
20
-46.487244
30
0.0
11
-137.234022
21
-46.487244
31
0.0
0
LINE
8
0
6
CONTINUOUS
10
-137.234022
20
-24.914544
30
0.0
11
-140.308022
21
-24.914544
31
0.0
0
LINE
8
0
6
CONTINUOUS
10
-137.234022
20
-46.487244
30
0.0
11
-134.914022
21
-46.487244
31
0.0
0
LINE
8
0
6
CONTINUOUS
10
-134.914022
20
-24.914544
30
0.0
11
-137.234022
21
-24.914544
31
0.0
0
LINE
8
0
6
CONTINUOUS
10
-134.914022
20
-46.487244
30
0.0
11
-133.522022
21
-46.487244
31
0.0
0
LINE
8
0
6
CONTINUOUS
10
-133.522022
20
-46.487244
30
0.0
11
-133.000022
21
-46.487244
31
0.0
0
LINE
8
0
6
CONTINUOUS
10
-133.000022
20
-46.487244
30
0.0
11
-133.000022
21
-24.914544
31
0.0
0
LINE
8
0
6
CONTINUOUS
10
-147.500022
20
-24.487244
30
0.0
11
-143.846022
21
-24.487244
31
0.0
0
LINE
8
0
6
CONTINUOUS
10
-143.846022
20
-24.487244
30
0.0
11
-140.482022
21
-24.487244
31
0.0
0
LINE
8
0
6
CONTINUOUS
10
-140.482022
20
-24.487244
30
0.0
11
-137.524022
21
-24.487244
31
0.0
0
LINE
8
0
6
CONTINUOUS
10
-137.524022
20
-24.487244
30
0.0
11
-135.262022
21
-24.487244
31
0.0
0
LINE
8
0
6
CONTINUOUS
10
-147.500022
20
-24.914544
30
0.0
11
-143.788022
21
-24.914544
31
0.0
0
LINE
8
0
6
CONTINUOUS
10
-143.846022
20
-24.487244
30
0.0
11
-147.500022
21
-24.487244
31
0.0
0
LINE
8
0
6
CONTINUOUS
10
-143.788022
20
-24.914544
30
0.0
11
-140.308022
21
-24.914544
31
0.0
0
LINE
8
0
6
CONTINUOUS
10
-140.482022
20
-24.487244
30
0.0
11
-143.846022
21
-24.487244
31
0.0
0
LINE
8
0
6
CONTINUOUS
10
-140.308022
20
-24.914544
30
0.0
11
-137.234022
21
-24.914544
31
0.0
0
LINE
8
0
6
CONTINUOUS
10
-137.524022
20
-24.487244
30
0.0
11
-140.482022
21
-24.487244
31
0.0
0
LINE
8
0
6
CONTINUOUS
10
-137.234022
20
-24.914544
30
0.0
11
-134.914022
21
-24.914544
31
0.0
0
LINE
8
0
6
CONTINUOUS
10
-135.262022
20
-24.487244
30
0.0
11
-137.524022
21
-24.487244
31
0.0
0
LINE
8
0
6
CONTINUOUS
10
-134.914022
20
-24.914544
30
0.0
11
-133.522022
21
-24.914544
31
0.0
0
LINE
8
0
6
CONTINUOUS
10
-133.870022
20
-24.487244
30
0.0
11
-135.262022
21
-24.487244
31
0.0
0
LINE
8
0
6
CONTINUOUS
10
-133.000022
20
-24.914544
30
0.0
11
-133.348022
21
-24.487244
31
0.0
0
LINE
8
0
6
CONTINUOUS
10
-133.522022
20
-24.914544
30
0.0
11
-133.000022
21
-24.914544
31
0.0
0
LINE
8
0
6
CONTINUOUS
10
-133.348022
20
-24.487244
30
0.0
11
-133.870022
21
-24.487244
31
0.0
0
LINE
8
0
6
CONTINUOUS
10
-162.000022
20
-46.487244
30
0.0
11
-162.140022
21
-46.487244
31
0.0
0
LINE
8
0
6
CONTINUOUS
10
-162.140022
20
-46.487244
30
0.0
11
-162.000022
21
-46.487244
31
0.0
0
LINE
8
0
6
CONTINUOUS
10
-151.280022
20
-46.487244
30
0.0
11
-147.500022
21
-46.487244
31
0.0
0
LINE
8
0
6
CONTINUOUS
10
-154.760022
20
-46.487244
30
0.0
11
-151.280022
21
-46.487244
31
0.0
0
LINE
8
0
6
CONTINUOUS
10
-157.820022
20
-46.487244
30
0.0
11
-154.760022
21
-46.487244
31
0.0
0
LINE
8
0
6
CONTINUOUS
10
-160.160022
20
-46.487244
30
0.0
11
-157.820022
21
-46.487244
31
0.0
0
LINE
8
0
6
CONTINUOUS
10
-161.600022
20
-46.487244
30
0.0
11
-160.160022
21
-46.487244
31
0.0
0
LINE
8
0
6
CONTINUOUS
10
-162.140022
20
-46.487244
30
0.0
11
-161.600022
21
-46.487244
31
0.0
0
LINE
8
0
6
CONTINUOUS
10
-147.500022
20
-46.487244
30
0.0
11
-151.280022
21
-46.487244
31
0.0
0
LINE
8
0
6
CONTINUOUS
10
-151.340022
20
-46.914644
30
0.0
11
-147.500022
21
-46.914644
31
0.0
0
LINE
8
0
6
CONTINUOUS
10
-151.280022
20
-46.487244
30
0.0
11
-154.760022
21
-46.487244
31
0.0
0
LINE
8
0
6
CONTINUOUS
10
-154.940022
20
-46.914644
30
0.0
11
-151.340022
21
-46.914644
31
0.0
0
LINE
8
0
6
CONTINUOUS
10
-154.760022
20
-46.487244
30
0.0
11
-157.820022
21
-46.487244
31
0.0
0
LINE
8
0
6
CONTINUOUS
10
-158.120022
20
-46.914644
30
0.0
11
-154.940022
21
-46.914644
31
0.0
0
LINE
8
0
6
CONTINUOUS
10
-157.820022
20
-46.487244
30
0.0
11
-160.160022
21
-46.487244
31
0.0
0
LINE
8
0
6
CONTINUOUS
10
-160.520022
20
-46.914644
30
0.0
11
-158.120022
21
-46.914644
31
0.0
0
LINE
8
0
6
CONTINUOUS
10
-160.160022
20
-46.487244
30
0.0
11
-161.600022
21
-46.487244
31
0.0
0
LINE
8
0
6
CONTINUOUS
10
-161.960022
20
-46.914644
30
0.0
11
-160.520022
21
-46.914644
31
0.0
0
LINE
8
0
6
CONTINUOUS
10
-162.140022
20
-46.487244
30
0.0
11
-162.500022
21
-46.914644
31
0.0
0
LINE
8
0
6
CONTINUOUS
10
-161.600022
20
-46.487244
30
0.0
11
-162.140022
21
-46.487244
31
0.0
0
LINE
8
0
6
CONTINUOUS
10
-162.500022
20
-46.914644
30
0.0
11
-161.960022
21
-46.914644
31
0.0
0
LINE
8
0
6
CONTINUOUS
10
-147.500022
20
-46.914644
30
0.0
11
-151.340022
21
-46.914644
31
0.0
0
LINE
8
0
6
CONTINUOUS
10
-154.940022
20
-46.914644
30
0.0
11
-158.120022
21
-46.914644
31
0.0
0
LINE
8
0
6
CONTINUOUS
10
-158.120022
20
-46.914644
30
0.0
11
-160.520022
21
-46.914644
31
0.0
0
LINE
8
0
6
CONTINUOUS
10
-160.520022
20
-46.914644
30
0.0
11
-161.960022
21
-46.914644
31
0.0
0
LINE
8
0
6
CONTINUOUS
10
-162.500022
20
-46.914644
30
0.0
11
-162.500022
21
-56.487244
31
0.0
0
LINE
8
0
6
CONTINUOUS
10
-161.960022
20
-46.914644
30
0.0
11
-162.500022
21
-46.914644
31
0.0
0
LINE
8
0
6
CONTINUOUS
10
-143.660022
20
-46.914644
30
0.0
11
-147.500022
21
-46.914644
31
0.0
0
LINE
8
0
6
CONTINUOUS
10
-140.060022
20
-46.914644
30
0.0
11
-143.660022
21
-46.914644
31
0.0
0
LINE
8
0
6
CONTINUOUS
10
-136.880022
20
-46.914644
30
0.0
11
-140.060022
21
-46.914644
31
0.0
0
LINE
8
0
6
CONTINUOUS
10
-134.480022
20
-46.914644
30
0.0
11
-136.880022
21
-46.914644
31
0.0
0
LINE
8
0
6
CONTINUOUS
10
-132.500022
20
-56.487244
30
0.0
11
-132.500022
21
-46.914644
31
0.0
0
LINE
8
0
6
CONTINUOUS
10
-132.860022
20
-46.487244
30
0.0
11
-133.000022
21
-46.487244
31
0.0
0
LINE
8
0
6
CONTINUOUS
10
-134.480022
20
-46.914644
30
0.0
11
-136.880022
21
-46.914644
31
0.0
0
LINE
8
0
6
CONTINUOUS
10
-133.000022
20
-46.487244
30
0.0
11
-132.860022
21
-46.487244
31
0.0
0
LINE
8
0
6
CONTINUOUS
10
-147.500022
20
-46.487244
30
0.0
11
-143.720022
21
-46.487244
31
0.0
0
LINE
8
0
6
CONTINUOUS
10
-143.720022
20
-46.487244
30
0.0
11
-140.240022
21
-46.487244
31
0.0
0
LINE
8
0
6
CONTINUOUS
10
-140.240022
20
-46.487244
30
0.0
11
-137.180022
21
-46.487244
31
0.0
0
LINE
8
0
6
CONTINUOUS
10
-137.180022
20
-46.487244
30
0.0
11
-134.840022
21
-46.487244
31
0.0
0
LINE
8
0
6
CONTINUOUS
10
-134.840022
20
-46.487244
30
0.0
11
-133.400022
21
-46.487244
31
0.0
0
LINE
8
0
6
CONTINUOUS
10
-133.400022
20
-46.487244
30
0.0
11
-132.860022
21
-46.487244
31
0.0
0
LINE
8
0
6
CONTINUOUS
10
-147.500022
20
-46.914644
30
0.0
11
-143.660022
21
-46.914644
31
0.0
0
LINE
8
0
6
CONTINUOUS
10
-143.720022
20
-46.487244
30
0.0
11
-147.500022
21
-46.487244
31
0.0
0
LINE
8
0
6
CONTINUOUS
10
-143.660022
20
-46.914644
30
0.0
11
-140.060022
21
-46.914644
31
0.0
0
LINE
8
0
6
CONTINUOUS
10
-140.240022
20
-46.487244
30
0.0
11
-143.720022
21
-46.487244
31
0.0
0
LINE
8
0
6
CONTINUOUS
10
-140.060022
20
-46.914644
30
0.0
11
-136.880022
21
-46.914644
31
0.0
0
LINE
8
0
6
CONTINUOUS
10
-137.180022
20
-46.487244
30
0.0
11
-140.240022
21
-46.487244
31
0.0
0
LINE
8
0
6
CONTINUOUS
10
-136.880022
20
-46.914644
30
0.0
11
-134.480022
21
-46.914644
31
0.0
0
LINE
8
0
6
CONTINUOUS
10
-134.840022
20
-46.487244
30
0.0
11
-137.180022
21
-46.487244
31
0.0
0
LINE
8
0
6
CONTINUOUS
10
-134.480022
20
-46.914644
30
0.0
11
-133.040022
21
-46.914644
31
0.0
0
LINE
8
0
6
CONTINUOUS
10
-133.400022
20
-46.487244
30
0.0
11
-134.840022
21
-46.487244
31
0.0
0
LINE
8
0
6
CONTINUOUS
10
-132.500022
20
-46.914644
30
0.0
11
-132.860022
21
-46.487244
31
0.0
0
LINE
8
0
6
CONTINUOUS
10
-133.040022
20
-46.914644
30
0.0
11
-132.500022
21
-46.914644
31
0.0
0
LINE
8
0
6
CONTINUOUS
10
-132.860022
20
-46.487244
30
0.0
11
-133.400022
21
-46.487244
31
0.0
0
LINE
8
0
6
CONTINUOUS
10
-106.907022
20
48.940256
30
0.0
11
-99.209022
21
49.446256
31
0.0
0
LINE
8
0
6
CONTINUOUS
10
-99.209022
20
27.400255
30
0.0
11
-104.037022
21
27.082255
31
0.0
0
LINE
8
0
6
CONTINUOUS
10
-114.474022
20
47.431256
30
0.0
11
-106.907022
21
48.940256
31
0.0
0
LINE
8
0
6
CONTINUOUS
10
-104.037022
20
27.082255
30
0.0
11
-108.782022
21
26.136256
31
0.0
0
LINE
8
0
6
CONTINUOUS
10
-121.780022
20
44.945256
30
0.0
11
-114.474022
21
47.431256
31
0.0
0
LINE
8
0
6
CONTINUOUS
10
-108.782022
20
26.136256
30
0.0
11
-113.364022
21
24.577256
31
0.0
0
LINE
8
0
6
CONTINUOUS
10
-135.115022
20
37.228256
30
0.0
11
-128.700022
21
41.524256
31
0.0
0
LINE
8
0
6
CONTINUOUS
10
-117.703022
20
22.432255
30
0.0
11
-121.726022
21
19.738256
31
0.0
0
LINE
8
0
6
CONTINUOUS
10
-128.700022
20
41.524256
30
0.0
11
-121.780022
21
44.945256
31
0.0
0
LINE
8
0
6
CONTINUOUS
10
-113.364022
20
24.577256
30
0.0
11
-117.703022
21
22.432255
31
0.0
0
LINE
8
0
6
CONTINUOUS
10
-140.915022
20
32.129256
30
0.0
11
-135.115022
21
37.228256
31
0.0
0
LINE
8
0
6
CONTINUOUS
10
-121.726022
20
19.738256
30
0.0
11
-125.364022
21
16.540456
31
0.0
0
LINE
8
0
6
CONTINUOUS
10
-99.209022
20
49.446256
30
0.0
11
225.499978
21
49.437311
31
0.0
0
LINE
8
0
6
CONTINUOUS
10
225.499978
20
27.397274
30
0.0
11
-99.209022
21
27.400255
31
0.0
0
LINE
8
0
6
CONTINUOUS
10
242.499978
20
73.558256
30
0.0
11
242.499978
21
74.286256
31
0.0
0
LINE
8
0
6
CONTINUOUS
10
242.499978
20
74.286256
30
0.0
11
242.499978
21
74.917255
31
0.0
0
LINE
8
0
6
CONTINUOUS
10
242.499978
20
74.917255
30
0.0
11
242.499978
21
75.427255
31
0.0
0
LINE
8
0
6
CONTINUOUS
10
242.499978
20
75.427255
30
0.0
11
242.499978
21
75.929256
31
0.0
0
LINE
8
0
6
CONTINUOUS
10
242.499978
20
75.929256
30
0.0
11
242.499978
21
76.283255
31
0.0
0
LINE
8
0
6
CONTINUOUS
10
242.499978
20
76.283255
30
0.0
11
242.499978
21
76.607255
31
0.0
0
LINE
8
0
6
CONTINUOUS
10
242.499978
20
76.607255
30
0.0
11
242.499978
21
76.993255
31
0.0
0
LINE
8
0
6
CONTINUOUS
10
242.499978
20
76.993255
30
0.0
11
242.499978
21
77.466256
31
0.0
0
LINE
8
0
6
CONTINUOUS
10
242.499978
20
77.466256
30
0.0
11
242.499978
21
77.900256
31
0.0
0
LINE
8
0
6
CONTINUOUS
10
242.499978
20
77.900256
30
0.0
11
242.499978
21
78.261255
31
0.0
0
LINE
8
0
6
CONTINUOUS
10
242.499978
20
78.261255
30
0.0
11
242.499978
21
78.434255
31
0.0
0
LINE
8
0
6
CONTINUOUS
10
242.499978
20
78.434255
30
0.0
11
242.499978
21
78.487255
31
0.0
0
LINE
8
0
6
CONTINUOUS
10
242.499978
20
74.286256
30
0.0
11
242.499978
21
73.558256
31
0.0
0
LINE
8
0
6
CONTINUOUS
10
242.499978
20
74.917255
30
0.0
11
242.499978
21
74.286256
31
0.0
0
LINE
8
0
6
CONTINUOUS
10
242.499978
20
75.427255
30
0.0
11
242.499978
21
74.917255
31
0.0
0
LINE
8
0
6
CONTINUOUS
10
242.499978
20
75.929256
30
0.0
11
242.499978
21
75.427255
31
0.0
0
LINE
8
0
6
CONTINUOUS
10
242.499978
20
76.283255
30
0.0
11
242.499978
21
75.929256
31
0.0
0
LINE
8
0
6
CONTINUOUS
10
242.499978
20
76.607255
30
0.0
11
242.499978
21
76.283255
31
0.0
0
LINE
8
0
6
CONTINUOUS
10
242.499978
20
76.993255
30
0.0
11
242.499978
21
76.607255
31
0.0
0
LINE
8
0
6
CONTINUOUS
10
242.499978
20
77.466256
30
0.0
11
242.499978
21
76.993255
31
0.0
0
LINE
8
0
6
CONTINUOUS
10
242.499978
20
77.900256
30
0.0
11
242.499978
21
77.466256
31
0.0
0
LINE
8
0
6
CONTINUOUS
10
242.499978
20
78.261255
30
0.0
11
242.499978
21
77.900256
31
0.0
0
LINE
8
0
6
CONTINUOUS
10
242.499978
20
78.434255
30
0.0
11
242.499978
21
78.261255
31
0.0
0
LINE
8
0
6
CONTINUOUS
10
242.499978
20
78.487255
30
0.0
11
242.499978
21
78.434255
31
0.0
0
LINE
8
0
6
CONTINUOUS
10
242.499978
20
73.558256
30
0.0
11
242.499978
21
72.734256
31
0.0
0
LINE
8
0
6
CONTINUOUS
10
242.499978
20
72.734256
30
0.0
11
242.499978
21
71.783255
31
0.0
0
LINE
8
0
6
CONTINUOUS
10
242.499978
20
71.783255
30
0.0
11
242.499978
21
70.893255
31
0.0
0
LINE
8
0
6
CONTINUOUS
10
242.499978
20
70.893255
30
0.0
11
242.499978
21
69.649256
31
0.0
0
LINE
8
0
6
CONTINUOUS
10
242.499978
20
69.649256
30
0.0
11
242.499978
21
68.205255
31
0.0
0
LINE
8
0
6
CONTINUOUS
10
242.499978
20
68.205255
30
0.0
11
242.499978
21
66.452256
31
0.0
0
LINE
8
0
6
CONTINUOUS
10
242.499978
20
66.452256
30
0.0
11
242.499978
21
63.211255
31
0.0
0
LINE
8
0
6
CONTINUOUS
10
242.499978
20
63.211255
30
0.0
11
242.499978
21
59.249255
31
0.0
0
LINE
8
0
6
CONTINUOUS
10
242.499978
20
59.249255
30
0.0
11
242.499978
21
53.507256
31
0.0
0
LINE
8
0
6
CONTINUOUS
10
242.499978
20
53.507256
30
0.0
11
242.499978
21
46.956255
31
0.0
0
LINE
8
0
6
CONTINUOUS
10
242.499978
20
46.956255
30
0.0
11
242.499978
21
41.898255
31
0.0
0
LINE
8
0
6
CONTINUOUS
10
242.499978
20
41.898255
30
0.0
11
242.499978
21
38.487255
31
0.0
0
LINE
8
0
6
CONTINUOUS
10
242.499978
20
72.734256
30
0.0
11
242.499978
21
73.558256
31
0.0
0
LINE
8
0
6
CONTINUOUS
10
242.499978
20
71.783255
30
0.0
11
242.499978
21
72.734256
31
0.0
0
LINE
8
0
6
CONTINUOUS
10
242.499978
20
70.893255
30
0.0
11
242.499978
21
71.783255
31
0.0
0
LINE
8
0
6
CONTINUOUS
10
242.499978
20
69.649256
30
0.0
11
242.499978
21
70.893255
31
0.0
0
LINE
8
0
6
CONTINUOUS
10
242.499978
20
68.205255
30
0.0
11
242.499978
21
69.649256
31
0.0
0
LINE
8
0
6
CONTINUOUS
10
242.499978
20
66.452256
30
0.0
11
242.499978
21
68.205255
31
0.0
0
LINE
8
0
6
CONTINUOUS
10
242.499978
20
63.211255
30
0.0
11
242.499978
21
66.452256
31
0.0
0
LINE
8
0
6
CONTINUOUS
10
242.499978
20
59.249255
30
0.0
11
242.499978
21
63.211255
31
0.0
0
LINE
8
0
6
CONTINUOUS
10
242.499978
20
53.507256
30
0.0
11
242.499978
21
59.249255
31
0.0
0
LINE
8
0
6
CONTINUOUS
10
242.499978
20
46.956255
30
0.0
11
242.499978
21
53.507256
31
0.0
0
LINE
8
0
6
CONTINUOUS
10
242.499978
20
41.898255
30
0.0
11
242.499978
21
46.956255
31
0.0
0
LINE
8
0
6
CONTINUOUS
10
242.499978
20
38.487255
30
0.0
11
242.499978
21
41.898255
31
0.0
0
LINE
8
0
6
CONTINUOUS
10
226.309978
20
78.487255
30
0.0
11
242.499978
21
78.487255
31
0.0
0
LINE
8
0
6
CONTINUOUS
10
242.499978
20
3.416255
30
0.0
11
242.499978
21
4.240055
31
0.0
0
LINE
8
0
6
CONTINUOUS
10
242.499978
20
4.240055
30
0.0
11
242.499978
21
5.190756
31
0.0
0
LINE
8
0
6
CONTINUOUS
10
242.499978
20
5.190756
30
0.0
11
242.499978
21
6.080955
31
0.0
0
LINE
8
0
6
CONTINUOUS
10
242.499978
20
6.080955
30
0.0
11
242.499978
21
7.325455
31
0.0
0
LINE
8
0
6
CONTINUOUS
10
242.499978
20
7.325455
30
0.0
11
242.499978
21
8.768855
31
0.0
0
LINE
8
0
6
CONTINUOUS
10
242.499978
20
8.768855
30
0.0
11
242.499978
21
10.521855
31
0.0
0
LINE
8
0
6
CONTINUOUS
10
242.499978
20
10.521855
30
0.0
11
242.499978
21
13.762955
31
0.0
0
LINE
8
0
6
CONTINUOUS
10
242.499978
20
13.762955
30
0.0
11
242.499978
21
17.724855
31
0.0
0
LINE
8
0
6
CONTINUOUS
10
242.499978
20
17.724855
30
0.0
11
242.499978
21
23.467255
31
0.0
0
LINE
8
0
6
CONTINUOUS
10
242.499978
20
23.467255
30
0.0
11
242.499978
21
30.018255
31
0.0
0
LINE
8
0
6
CONTINUOUS
10
242.499978
20
30.018255
30
0.0
11
242.499978
21
35.076255
31
0.0
0
LINE
8
0
6
CONTINUOUS
10
242.499978
20
35.076255
30
0.0
11
242.499978
21
38.487255
31
0.0
0
LINE
8
0
6
CONTINUOUS
10
242.499978
20
4.240055
30
0.0
11
242.499978
21
3.416255
31
0.0
0
LINE
8
0
6
CONTINUOUS
10
242.499978
20
5.190756
30
0.0
11
242.499978
21
4.240055
31
0.0
0
LINE
8
0
6
CONTINUOUS
10
242.499978
20
6.080955
30
0.0
11
242.499978
21
5.190756
31
0.0
0
LINE
8
0
6
CONTINUOUS
10
242.499978
20
7.325455
30
0.0
11
242.499978
21
6.080955
31
0.0
0
LINE
8
0
6
CONTINUOUS
10
242.499978
20
8.768855
30
0.0
11
242.499978
21
7.325455
31
0.0
0
LINE
8
0
6
CONTINUOUS
10
242.499978
20
10.521855
30
0.0
11
242.499978
21
8.768855
31
0.0
0
LINE
8
0
6
CONTINUOUS
10
242.499978
20
13.762955
30
0.0
11
242.499978
21
10.521855
31
0.0
0
LINE
8
0
6
CONTINUOUS
10
242.499978
20
17.724855
30
0.0
11
242.499978
21
13.762955
31
0.0
0
LINE
8
0
6
CONTINUOUS
10
242.499978
20
23.467255
30
0.0
11
242.499978
21
17.724855
31
0.0
0
LINE
8
0
6
CONTINUOUS
10
242.499978
20
30.018255
30
0.0
11
242.499978
21
23.467255
31
0.0
0
LINE
8
0
6
CONTINUOUS
10
242.499978
20
35.076255
30
0.0
11
242.499978
21
30.018255
31
0.0
0
LINE
8
0
6
CONTINUOUS
10
242.499978
20
38.487255
30
0.0
11
242.499978
21
35.076255
31
0.0
0
LINE
8
0
6
CONTINUOUS
10
242.499978
20
3.416255
30
0.0
11
242.499978
21
2.688455
31
0.0
0
LINE
8
0
6
CONTINUOUS
10
242.499978
20
2.688455
30
0.0
11
242.499978
21
2.057155
31
0.0
0
LINE
8
0
6
CONTINUOUS
10
242.499978
20
2.057155
30
0.0
11
242.499978
21
1.546956
31
0.0
0
LINE
8
0
6
CONTINUOUS
10
242.499978
20
1.546956
30
0.0
11
242.499978
21
1.045455
31
0.0
0
LINE
8
0
6
CONTINUOUS
10
242.499978
20
1.045455
30
0.0
11
242.499978
21
0.690855
31
0.0
0
LINE
8
0
6
CONTINUOUS
10
242.499978
20
0.690855
30
0.0
11
242.499978
21
0.367255
31
0.0
0
LINE
8
0
6
CONTINUOUS
10
242.499978
20
0.367255
30
0.0
11
242.499978
21
-0.018845
31
0.0
0
LINE
8
0
6
CONTINUOUS
10
242.499978
20
-0.018845
30
0.0
11
242.499978
21
-0.491245
31
0.0
0
LINE
8
0
6
CONTINUOUS
10
242.499978
20
-0.491245
30
0.0
11
242.499978
21
-0.925445
31
0.0
0
LINE
8
0
6
CONTINUOUS
10
242.499978
20
-0.925445
30
0.0
11
242.499978
21
-1.286445
31
0.0
0
LINE
8
0
6
CONTINUOUS
10
242.499978
20
-1.286445
30
0.0
11
242.499978
21
-1.459645
31
0.0
0
LINE
8
0
6
CONTINUOUS
10
242.499978
20
-1.459645
30
0.0
11
242.499978
21
-1.512745
31
0.0
0
LINE
8
0
6
CONTINUOUS
10
242.499978
20
2.688455
30
0.0
11
242.499978
21
3.416255
31
0.0
0
LINE
8
0
6
CONTINUOUS
10
242.499978
20
2.057155
30
0.0
11
242.499978
21
2.688455
31
0.0
0
LINE
8
0
6
CONTINUOUS
10
242.499978
20
1.546956
30
0.0
11
242.499978
21
2.057155
31
0.0
0
LINE
8
0
6
CONTINUOUS
10
242.499978
20
1.045455
30
0.0
11
242.499978
21
1.546956
31
0.0
0
LINE
8
0
6
CONTINUOUS
10
242.499978
20
0.690855
30
0.0
11
242.499978
21
1.045455
31
0.0
0
LINE
8
0
6
CONTINUOUS
10
242.499978
20
0.367255
30
0.0
11
242.499978
21
0.690855
31
0.0
0
LINE
8
0
6
CONTINUOUS
10
242.499978
20
-0.018845
30
0.0
11
242.499978
21
0.367255
31
0.0
0
LINE
8
0
6
CONTINUOUS
10
242.499978
20
-0.491245
30
0.0
11
242.499978
21
-0.018845
31
0.0
0
LINE
8
0
6
CONTINUOUS
10
242.499978
20
-0.925445
30
0.0
11
242.499978
21
-0.491245
31
0.0
0
LINE
8
0
6
CONTINUOUS
10
242.499978
20
-1.286445
30
0.0
11
242.499978
21
-0.925445
31
0.0
0
LINE
8
0
6
CONTINUOUS
10
242.499978
20
-1.459645
30
0.0
11
242.499978
21
-1.286445
31
0.0
0
LINE
8
0
6
CONTINUOUS
10
242.499978
20
-1.512745
30
0.0
11
242.499978
21
-1.459645
31
0.0
0
LINE
8
0
6
CONTINUOUS
10
242.499978
20
-1.512745
30
0.0
11
226.309978
21
-1.512745
31
0.0
0
LINE
8
0
6
CONTINUOUS
10
225.742978
20
74.156256
30
0.0
11
225.742978
21
73.429256
31
0.0
0
LINE
8
0
6
CONTINUOUS
10
225.742978
20
74.805256
30
0.0
11
225.742978
21
74.156256
31
0.0
0
LINE
8
0
6
CONTINUOUS
10
225.742978
20
75.306255
30
0.0
11
225.742978
21
74.805256
31
0.0
0
LINE
8
0
6
CONTINUOUS
10
225.742978
20
75.790255
30
0.0
11
225.742978
21
75.306255
31
0.0
0
LINE
8
0
6
CONTINUOUS
10
225.742978
20
76.128255
30
0.0
11
225.742978
21
75.790255
31
0.0
0
LINE
8
0
6
CONTINUOUS
10
225.742978
20
76.445256
30
0.0
11
225.742978
21
76.128255
31
0.0
0
LINE
8
0
6
CONTINUOUS
10
225.742978
20
76.826256
30
0.0
11
225.742978
21
76.445256
31
0.0
0
LINE
8
0
6
CONTINUOUS
10
225.742978
20
78.087255
30
0.0
11
225.742978
21
77.741255
31
0.0
0
LINE
8
0
6
CONTINUOUS
10
225.742978
20
78.261255
30
0.0
11
225.742978
21
78.087255
31
0.0
0
LINE
8
0
6
CONTINUOUS
10
225.742978
20
78.332256
30
0.0
11
225.742978
21
78.261255
31
0.0
0
LINE
8
0
6
CONTINUOUS
10
225.742978
20
73.429256
30
0.0
11
225.742978
21
74.156256
31
0.0
0
LINE
8
0
6
CONTINUOUS
10
225.499978
20
73.932255
30
0.0
11
225.499978
21
73.171256
31
0.0
0
LINE
8
0
6
CONTINUOUS
10
225.499978
20
74.538255
30
0.0
11
225.499978
21
73.932255
31
0.0
0
LINE
8
0
6
CONTINUOUS
10
225.742978
20
74.805256
30
0.0
11
225.742978
21
75.306255
31
0.0
0
LINE
8
0
6
CONTINUOUS
10
225.742978
20
75.306255
30
0.0
11
225.742978
21
75.790255
31
0.0
0
LINE
8
0
6
CONTINUOUS
10
225.499978
20
75.500256
30
0.0
11
225.499978
21
75.040255
31
0.0
0
LINE
8
0
6
CONTINUOUS
10
225.742978
20
75.790255
30
0.0
11
225.742978
21
76.128255
31
0.0
0
LINE
8
0
6
CONTINUOUS
10
225.499978
20
75.835256
30
0.0
11
225.499978
21
75.500256
31
0.0
0
LINE
8
0
6
CONTINUOUS
10
225.742978
20
76.128255
30
0.0
11
225.742978
21
76.445256
31
0.0
0
LINE
8
0
6
CONTINUOUS
10
225.499978
20
76.131255
30
0.0
11
225.499978
21
75.835256
31
0.0
0
LINE
8
0
6
CONTINUOUS
10
225.742978
20
76.445256
30
0.0
11
225.742978
21
76.826256
31
0.0
0
LINE
8
0
6
CONTINUOUS
10
225.499978
20
76.559256
30
0.0
11
225.499978
21
76.131255
31
0.0
0
LINE
8
0
6
CONTINUOUS
10
225.499978
20
77.005256
30
0.0
11
225.499978
21
76.559256
31
0.0
0
LINE
8
0
6
CONTINUOUS
10
225.499978
20
77.423256
30
0.0
11
225.499978
21
77.005256
31
0.0
0
LINE
8
0
6
CONTINUOUS
10
225.742978
20
77.741255
30
0.0
11
225.742978
21
78.087255
31
0.0
0
LINE
8
0
6
CONTINUOUS
10
225.499978
20
77.755255
30
0.0
11
225.499978
21
77.423256
31
0.0
0
LINE
8
0
6
CONTINUOUS
10
225.499978
20
77.929255
30
0.0
11
225.499978
21
77.755255
31
0.0
0
LINE
8
0
6
CONTINUOUS
10
225.499978
20
77.971255
30
0.0
11
225.499978
21
77.929255
31
0.0
0
LINE
8
0
6
CONTINUOUS
10
225.499978
20
73.932255
30
0.0
11
225.499978
21
74.538255
31
0.0
0
LINE
8
0
6
CONTINUOUS
10
225.499978
20
74.538255
30
0.0
11
225.499978
21
75.040255
31
0.0
0
LINE
8
0
6
CONTINUOUS
10
225.499978
20
75.040255
30
0.0
11
225.499978
21
75.500256
31
0.0
0
LINE
8
0
6
CONTINUOUS
10
225.499978
20
75.500256
30
0.0
11
225.499978
21
75.835256
31
0.0
0
LINE
8
0
6
CONTINUOUS
10
225.499978
20
75.835256
30
0.0
11
225.499978
21
76.131255
31
0.0
0
LINE
8
0
6
CONTINUOUS
10
225.499978
20
76.559256
30
0.0
11
225.499978
21
77.005256
31
0.0
0
LINE
8
0
6
CONTINUOUS
10
225.499978
20
77.005256
30
0.0
11
225.499978
21
77.423256
31
0.0
0
LINE
8
0
6
CONTINUOUS
10
225.499978
20
77.423256
30
0.0
11
225.499978
21
77.755255
31
0.0
0
LINE
8
0
6
CONTINUOUS
10
225.499978
20
77.755255
30
0.0
11
225.499978
21
77.929255
31
0.0
0
LINE
8
0
6
CONTINUOUS
10
225.499978
20
77.929255
30
0.0
11
225.499978
21
77.971255
31
0.0
0
LINE
8
0
6
CONTINUOUS
10
225.499978
20
72.352255
30
0.0
11
225.499978
21
73.171256
31
0.0
0
LINE
8
0
6
CONTINUOUS
10
225.499978
20
69.301255
30
0.0
11
225.499978
21
70.534256
31
0.0
0
LINE
8
0
6
CONTINUOUS
10
225.499978
20
67.901255
30
0.0
11
225.499978
21
69.301255
31
0.0
0
LINE
8
0
6
CONTINUOUS
10
225.499978
20
66.148256
30
0.0
11
225.499978
21
67.901255
31
0.0
0
LINE
8
0
6
CONTINUOUS
10
225.499978
20
62.986255
30
0.0
11
225.499978
21
66.148256
31
0.0
0
LINE
8
0
6
CONTINUOUS
10
225.499978
20
59.040256
30
0.0
11
225.499978
21
62.986255
31
0.0
0
LINE
8
0
6
CONTINUOUS
10
225.499978
20
46.855255
30
0.0
11
225.499978
21
53.276255
31
0.0
0
LINE
8
0
6
CONTINUOUS
10
225.499978
20
41.841255
30
0.0
11
225.499978
21
46.855255
31
0.0
0
LINE
8
0
6
CONTINUOUS
10
225.499978
20
38.487255
30
0.0
11
225.499978
21
41.841255
31
0.0
0
LINE
8
0
6
CONTINUOUS
10
225.499978
20
73.171256
30
0.0
11
225.499978
21
72.352255
31
0.0
0
LINE
8
0
6
CONTINUOUS
10
225.742978
20
72.596256
30
0.0
11
225.742978
21
73.429256
31
0.0
0
LINE
8
0
6
CONTINUOUS
10
225.499978
20
72.352255
30
0.0
11
225.499978
21
71.391256
31
0.0
0
LINE
8
0
6
CONTINUOUS
10
225.742978
20
71.671256
30
0.0
11
225.742978
21
72.596256
31
0.0
0
LINE
8
0
6
CONTINUOUS
10
225.499978
20
71.391256
30
0.0
11
225.499978
21
70.534256
31
0.0
0
LINE
8
0
6
CONTINUOUS
10
225.742978
20
70.790255
30
0.0
11
225.742978
21
71.671256
31
0.0
0
LINE
8
0
6
CONTINUOUS
10
225.499978
20
70.534256
30
0.0
11
225.499978
21
69.301255
31
0.0
0
LINE
8
0
6
CONTINUOUS
10
225.742978
20
69.528256
30
0.0
11
225.742978
21
70.790255
31
0.0
0
LINE
8
0
6
CONTINUOUS
10
225.499978
20
69.301255
30
0.0
11
225.499978
21
67.901255
31
0.0
0
LINE
8
0
6
CONTINUOUS
10
225.742978
20
68.110255
30
0.0
11
225.742978
21
69.528256
31
0.0
0
LINE
8
0
6
CONTINUOUS
10
225.499978
20
67.901255
30
0.0
11
225.499978
21
66.148256
31
0.0
0
LINE
8
0
6
CONTINUOUS
10
225.742978
20
66.367255
30
0.0
11
225.742978
21
68.110255
31
0.0
0
LINE
8
0
6
CONTINUOUS
10
225.499978
20
66.148256
30
0.0
11
225.499978
21
62.986255
31
0.0
0
LINE
8
0
6
CONTINUOUS
10
225.742978
20
63.129255
30
0.0
11
225.742978
21
66.367255
31
0.0
0
LINE
8
0
6
CONTINUOUS
10
225.499978
20
62.986255
30
0.0
11
225.499978
21
59.040256
31
0.0
0
LINE
8
0
6
CONTINUOUS
10
225.499978
20
59.040256
30
0.0
11
225.499978
21
53.276255
31
0.0
0
LINE
8
0
6
CONTINUOUS
10
225.499978
20
53.276255
30
0.0
11
225.499978
21
46.855255
31
0.0
0
LINE
8
0
6
CONTINUOUS
10
225.742978
20
46.927255
30
0.0
11
225.742978
21
53.435256
31
0.0
0
LINE
8
0
6
CONTINUOUS
10
225.499978
20
46.855255
30
0.0
11
225.499978
21
41.841255
31
0.0
0
LINE
8
0
6
CONTINUOUS
10
225.742978
20
41.884255
30
0.0
11
225.742978
21
46.927255
31
0.0
0
LINE
8
0
6
CONTINUOUS
10
225.499978
20
41.841255
30
0.0
11
225.499978
21
38.487255
31
0.0
0
LINE
8
0
6
CONTINUOUS
10
225.742978
20
38.487255
30
0.0
11
225.742978
21
41.884255
31
0.0
0
LINE
8
0
6
CONTINUOUS
10
225.742978
20
73.429256
30
0.0
11
225.742978
21
72.596256
31
0.0
0
LINE
8
0
6
CONTINUOUS
10
225.742978
20
72.596256
30
0.0
11
225.742978
21
71.671256
31
0.0
0
LINE
8
0
6
CONTINUOUS
10
225.742978
20
71.671256
30
0.0
11
225.742978
21
70.790255
31
0.0
0
LINE
8
0
6
CONTINUOUS
10
225.742978
20
70.790255
30
0.0
11
225.742978
21
69.528256
31
0.0
0
LINE
8
0
6
CONTINUOUS
10
225.742978
20
69.528256
30
0.0
11
225.742978
21
68.110255
31
0.0
0
LINE
8
0
6
CONTINUOUS
10
225.742978
20
68.110255
30
0.0
11
225.742978
21
66.367255
31
0.0
0
LINE
8
0
6
CONTINUOUS
10
225.742978
20
66.367255
30
0.0
11
225.742978
21
63.129255
31
0.0
0
LINE
8
0
6
CONTINUOUS
10
225.742978
20
53.435256
30
0.0
11
225.742978
21
46.927255
31
0.0
0
LINE
8
0
6
CONTINUOUS
10
225.742978
20
46.927255
30
0.0
11
225.742978
21
41.884255
31
0.0
0
LINE
8
0
6
CONTINUOUS
10
225.742978
20
41.884255
30
0.0
11
225.742978
21
38.487255
31
0.0
0
LINE
8
0
6
CONTINUOUS
10
225.499978
20
72.352255
30
0.0
11
225.499978
21
73.171256
31
0.0
0
LINE
8
0
6
CONTINUOUS
10
225.499978
20
62.986255
30
0.0
11
225.499978
21
66.148256
31
0.0
0
LINE
8
0
6
CONTINUOUS
10
225.499978
20
73.171256
30
0.0
11
225.499978
21
72.352255
31
0.0
0
LINE
8
0
6
CONTINUOUS
10
225.499978
20
66.148256
30
0.0
11
225.499978
21
62.986255
31
0.0
0
LINE
8
0
6
CONTINUOUS
10
225.499978
20
74.538255
30
0.0
11
225.499978
21
73.932255
31
0.0
0
LINE
8
0
6
CONTINUOUS
10
225.499978
20
77.423256
30
0.0
11
225.499978
21
77.005256
31
0.0
0
LINE
8
0
6
CONTINUOUS
10
225.499978
20
73.932255
30
0.0
11
225.499978
21
74.538255
31
0.0
0
LINE
8
0
6
CONTINUOUS
10
225.499978
20
77.005256
30
0.0
11
225.499978
21
77.423256
31
0.0
0
LINE
8
0
6
CONTINUOUS
10
225.499978
20
77.971255
30
0.0
11
225.742978
21
78.332256
31
0.0
0
LINE
8
0
6
CONTINUOUS
10
225.742978
20
78.332256
30
0.0
11
226.309978
21
78.487255
31
0.0
0
LINE
8
0
6
CONTINUOUS
10
225.742978
20
4.378355
30
0.0
11
225.742978
21
3.545355
31
0.0
0
LINE
8
0
6
CONTINUOUS
10
225.742978
20
5.303055
30
0.0
11
225.742978
21
4.378355
31
0.0
0
LINE
8
0
6
CONTINUOUS
10
225.742978
20
6.184655
30
0.0
11
225.742978
21
5.303055
31
0.0
0
LINE
8
0
6
CONTINUOUS
10
225.742978
20
7.446455
30
0.0
11
225.742978
21
6.184655
31
0.0
0
LINE
8
0
6
CONTINUOUS
10
225.742978
20
8.863855
30
0.0
11
225.742978
21
7.446455
31
0.0
0
LINE
8
0
6
CONTINUOUS
10
225.742978
20
10.607455
30
0.0
11
225.742978
21
8.863855
31
0.0
0
LINE
8
0
6
CONTINUOUS
10
225.742978
20
13.845655
30
0.0
11
225.742978
21
10.607455
31
0.0
0
LINE
8
0
6
CONTINUOUS
10
225.742978
20
30.047255
30
0.0
11
225.742978
21
23.539255
31
0.0
0
LINE
8
0
6
CONTINUOUS
10
225.742978
20
35.090255
30
0.0
11
225.742978
21
30.047255
31
0.0
0
LINE
8
0
6
CONTINUOUS
10
225.742978
20
38.487255
30
0.0
11
225.742978
21
35.090255
31
0.0
0
LINE
8
0
6
CONTINUOUS
10
225.742978
20
3.545355
30
0.0
11
225.742978
21
4.378355
31
0.0
0
LINE
8
0
6
CONTINUOUS
10
225.499978
20
4.621755
30
0.0
11
225.499978
21
3.803355
31
0.0
0
LINE
8
0
6
CONTINUOUS
10
225.742978
20
4.378355
30
0.0
11
225.742978
21
5.303055
31
0.0
0
LINE
8
0
6
CONTINUOUS
10
225.499978
20
5.583055
30
0.0
11
225.499978
21
4.621755
31
0.0
0
LINE
8
0
6
CONTINUOUS
10
225.742978
20
5.303055
30
0.0
11
225.742978
21
6.184655
31
0.0
0
LINE
8
0
6
CONTINUOUS
10
225.742978
20
6.184655
30
0.0
11
225.742978
21
7.446455
31
0.0
0
LINE
8
0
6
CONTINUOUS
10
225.499978
20
7.672855
30
0.0
11
225.499978
21
6.439855
31
0.0
0
LINE
8
0
6
CONTINUOUS
10
225.742978
20
7.446455
30
0.0
11
225.742978
21
8.863855
31
0.0
0
LINE
8
0
6
CONTINUOUS
10
225.499978
20
9.073055
30
0.0
11
225.499978
21
7.672855
31
0.0
0
LINE
8
0
6
CONTINUOUS
10
225.742978
20
8.863855
30
0.0
11
225.742978
21
10.607455
31
0.0
0
LINE
8
0
6
CONTINUOUS
10
225.499978
20
10.826155
30
0.0
11
225.499978
21
9.073055
31
0.0
0
LINE
8
0
6
CONTINUOUS
10
225.742978
20
10.607455
30
0.0
11
225.742978
21
13.845655
31
0.0
0
LINE
8
0
6
CONTINUOUS
10
225.499978
20
13.988355
30
0.0
11
225.499978
21
10.826155
31
0.0
0
LINE
8
0
6
CONTINUOUS
10
225.499978
20
17.933856
30
0.0
11
225.499978
21
13.988355
31
0.0
0
LINE
8
0
6
CONTINUOUS
10
225.499978
20
23.698255
30
0.0
11
225.499978
21
17.933856
31
0.0
0
LINE
8
0
6
CONTINUOUS
10
225.742978
20
23.539255
30
0.0
11
225.742978
21
30.047255
31
0.0
0
LINE
8
0
6
CONTINUOUS
10
225.499978
20
30.119255
30
0.0
11
225.499978
21
23.698255
31
0.0
0
LINE
8
0
6
CONTINUOUS
10
225.742978
20
30.047255
30
0.0
11
225.742978
21
35.090255
31
0.0
0
LINE
8
0
6
CONTINUOUS
10
225.499978
20
35.133255
30
0.0
11
225.499978
21
30.119255
31
0.0
0
LINE
8
0
6
CONTINUOUS
10
225.742978
20
35.090255
30
0.0
11
225.742978
21
38.487255
31
0.0
0
LINE
8
0
6
CONTINUOUS
10
225.499978
20
38.487255
30
0.0
11
225.499978
21
35.133255
31
0.0
0
LINE
8
0
6
CONTINUOUS
10
225.499978
20
4.621755
30
0.0
11
225.499978
21
5.583055
31
0.0
0
LINE
8
0
6
CONTINUOUS
10
225.499978
20
5.583055
30
0.0
11
225.499978
21
6.439855
31
0.0
0
LINE
8
0
6
CONTINUOUS
10
225.499978
20
6.439855
30
0.0
11
225.499978
21
7.672855
31
0.0
0
LINE
8
0
6
CONTINUOUS
10
225.499978
20
7.672855
30
0.0
11
225.499978
21
9.073055
31
0.0
0
LINE
8
0
6
CONTINUOUS
10
225.499978
20
9.073055
30
0.0
11
225.499978
21
10.826155
31
0.0
0
LINE
8
0
6
CONTINUOUS
10
225.499978
20
13.988355
30
0.0
11
225.499978
21
17.933856
31
0.0
0
LINE
8
0
6
CONTINUOUS
10
225.499978
20
17.933856
30
0.0
11
225.499978
21
23.698255
31
0.0
0
LINE
8
0
6
CONTINUOUS
10
225.499978
20
23.698255
30
0.0
11
225.499978
21
30.119255
31
0.0
0
LINE
8
0
6
CONTINUOUS
10
225.499978
20
30.119255
30
0.0
11
225.499978
21
35.133255
31
0.0
0
LINE
8
0
6
CONTINUOUS
10
225.499978
20
35.133255
30
0.0
11
225.499978
21
38.487255
31
0.0
0
LINE
8
0
6
CONTINUOUS
10
225.499978
20
3.042455
30
0.0
11
225.499978
21
3.803355
31
0.0
0
LINE
8
0
6
CONTINUOUS
10
225.499978
20
1.474255
30
0.0
11
225.499978
21
1.934255
31
0.0
0
LINE
8
0
6
CONTINUOUS
10
225.499978
20
1.139755
30
0.0
11
225.499978
21
1.474255
31
0.0
0
LINE
8
0
6
CONTINUOUS
10
225.499978
20
0.414855
30
0.0
11
225.499978
21
0.843055
31
0.0
0
LINE
8
0
6
CONTINUOUS
10
225.499978
20
-0.031245
30
0.0
11
225.499978
21
0.414855
31
0.0
0
LINE
8
0
6
CONTINUOUS
10
225.499978
20
-0.954344
30
0.0
11
225.499978
21
-0.781045
31
0.0
0
LINE
8
0
6
CONTINUOUS
10
225.499978
20
3.803355
30
0.0
11
225.499978
21
3.042455
31
0.0
0
LINE
8
0
6
CONTINUOUS
10
225.742978
20
2.818155
30
0.0
11
225.742978
21
3.545355
31
0.0
0
LINE
8
0
6
CONTINUOUS
10
225.499978
20
3.042455
30
0.0
11
225.499978
21
2.436155
31
0.0
0
LINE
8
0
6
CONTINUOUS
10
225.742978
20
2.169655
30
0.0
11
225.742978
21
2.818155
31
0.0
0
LINE
8
0
6
CONTINUOUS
10
225.499978
20
2.436155
30
0.0
11
225.499978
21
1.934255
31
0.0
0
LINE
8
0
6
CONTINUOUS
10
225.742978
20
1.668056
30
0.0
11
225.742978
21
2.169655
31
0.0
0
LINE
8
0
6
CONTINUOUS
10
225.499978
20
1.934255
30
0.0
11
225.499978
21
1.474255
31
0.0
0
LINE
8
0
6
CONTINUOUS
10
225.499978
20
1.474255
30
0.0
11
225.499978
21
1.139755
31
0.0
0
LINE
8
0
6
CONTINUOUS
10
225.499978
20
1.139755
30
0.0
11
225.499978
21
0.843055
31
0.0
0
LINE
8
0
6
CONTINUOUS
10
225.742978
20
0.529055
30
0.0
11
225.742978
21
0.846555
31
0.0
0
LINE
8
0
6
CONTINUOUS
10
225.499978
20
0.843055
30
0.0
11
225.499978
21
0.414855
31
0.0
0
LINE
8
0
6
CONTINUOUS
10
225.499978
20
0.414855
30
0.0
11
225.499978
21
-0.031245
31
0.0
0
LINE
8
0
6
CONTINUOUS
10
225.499978
20
-0.031245
30
0.0
11
225.499978
21
-0.448945
31
0.0
0
LINE
8
0
6
CONTINUOUS
10
225.499978
20
-0.448945
30
0.0
11
225.499978
21
-0.781045
31
0.0
0
LINE
8
0
6
CONTINUOUS
10
225.499978
20
-0.781045
30
0.0
11
225.499978
21
-0.954344
31
0.0
0
LINE
8
0
6
CONTINUOUS
10
225.742978
20
-1.286445
30
0.0
11
225.742978
21
-1.113144
31
0.0
0
LINE
8
0
6
CONTINUOUS
10
225.499978
20
-0.954344
30
0.0
11
225.499978
21
-0.996645
31
0.0
0
LINE
8
0
6
CONTINUOUS
10
225.742978
20
-1.357945
30
0.0
11
225.742978
21
-1.286445
31
0.0
0
LINE
8
0
6
CONTINUOUS
10
225.742978
20
3.545355
30
0.0
11
225.742978
21
2.818155
31
0.0
0
LINE
8
0
6
CONTINUOUS
10
225.742978
20
2.818155
30
0.0
11
225.742978
21
2.169655
31
0.0
0
LINE
8
0
6
CONTINUOUS
10
225.742978
20
2.169655
30
0.0
11
225.742978
21
1.668056
31
0.0
0
LINE
8
0
6
CONTINUOUS
10
225.742978
20
1.668056
30
0.0
11
225.742978
21
1.183755
31
0.0
0
LINE
8
0
6
CONTINUOUS
10
225.742978
20
1.183755
30
0.0
11
225.742978
21
0.846555
31
0.0
0
LINE
8
0
6
CONTINUOUS
10
225.742978
20
0.529055
30
0.0
11
225.742978
21
0.148455
31
0.0
0
LINE
8
0
6
CONTINUOUS
10
225.742978
20
-1.113144
30
0.0
11
225.742978
21
-1.286445
31
0.0
0
LINE
8
0
6
CONTINUOUS
10
226.309978
20
-1.512745
30
0.0
11
225.742978
21
-1.357945
31
0.0
0
LINE
8
0
6
CONTINUOUS
10
225.499978
20
3.042455
30
0.0
11
225.499978
21
3.803355
31
0.0
0
LINE
8
0
6
CONTINUOUS
10
225.499978
20
0.414855
30
0.0
11
225.499978
21
0.843055
31
0.0
0
LINE
8
0
6
CONTINUOUS
10
225.742978
20
-1.357945
30
0.0
11
225.499978
21
-0.996645
31
0.0
0
LINE
8
0
6
CONTINUOUS
10
225.499978
20
3.803355
30
0.0
11
225.499978
21
3.042455
31
0.0
0
LINE
8
0
6
CONTINUOUS
10
225.499978
20
0.843055
30
0.0
11
225.499978
21
0.414855
31
0.0
0
LINE
8
0
6
CONTINUOUS
10
225.499978
20
5.583055
30
0.0
11
225.499978
21
4.621755
31
0.0
0
LINE
8
0
6
CONTINUOUS
10
225.499978
20
10.826155
30
0.0
11
225.499978
21
9.073055
31
0.0
0
LINE
8
0
6
CONTINUOUS
10
225.499978
20
23.698255
30
0.0
11
225.499978
21
17.933856
31
0.0
0
LINE
8
0
6
CONTINUOUS
10
225.499978
20
27.397274
30
0.0
11
225.499978
21
23.698255
31
0.0
0
LINE
8
0
6
CONTINUOUS
10
225.499978
20
4.621755
30
0.0
11
225.499978
21
5.583055
31
0.0
0
LINE
8
0
6
CONTINUOUS
10
225.499978
20
9.073055
30
0.0
11
225.499978
21
10.826155
31
0.0
0
LINE
8
0
6
CONTINUOUS
10
225.499978
20
17.933856
30
0.0
11
225.499978
21
23.698255
31
0.0
0
LINE
8
0
6
CONTINUOUS
10
225.499978
20
23.698255
30
0.0
11
225.499978
21
27.397274
31
0.0
0
LINE
8
0
6
CONTINUOUS
10
-143.259922
20
-22.006144
30
0.0
11
-140.332022
21
-22.872944
31
0.0
0
LINE
8
0
6
CONTINUOUS
10
-140.332022
20
-22.872944
30
0.0
11
-143.259922
21
-20.659344
31
0.0
0
LINE
8
0
6
CONTINUOUS
10
-143.259922
20
-20.659344
30
0.0
11
-143.259922
21
-22.006144
31
0.0
0
LINE
8
0
6
CONTINUOUS
10
-143.259922
20
-24.012344
30
0.0
11
-140.449022
21
-24.606744
31
0.0
0
LINE
8
0
6
CONTINUOUS
10
-140.449022
20
-24.606744
30
0.0
11
-143.259922
21
-22.006144
31
0.0
0
LINE
8
0
6
CONTINUOUS
10
-137.990022
20
-22.377644
30
0.0
11
-140.332022
21
-20.659344
31
0.0
0
LINE
8
0
6
CONTINUOUS
10
-137.990022
20
-22.129944
30
0.0
11
-139.977022
21
-20.659344
31
0.0
0
LINE
8
0
6
CONTINUOUS
10
-136.233022
20
-24.111344
30
0.0
11
-137.990022
21
-22.129944
31
0.0
0
LINE
8
0
6
CONTINUOUS
10
-137.990022
20
-23.021644
30
0.0
11
-136.360022
21
-24.606744
31
0.0
0
LINE
8
0
6
CONTINUOUS
10
-136.360022
20
-24.606744
30
0.0
11
-137.990022
21
-22.377644
31
0.0
0
LINE
8
0
6
CONTINUOUS
10
-136.005022
20
-24.606744
30
0.0
11
-136.233022
21
-24.111344
31
0.0
0
LINE
8
0
6
CONTINUOUS
10
-147.505322
20
-20.659344
30
0.0
11
-150.291922
21
-20.659344
31
0.0
0
LINE
8
0
6
CONTINUOUS
10
-150.291922
20
-20.659344
30
0.0
11
-152.857322
21
-20.659344
31
0.0
0
LINE
8
0
6
CONTINUOUS
10
-152.857322
20
-20.659344
30
0.0
11
-155.113022
21
-20.659344
31
0.0
0
LINE
8
0
6
CONTINUOUS
10
-155.113022
20
-20.659344
30
0.0
11
-156.838022
21
-20.659344
31
0.0
0
LINE
8
0
6
CONTINUOUS
10
-150.291922
20
-20.659344
30
0.0
11
-147.505322
21
-20.659344
31
0.0
0
LINE
8
0
6
CONTINUOUS
10
-152.857322
20
-20.659344
30
0.0
11
-150.291922
21
-20.659344
31
0.0
0
LINE
8
0
6
CONTINUOUS
10
-155.113022
20
-20.659344
30
0.0
11
-152.857322
21
-20.659344
31
0.0
0
LINE
8
0
6
CONTINUOUS
10
-156.838022
20
-20.659344
30
0.0
11
-155.113022
21
-20.659344
31
0.0
0
LINE
8
0
6
CONTINUOUS
10
-157.899622
20
-20.659344
30
0.0
11
-156.838022
21
-20.659344
31
0.0
0
LINE
8
0
6
CONTINUOUS
10
-158.563022
20
-20.173544
30
0.0
11
-158.297722
21
-20.659344
31
0.0
0
LINE
8
0
6
CONTINUOUS
10
-158.297722
20
-20.659344
30
0.0
11
-157.899622
21
-20.659344
31
0.0
0
LINE
8
0
6
CONTINUOUS
10
-158.563022
20
-9.606744
30
0.0
11
-158.563022
21
-20.173544
31
0.0
0
LINE
8
0
6
CONTINUOUS
10
-144.718822
20
-20.659344
30
0.0
11
-147.505322
21
-20.659344
31
0.0
0
LINE
8
0
6
CONTINUOUS
10
-142.153022
20
-20.659344
30
0.0
11
-144.718822
21
-20.659344
31
0.0
0
LINE
8
0
6
CONTINUOUS
10
-139.898022
20
-20.659344
30
0.0
11
-142.153022
21
-20.659344
31
0.0
0
LINE
8
0
6
CONTINUOUS
10
-138.173022
20
-20.659344
30
0.0
11
-139.898022
21
-20.659344
31
0.0
0
LINE
8
0
6
CONTINUOUS
10
-137.111022
20
-20.659344
30
0.0
11
-138.173022
21
-20.659344
31
0.0
0
LINE
8
0
6
CONTINUOUS
10
-136.713022
20
-20.659344
30
0.0
11
-137.111022
21
-20.659344
31
0.0
0
LINE
8
0
6
CONTINUOUS
10
-147.505322
20
-20.659344
30
0.0
11
-144.718822
21
-20.659344
31
0.0
0
LINE
8
0
6
CONTINUOUS
10
-144.718822
20
-20.659344
30
0.0
11
-142.153022
21
-20.659344
31
0.0
0
LINE
8
0
6
CONTINUOUS
10
-142.153022
20
-20.659344
30
0.0
11
-139.898022
21
-20.659344
31
0.0
0
LINE
8
0
6
CONTINUOUS
10
-139.898022
20
-20.659344
30
0.0
11
-138.173022
21
-20.659344
31
0.0
0
LINE
8
0
6
CONTINUOUS
10
-138.173022
20
-20.659344
30
0.0
11
-137.111022
21
-20.659344
31
0.0
0
LINE
8
0
6
CONTINUOUS
10
-136.713022
20
-20.659344
30
0.0
11
-136.448022
21
-20.173544
31
0.0
0
LINE
8
0
6
CONTINUOUS
10
-137.111022
20
-20.659344
30
0.0
11
-136.713022
21
-20.659344
31
0.0
0
LINE
8
0
6
CONTINUOUS
10
-136.448022
20
-20.173544
30
0.0
11
-136.448022
21
-9.606744
31
0.0
0
LINE
8
0
6
CONTINUOUS
10
-154.678622
20
-22.872944
30
0.0
11
-151.750722
21
-22.006144
31
0.0
0
LINE
8
0
6
CONTINUOUS
10
-151.750722
20
-20.659344
30
0.0
11
-154.678622
21
-22.872944
31
0.0
0
LINE
8
0
6
CONTINUOUS
10
-151.750722
20
-22.006144
30
0.0
11
-151.750722
21
-20.659344
31
0.0
0
LINE
8
0
6
CONTINUOUS
10
-154.561522
20
-24.606744
30
0.0
11
-151.750722
21
-24.012344
31
0.0
0
LINE
8
0
6
CONTINUOUS
10
-151.750722
20
-22.006144
30
0.0
11
-154.561522
21
-24.606744
31
0.0
0
LINE
8
0
6
CONTINUOUS
10
-151.750722
20
-24.012344
30
0.0
11
-151.750722
21
-22.006144
31
0.0
0
LINE
8
0
6
CONTINUOUS
10
-157.020922
20
-22.377644
30
0.0
11
-154.678622
21
-20.693444
31
0.0
0
LINE
8
0
6
CONTINUOUS
10
-154.678622
20
-20.659344
30
0.0
11
-157.020922
21
-22.377644
31
0.0
0
LINE
8
0
6
CONTINUOUS
10
-155.034122
20
-20.659344
30
0.0
11
-157.020922
21
-22.129944
31
0.0
0
LINE
8
0
6
CONTINUOUS
10
-157.020922
20
-22.129944
30
0.0
11
-158.777622
21
-24.111344
31
0.0
0
LINE
8
0
6
CONTINUOUS
10
-158.650322
20
-24.606744
30
0.0
11
-157.020922
21
-23.021644
31
0.0
0
LINE
8
0
6
CONTINUOUS
10
-157.020922
20
-22.377644
30
0.0
11
-158.650322
21
-24.606744
31
0.0
0
LINE
8
0
6
CONTINUOUS
10
-157.020922
20
-23.021644
30
0.0
11
-157.020922
21
-22.377644
31
0.0
0
LINE
8
0
6
CONTINUOUS
10
-158.777622
20
-24.111344
30
0.0
11
-159.005322
21
-24.606744
31
0.0
0
ENDSEC
0
EOF
