999
Erzeugt mit innoplus bad 
0
SECTION
2
HEADER
9
$ACADVER
1
AC1009
9
$DWGCODEPAGE
3
ISO8859-1
0
ENDSEC
0
SECTION
2
TABLES
0
TABLE
2
LAYER
70
1
0
LAYER
2
0
70
0
62
7
6
CONTINUOUS
0
ENDTAB
0
ENDSEC
0
SECTION
2
ENTITIES
0
LINE
8
0
6
CONTINUOUS
10
40.000000
20
-0.000600
30
0.0
11
39.263000
21
0.000000
31
0.0
0
LINE
8
0
6
CONTINUOUS
10
39.263000
20
0.000000
30
0.0
11
40.000000
21
-0.000600
31
0.0
0
LINE
8
0
6
CONTINUOUS
10
39.990000
20
-6.703900
30
0.0
11
39.958000
21
-12.032700
31
0.0
0
LINE
8
0
6
CONTINUOUS
10
40.000000
20
-0.000600
30
0.0
11
39.990000
21
-6.703900
31
0.0
0
LINE
8
0
6
CONTINUOUS
10
39.958000
20
-12.032700
30
0.0
11
39.852000
21
-19.063000
31
0.0
0
LINE
8
0
6
CONTINUOUS
10
39.640000
20
-26.090200
30
0.0
11
39.565000
21
-27.784700
31
0.0
0
LINE
8
0
6
CONTINUOUS
10
39.852000
20
-19.063000
30
0.0
11
39.640000
21
-26.090200
31
0.0
0
LINE
8
0
6
CONTINUOUS
10
10.357000
20
-8.923300
30
0.0
11
11.626000
21
-7.192900
31
0.0
0
LINE
8
0
6
CONTINUOUS
10
13.150000
20
-3.739100
30
0.0
11
13.541000
21
-1.887000
31
0.0
0
LINE
8
0
6
CONTINUOUS
10
13.541000
20
-1.887000
30
0.0
11
13.671000
21
0.000000
31
0.0
0
LINE
8
0
6
CONTINUOUS
10
11.626000
20
-7.192900
30
0.0
11
12.508000
21
-5.518400
31
0.0
0
LINE
8
0
6
CONTINUOUS
10
12.508000
20
-5.518400
30
0.0
11
13.150000
21
-3.739100
31
0.0
0
LINE
8
0
6
CONTINUOUS
10
-11.626000
20
-7.192900
30
0.0
11
-10.357000
21
-8.923300
31
0.0
0
LINE
8
0
6
CONTINUOUS
10
-13.150000
20
-3.739100
30
0.0
11
-12.508000
21
-5.518400
31
0.0
0
LINE
8
0
6
CONTINUOUS
10
-12.508000
20
-5.518400
30
0.0
11
-11.626000
21
-7.192900
31
0.0
0
LINE
8
0
6
CONTINUOUS
10
-13.671000
20
0.000000
30
0.0
11
-13.541000
21
-1.887000
31
0.0
0
LINE
8
0
6
CONTINUOUS
10
-13.541000
20
-1.887000
30
0.0
11
-13.150000
21
-3.739100
31
0.0
0
LINE
8
0
6
CONTINUOUS
10
-5.307000
20
-12.599500
30
0.0
11
-3.338000
21
-13.257200
31
0.0
0
LINE
8
0
6
CONTINUOUS
10
-3.338000
20
-13.257200
30
0.0
11
-1.292000
21
-13.610400
31
0.0
0
LINE
8
0
6
CONTINUOUS
10
-1.292000
20
-13.610400
30
0.0
11
0.000000
21
-13.671300
31
0.0
0
LINE
8
0
6
CONTINUOUS
10
0.000000
20
-13.671300
30
0.0
11
1.292000
21
-13.610400
31
0.0
0
LINE
8
0
6
CONTINUOUS
10
1.292000
20
-13.610400
30
0.0
11
3.338000
21
-13.257200
31
0.0
0
LINE
8
0
6
CONTINUOUS
10
3.338000
20
-13.257200
30
0.0
11
5.307000
21
-12.599500
31
0.0
0
LINE
8
0
6
CONTINUOUS
10
-10.357000
20
-8.923300
30
0.0
11
-8.834000
21
-10.433100
31
0.0
0
LINE
8
0
6
CONTINUOUS
10
-8.834000
20
-10.433100
30
0.0
11
-7.153000
21
-11.650500
31
0.0
0
LINE
8
0
6
CONTINUOUS
10
-7.153000
20
-11.650500
30
0.0
11
-5.307000
21
-12.599500
31
0.0
0
LINE
8
0
6
CONTINUOUS
10
37.032000
20
0.000000
30
0.0
11
37.903000
21
-13.021700
31
0.0
0
LINE
8
0
6
CONTINUOUS
10
37.903000
20
-13.021700
30
0.0
11
36.982000
21
-13.003700
31
0.0
0
LINE
8
0
6
CONTINUOUS
10
36.982000
20
-13.003700
30
0.0
11
37.032000
21
0.000000
31
0.0
0
LINE
8
0
6
CONTINUOUS
10
38.445000
20
0.000000
30
0.0
11
38.728000
21
-13.037600
31
0.0
0
LINE
8
0
6
CONTINUOUS
10
38.728000
20
-13.037600
30
0.0
11
38.278000
21
-13.029600
31
0.0
0
LINE
8
0
6
CONTINUOUS
10
38.278000
20
-13.029600
30
0.0
11
38.445000
21
0.000000
31
0.0
0
LINE
8
0
6
CONTINUOUS
10
5.307000
20
-12.599500
30
0.0
11
7.153000
21
-11.650500
31
0.0
0
LINE
8
0
6
CONTINUOUS
10
7.153000
20
-11.650500
30
0.0
11
8.834000
21
-10.433100
31
0.0
0
LINE
8
0
6
CONTINUOUS
10
8.834000
20
-10.433100
30
0.0
11
10.357000
21
-8.923300
31
0.0
0
LINE
8
0
6
CONTINUOUS
10
-39.263000
20
0.000000
30
0.0
11
-40.000000
21
-0.000600
31
0.0
0
LINE
8
0
6
CONTINUOUS
10
-39.990000
20
-6.703900
30
0.0
11
-40.000000
21
-0.000600
31
0.0
0
LINE
8
0
6
CONTINUOUS
10
-39.958000
20
-12.032700
30
0.0
11
-39.990000
21
-6.703900
31
0.0
0
LINE
8
0
6
CONTINUOUS
10
-40.000000
20
-0.000600
30
0.0
11
-39.263000
21
0.000000
31
0.0
0
LINE
8
0
6
CONTINUOUS
10
-39.852000
20
-19.063000
30
0.0
11
-39.958000
21
-12.032700
31
0.0
0
LINE
8
0
6
CONTINUOUS
10
-38.787000
20
0.000000
30
0.0
11
-38.728000
21
-13.037600
31
0.0
0
LINE
8
0
6
CONTINUOUS
10
-38.728000
20
-13.037600
30
0.0
11
-39.030000
21
-13.043600
31
0.0
0
LINE
8
0
6
CONTINUOUS
10
-39.030000
20
-13.043600
30
0.0
11
-38.787000
21
0.000000
31
0.0
0
LINE
8
0
6
CONTINUOUS
10
-38.445000
20
0.000000
30
0.0
11
-38.278000
21
-13.029600
31
0.0
0
LINE
8
0
6
CONTINUOUS
10
-38.278000
20
-13.029600
30
0.0
11
-38.728000
21
-13.037600
31
0.0
0
LINE
8
0
6
CONTINUOUS
10
-38.728000
20
-13.037600
30
0.0
11
-38.445000
21
0.000000
31
0.0
0
LINE
8
0
6
CONTINUOUS
10
-37.032000
20
0.000000
30
0.0
11
-36.982000
21
-13.003700
31
0.0
0
LINE
8
0
6
CONTINUOUS
10
-36.982000
20
-13.003700
30
0.0
11
-37.903000
21
-13.021700
31
0.0
0
LINE
8
0
6
CONTINUOUS
10
-37.903000
20
-13.021700
30
0.0
11
-37.032000
21
0.000000
31
0.0
0
LINE
8
0
6
CONTINUOUS
10
38.654000
20
-34.376800
30
0.0
11
38.435000
21
-34.964600
31
0.0
0
LINE
8
0
6
CONTINUOUS
10
38.435000
20
-34.964600
30
0.0
11
38.184000
21
-35.510400
31
0.0
0
LINE
8
0
6
CONTINUOUS
10
37.300000
20
-36.822700
30
0.0
11
36.955000
21
-37.175900
31
0.0
0
LINE
8
0
6
CONTINUOUS
10
38.184000
20
-35.510400
30
0.0
11
37.889000
21
-36.032300
31
0.0
0
LINE
8
0
6
CONTINUOUS
10
37.889000
20
-36.032300
30
0.0
11
37.300000
21
-36.822700
31
0.0
0
LINE
8
0
6
CONTINUOUS
10
26.003000
20
-36.672000
30
0.0
11
19.505000
21
-36.874600
31
0.0
0
LINE
8
0
6
CONTINUOUS
10
-19.505000
20
-36.874600
30
0.0
11
-26.003000
21
-36.672000
31
0.0
0
LINE
8
0
6
CONTINUOUS
10
-13.004000
20
-36.982300
30
0.0
11
-9.259000
21
-27.774700
31
0.0
0
LINE
8
0
6
CONTINUOUS
10
-9.259000
20
-27.774700
30
0.0
11
0.000000
21
-37.032200
31
0.0
0
LINE
8
0
6
CONTINUOUS
10
0.000000
20
-37.032200
30
0.0
11
9.259000
21
-27.774700
31
0.0
0
LINE
8
0
6
CONTINUOUS
10
9.259000
20
-27.774700
30
0.0
11
13.004000
21
-36.982300
31
0.0
0
LINE
8
0
6
CONTINUOUS
10
29.074000
20
-39.492100
30
0.0
11
26.090000
21
-39.638800
31
0.0
0
LINE
8
0
6
CONTINUOUS
10
36.149000
20
-37.813600
30
0.0
11
35.690000
21
-38.088000
31
0.0
0
LINE
8
0
6
CONTINUOUS
10
35.690000
20
-38.088000
30
0.0
11
34.715000
21
-38.531100
31
0.0
0
LINE
8
0
6
CONTINUOUS
10
30.967000
20
-39.330400
30
0.0
11
29.074000
21
-39.492100
31
0.0
0
LINE
8
0
6
CONTINUOUS
10
31.907000
20
-39.210700
30
0.0
11
30.967000
21
-39.330400
31
0.0
0
LINE
8
0
6
CONTINUOUS
10
32.858000
20
-39.047000
30
0.0
11
31.907000
21
-39.210700
31
0.0
0
LINE
8
0
6
CONTINUOUS
10
33.798000
20
-38.827500
30
0.0
11
32.858000
21
-39.047000
31
0.0
0
LINE
8
0
6
CONTINUOUS
10
34.715000
20
-38.531100
30
0.0
11
33.798000
21
-38.827500
31
0.0
0
LINE
8
0
6
CONTINUOUS
10
14.049000
20
-39.936100
30
0.0
11
9.333000
21
-39.979000
31
0.0
0
LINE
8
0
6
CONTINUOUS
10
21.118000
20
-39.802400
30
0.0
11
14.049000
21
-39.936100
31
0.0
0
LINE
8
0
6
CONTINUOUS
10
26.090000
20
-39.638800
30
0.0
11
21.118000
21
-39.802400
31
0.0
0
LINE
8
0
6
CONTINUOUS
10
0.000000
20
-40.000000
30
0.0
11
-9.333000
21
-39.979000
31
0.0
0
LINE
8
0
6
CONTINUOUS
10
-21.118000
20
-39.802400
30
0.0
11
-26.090000
21
-39.638800
31
0.0
0
LINE
8
0
6
CONTINUOUS
10
-14.049000
20
-39.936100
30
0.0
11
-21.118000
21
-39.802400
31
0.0
0
LINE
8
0
6
CONTINUOUS
10
-13.038000
20
-38.727700
30
0.0
11
0.000000
21
-38.777600
31
0.0
0
LINE
8
0
6
CONTINUOUS
10
0.000000
20
-38.803100
30
0.0
11
-13.038000
21
-38.727700
31
0.0
0
LINE
8
0
6
CONTINUOUS
10
-9.333000
20
-39.979000
30
0.0
11
-14.049000
21
-39.936100
31
0.0
0
LINE
8
0
6
CONTINUOUS
10
-13.030000
20
-38.277600
30
0.0
11
0.000000
21
-38.327500
31
0.0
0
LINE
8
0
6
CONTINUOUS
10
0.000000
20
-38.711300
30
0.0
11
-13.030000
21
-38.277600
31
0.0
0
LINE
8
0
6
CONTINUOUS
10
13.030000
20
-38.277600
30
0.0
11
0.000000
21
-38.711300
31
0.0
0
LINE
8
0
6
CONTINUOUS
10
0.000000
20
-38.327500
30
0.0
11
13.030000
21
-38.277600
31
0.0
0
LINE
8
0
6
CONTINUOUS
10
13.038000
20
-38.727700
30
0.0
11
0.000000
21
-38.803100
31
0.0
0
LINE
8
0
6
CONTINUOUS
10
0.000000
20
-38.777600
30
0.0
11
13.038000
21
-38.727700
31
0.0
0
LINE
8
0
6
CONTINUOUS
10
9.333000
20
-39.979000
30
0.0
11
0.000000
21
-40.000000
31
0.0
0
LINE
8
0
6
CONTINUOUS
10
0.000000
20
-37.928200
30
0.0
11
-13.004000
21
-36.982300
31
0.0
0
LINE
8
0
6
CONTINUOUS
10
-26.004000
20
-36.672000
30
0.0
11
-19.505000
21
-36.874600
31
0.0
0
LINE
8
0
6
CONTINUOUS
10
-26.036000
20
-37.506200
30
0.0
11
-26.004000
21
-36.672000
31
0.0
0
LINE
8
0
6
CONTINUOUS
10
26.036000
20
-37.506200
30
0.0
11
26.003000
21
-36.672000
31
0.0
0
LINE
8
0
6
CONTINUOUS
10
36.955000
20
-37.175900
30
0.0
11
36.583000
21
-37.500300
31
0.0
0
LINE
8
0
6
CONTINUOUS
10
36.583000
20
-37.500300
30
0.0
11
36.149000
21
-37.813600
31
0.0
0
LINE
8
0
6
CONTINUOUS
10
26.004000
20
-36.672000
30
0.0
11
26.036000
21
-37.506200
31
0.0
0
LINE
8
0
6
CONTINUOUS
10
19.505000
20
-36.874600
30
0.0
11
26.004000
21
-36.672000
31
0.0
0
LINE
8
0
6
CONTINUOUS
10
13.004000
20
-36.982300
30
0.0
11
0.000000
21
-37.928200
31
0.0
0
LINE
8
0
6
CONTINUOUS
10
-39.565000
20
-27.784700
30
0.0
11
-39.640000
21
-26.090200
31
0.0
0
LINE
8
0
6
CONTINUOUS
10
-39.106000
20
-32.552600
30
0.0
11
-39.264000
21
-31.527800
31
0.0
0
LINE
8
0
6
CONTINUOUS
10
-37.300000
20
-36.822700
30
0.0
11
-37.889000
21
-36.032300
31
0.0
0
LINE
8
0
6
CONTINUOUS
10
-37.889000
20
-36.032300
30
0.0
11
-38.184000
21
-35.510400
31
0.0
0
LINE
8
0
6
CONTINUOUS
10
-36.955000
20
-37.175900
30
0.0
11
-37.300000
21
-36.822700
31
0.0
0
LINE
8
0
6
CONTINUOUS
10
-38.184000
20
-35.510400
30
0.0
11
-38.435000
21
-34.964600
31
0.0
0
LINE
8
0
6
CONTINUOUS
10
-38.654000
20
-34.376800
30
0.0
11
-38.834000
21
-33.777100
31
0.0
0
LINE
8
0
6
CONTINUOUS
10
-38.834000
20
-33.777100
30
0.0
11
-39.106000
21
-32.552600
31
0.0
0
LINE
8
0
6
CONTINUOUS
10
-38.435000
20
-34.964600
30
0.0
11
-38.654000
21
-34.376800
31
0.0
0
LINE
8
0
6
CONTINUOUS
10
-39.378000
20
-30.497000
30
0.0
11
-39.565000
21
-27.784700
31
0.0
0
LINE
8
0
6
CONTINUOUS
10
-39.264000
20
-31.527800
30
0.0
11
-39.378000
21
-30.497000
31
0.0
0
LINE
8
0
6
CONTINUOUS
10
-33.798000
20
-38.827500
30
0.0
11
-34.715000
21
-38.531100
31
0.0
0
LINE
8
0
6
CONTINUOUS
10
-32.858000
20
-39.047000
30
0.0
11
-33.798000
21
-38.827500
31
0.0
0
LINE
8
0
6
CONTINUOUS
10
-31.907000
20
-39.210700
30
0.0
11
-32.858000
21
-39.047000
31
0.0
0
LINE
8
0
6
CONTINUOUS
10
-30.967000
20
-39.330400
30
0.0
11
-31.907000
21
-39.210700
31
0.0
0
LINE
8
0
6
CONTINUOUS
10
-29.074000
20
-39.492100
30
0.0
11
-30.967000
21
-39.330400
31
0.0
0
LINE
8
0
6
CONTINUOUS
10
-34.715000
20
-38.531100
30
0.0
11
-35.690000
21
-38.088000
31
0.0
0
LINE
8
0
6
CONTINUOUS
10
-35.690000
20
-38.088000
30
0.0
11
-36.149000
21
-37.813600
31
0.0
0
LINE
8
0
6
CONTINUOUS
10
-36.149000
20
-37.813600
30
0.0
11
-36.583000
21
-37.500300
31
0.0
0
LINE
8
0
6
CONTINUOUS
10
-36.583000
20
-37.500300
30
0.0
11
-36.955000
21
-37.175900
31
0.0
0
LINE
8
0
6
CONTINUOUS
10
-26.090000
20
-39.638800
30
0.0
11
-29.074000
21
-39.492100
31
0.0
0
LINE
8
0
6
CONTINUOUS
10
-26.003000
20
-36.672000
30
0.0
11
-26.036000
21
-37.506200
31
0.0
0
LINE
8
0
6
CONTINUOUS
10
-39.640000
20
-26.090200
30
0.0
11
-39.852000
21
-19.063000
31
0.0
0
LINE
8
0
6
CONTINUOUS
10
0.000000
20
-25.351800
30
0.0
11
-9.259000
21
-18.516100
31
0.0
0
LINE
8
0
6
CONTINUOUS
10
-9.259000
20
-18.516100
30
0.0
11
0.000000
21
-20.846000
31
0.0
0
LINE
8
0
6
CONTINUOUS
10
9.259000
20
-18.516100
30
0.0
11
0.000000
21
-25.351800
31
0.0
0
LINE
8
0
6
CONTINUOUS
10
0.000000
20
-20.846000
30
0.0
11
9.259000
21
-18.516100
31
0.0
0
LINE
8
0
6
CONTINUOUS
10
10.065000
20
-0.523900
30
0.0
11
10.044000
21
0.000000
31
0.0
0
LINE
8
0
6
CONTINUOUS
10
12.929000
20
0.000000
30
0.0
11
12.920000
21
-1.165600
31
0.0
0
LINE
8
0
6
CONTINUOUS
10
13.426000
20
0.000000
30
0.0
11
13.417000
21
-1.210500
31
0.0
0
LINE
8
0
6
CONTINUOUS
10
12.920000
20
-1.165600
30
0.0
11
12.929000
21
0.000000
31
0.0
0
LINE
8
0
6
CONTINUOUS
10
13.035000
20
-3.402900
30
0.0
11
12.297000
21
-5.501400
31
0.0
0
LINE
8
0
6
CONTINUOUS
10
11.842000
20
-5.297900
30
0.0
11
12.553000
21
-3.276100
31
0.0
0
LINE
8
0
6
CONTINUOUS
10
9.197000
20
-4.124300
30
0.0
11
9.797000
21
-2.364000
31
0.0
0
LINE
8
0
6
CONTINUOUS
10
12.553000
20
-3.276100
30
0.0
11
11.842000
21
-5.297900
31
0.0
0
LINE
8
0
6
CONTINUOUS
10
9.797000
20
-2.364000
30
0.0
11
10.065000
21
-0.523900
31
0.0
0
LINE
8
0
6
CONTINUOUS
10
12.920000
20
-1.165600
30
0.0
11
12.553000
21
-3.276100
31
0.0
0
LINE
8
0
6
CONTINUOUS
10
12.920000
20
-1.165600
30
0.0
11
12.553000
21
-3.276100
31
0.0
0
LINE
8
0
6
CONTINUOUS
10
10.065000
20
-0.523900
30
0.0
11
12.920000
21
-1.165600
31
0.0
0
LINE
8
0
6
CONTINUOUS
10
12.553000
20
-3.276100
30
0.0
11
10.065000
21
-0.523900
31
0.0
0
LINE
8
0
6
CONTINUOUS
10
12.553000
20
-3.276100
30
0.0
11
12.920000
21
-1.165600
31
0.0
0
LINE
8
0
6
CONTINUOUS
10
13.417000
20
-1.210500
30
0.0
11
13.035000
21
-3.402900
31
0.0
0
LINE
8
0
6
CONTINUOUS
10
11.224000
20
-7.450400
30
0.0
11
9.844000
21
-9.196700
31
0.0
0
LINE
8
0
6
CONTINUOUS
10
9.480000
20
-8.855400
30
0.0
11
10.808000
21
-7.174900
31
0.0
0
LINE
8
0
6
CONTINUOUS
10
8.197000
20
-10.691500
30
0.0
11
6.326000
21
-11.895000
31
0.0
0
LINE
8
0
6
CONTINUOUS
10
6.091000
20
-11.453900
30
0.0
11
7.893000
21
-10.295400
31
0.0
0
LINE
8
0
6
CONTINUOUS
10
9.844000
20
-9.196700
30
0.0
11
8.197000
21
-10.691500
31
0.0
0
LINE
8
0
6
CONTINUOUS
10
7.893000
20
-10.295400
30
0.0
11
9.480000
21
-8.855400
31
0.0
0
LINE
8
0
6
CONTINUOUS
10
12.297000
20
-5.501400
30
0.0
11
11.224000
21
-7.450400
31
0.0
0
LINE
8
0
6
CONTINUOUS
10
10.808000
20
-7.174900
30
0.0
11
11.842000
21
-5.297900
31
0.0
0
LINE
8
0
6
CONTINUOUS
10
11.842000
20
-5.297900
30
0.0
11
10.808000
21
-7.174900
31
0.0
0
LINE
8
0
6
CONTINUOUS
10
8.283000
20
-5.743900
30
0.0
11
9.197000
21
-4.124300
31
0.0
0
LINE
8
0
6
CONTINUOUS
10
10.808000
20
-7.174900
30
0.0
11
9.480000
21
-8.855400
31
0.0
0
LINE
8
0
6
CONTINUOUS
10
7.085000
20
-7.167900
30
0.0
11
8.283000
21
-5.743900
31
0.0
0
LINE
8
0
6
CONTINUOUS
10
-13.417000
20
-1.210500
30
0.0
11
-13.426000
21
0.000000
31
0.0
0
LINE
8
0
6
CONTINUOUS
10
-12.929000
20
0.000000
30
0.0
11
-12.920000
21
-1.165600
31
0.0
0
LINE
8
0
6
CONTINUOUS
10
-12.920000
20
-1.165600
30
0.0
11
-12.929000
21
0.000000
31
0.0
0
LINE
8
0
6
CONTINUOUS
10
-12.297000
20
-5.501400
30
0.0
11
-13.035000
21
-3.402900
31
0.0
0
LINE
8
0
6
CONTINUOUS
10
-12.553000
20
-3.276100
30
0.0
11
-11.842000
21
-5.297900
31
0.0
0
LINE
8
0
6
CONTINUOUS
10
-12.920000
20
-1.165600
30
0.0
11
-12.553000
21
-3.276100
31
0.0
0
LINE
8
0
6
CONTINUOUS
10
-13.035000
20
-3.402900
30
0.0
11
-13.417000
21
-1.210500
31
0.0
0
LINE
8
0
6
CONTINUOUS
10
-12.553000
20
-3.276100
30
0.0
11
-12.920000
21
-1.165600
31
0.0
0
LINE
8
0
6
CONTINUOUS
10
-10.065000
20
-0.523900
30
0.0
11
-12.553000
21
-3.276100
31
0.0
0
LINE
8
0
6
CONTINUOUS
10
-12.920000
20
-1.165600
30
0.0
11
-10.065000
21
-0.523900
31
0.0
0
LINE
8
0
6
CONTINUOUS
10
-12.553000
20
-3.276100
30
0.0
11
-12.920000
21
-1.165600
31
0.0
0
LINE
8
0
6
CONTINUOUS
10
-10.065000
20
-0.523900
30
0.0
11
-9.797000
21
-2.364000
31
0.0
0
LINE
8
0
6
CONTINUOUS
10
-11.842000
20
-5.297900
30
0.0
11
-12.553000
21
-3.276100
31
0.0
0
LINE
8
0
6
CONTINUOUS
10
-9.797000
20
-2.364000
30
0.0
11
-9.197000
21
-4.124300
31
0.0
0
LINE
8
0
6
CONTINUOUS
10
-10.044000
20
0.000000
30
0.0
11
-10.065000
21
-0.523900
31
0.0
0
LINE
8
0
6
CONTINUOUS
10
-6.326000
20
-11.895000
30
0.0
11
-8.197000
21
-10.691500
31
0.0
0
LINE
8
0
6
CONTINUOUS
10
-7.893000
20
-10.295400
30
0.0
11
-6.091000
21
-11.453900
31
0.0
0
LINE
8
0
6
CONTINUOUS
10
-2.251000
20
-9.824400
30
0.0
11
-0.407000
21
-10.070900
31
0.0
0
LINE
8
0
6
CONTINUOUS
10
-6.091000
20
-11.453900
30
0.0
11
-7.893000
21
-10.295400
31
0.0
0
LINE
8
0
6
CONTINUOUS
10
-7.893000
20
-10.295400
30
0.0
11
-9.480000
21
-8.855400
31
0.0
0
LINE
8
0
6
CONTINUOUS
10
-7.085000
20
-7.167900
30
0.0
11
-5.648000
21
-8.347500
31
0.0
0
LINE
8
0
6
CONTINUOUS
10
-8.197000
20
-10.691500
30
0.0
11
-9.844000
21
-9.196700
31
0.0
0
LINE
8
0
6
CONTINUOUS
10
-9.480000
20
-8.855400
30
0.0
11
-7.893000
21
-10.295400
31
0.0
0
LINE
8
0
6
CONTINUOUS
10
-5.648000
20
-8.347500
30
0.0
11
-4.018000
21
-9.243600
31
0.0
0
LINE
8
0
6
CONTINUOUS
10
-4.018000
20
-9.243600
30
0.0
11
-2.251000
21
-9.824400
31
0.0
0
LINE
8
0
6
CONTINUOUS
10
-9.844000
20
-9.196700
30
0.0
11
-11.224000
21
-7.450400
31
0.0
0
LINE
8
0
6
CONTINUOUS
10
-10.808000
20
-7.174900
30
0.0
11
-9.480000
21
-8.855400
31
0.0
0
LINE
8
0
6
CONTINUOUS
10
-9.480000
20
-8.855400
30
0.0
11
-10.808000
21
-7.174900
31
0.0
0
LINE
8
0
6
CONTINUOUS
10
-8.283000
20
-5.743900
30
0.0
11
-7.085000
21
-7.167900
31
0.0
0
LINE
8
0
6
CONTINUOUS
10
-10.808000
20
-7.174900
30
0.0
11
-11.842000
21
-5.297900
31
0.0
0
LINE
8
0
6
CONTINUOUS
10
-9.197000
20
-4.124300
30
0.0
11
-8.283000
21
-5.743900
31
0.0
0
LINE
8
0
6
CONTINUOUS
10
-11.224000
20
-7.450400
30
0.0
11
-12.297000
21
-5.501400
31
0.0
0
LINE
8
0
6
CONTINUOUS
10
-11.842000
20
-5.297900
30
0.0
11
-10.808000
21
-7.174900
31
0.0
0
LINE
8
0
6
CONTINUOUS
10
2.251000
20
-9.824400
30
0.0
11
4.018000
21
-9.243600
31
0.0
0
LINE
8
0
6
CONTINUOUS
10
4.018000
20
-9.243600
30
0.0
11
5.648000
21
-8.347500
31
0.0
0
LINE
8
0
6
CONTINUOUS
10
9.480000
20
-8.855400
30
0.0
11
7.893000
21
-10.295400
31
0.0
0
LINE
8
0
6
CONTINUOUS
10
5.648000
20
-8.347500
30
0.0
11
7.085000
21
-7.167900
31
0.0
0
LINE
8
0
6
CONTINUOUS
10
0.407000
20
-10.070900
30
0.0
11
2.251000
21
-9.824400
31
0.0
0
LINE
8
0
6
CONTINUOUS
10
7.893000
20
-10.295400
30
0.0
11
6.091000
21
-11.453900
31
0.0
0
LINE
8
0
6
CONTINUOUS
10
-2.042000
20
-12.811100
30
0.0
11
0.000000
21
-12.965600
31
0.0
0
LINE
8
0
6
CONTINUOUS
10
0.000000
20
-13.464200
30
0.0
11
-2.120000
21
-13.304100
31
0.0
0
LINE
8
0
6
CONTINUOUS
10
2.120000
20
-13.304100
30
0.0
11
0.000000
21
-13.464200
31
0.0
0
LINE
8
0
6
CONTINUOUS
10
0.000000
20
-12.965600
30
0.0
11
2.042000
21
-12.811100
31
0.0
0
LINE
8
0
6
CONTINUOUS
10
-4.122000
20
-12.300200
30
0.0
11
-6.091000
21
-11.453900
31
0.0
0
LINE
8
0
6
CONTINUOUS
10
-2.042000
20
-12.811100
30
0.0
11
-4.122000
21
-12.300200
31
0.0
0
LINE
8
0
6
CONTINUOUS
10
-0.407000
20
-10.070900
30
0.0
11
0.000000
21
-10.049600
31
0.0
0
LINE
8
0
6
CONTINUOUS
10
0.000000
20
-12.965600
30
0.0
11
-2.042000
21
-12.811100
31
0.0
0
LINE
8
0
6
CONTINUOUS
10
-4.281000
20
-12.773200
30
0.0
11
-6.326000
21
-11.895000
31
0.0
0
LINE
8
0
6
CONTINUOUS
10
-6.091000
20
-11.453900
30
0.0
11
-4.122000
21
-12.300200
31
0.0
0
LINE
8
0
6
CONTINUOUS
10
-2.120000
20
-13.304100
30
0.0
11
-4.281000
21
-12.773200
31
0.0
0
LINE
8
0
6
CONTINUOUS
10
-4.122000
20
-12.300200
30
0.0
11
-2.042000
21
-12.811100
31
0.0
0
LINE
8
0
6
CONTINUOUS
10
4.281000
20
-12.773200
30
0.0
11
2.120000
21
-13.304100
31
0.0
0
LINE
8
0
6
CONTINUOUS
10
2.042000
20
-12.811100
30
0.0
11
4.122000
21
-12.300200
31
0.0
0
LINE
8
0
6
CONTINUOUS
10
6.326000
20
-11.895000
30
0.0
11
4.281000
21
-12.773200
31
0.0
0
LINE
8
0
6
CONTINUOUS
10
4.122000
20
-12.300200
30
0.0
11
6.091000
21
-11.453900
31
0.0
0
LINE
8
0
6
CONTINUOUS
10
2.042000
20
-12.811100
30
0.0
11
0.000000
21
-12.965600
31
0.0
0
LINE
8
0
6
CONTINUOUS
10
0.000000
20
-10.049600
30
0.0
11
0.407000
21
-10.070900
31
0.0
0
LINE
8
0
6
CONTINUOUS
10
4.122000
20
-12.300200
30
0.0
11
2.042000
21
-12.811100
31
0.0
0
LINE
8
0
6
CONTINUOUS
10
6.091000
20
-11.453900
30
0.0
11
4.122000
21
-12.300200
31
0.0
0
LINE
8
0
6
CONTINUOUS
10
-9.844000
20
-9.195700
30
0.0
11
-11.224000
21
-7.450400
31
0.0
0
LINE
8
0
6
CONTINUOUS
10
-11.224000
20
-7.450400
30
0.0
11
-9.844000
21
-9.196700
31
0.0
0
LINE
8
0
6
CONTINUOUS
10
-11.224000
20
-7.450400
30
0.0
11
-12.297000
21
-5.501400
31
0.0
0
LINE
8
0
6
CONTINUOUS
10
-12.297000
20
-5.501400
30
0.0
11
-11.224000
21
-7.450400
31
0.0
0
LINE
8
0
6
CONTINUOUS
10
0.000000
20
-13.464200
30
0.0
11
-2.120000
21
-13.304100
31
0.0
0
LINE
8
0
6
CONTINUOUS
10
-2.120000
20
-13.304100
30
0.0
11
0.000000
21
-13.464200
31
0.0
0
LINE
8
0
6
CONTINUOUS
10
-2.120000
20
-13.304100
30
0.0
11
-4.281000
21
-12.773200
31
0.0
0
LINE
8
0
6
CONTINUOUS
10
-4.281000
20
-12.773200
30
0.0
11
-2.120000
21
-13.304100
31
0.0
0
LINE
8
0
6
CONTINUOUS
10
-4.281000
20
-12.773200
30
0.0
11
-6.326000
21
-11.895000
31
0.0
0
LINE
8
0
6
CONTINUOUS
10
-6.326000
20
-11.895000
30
0.0
11
-4.281000
21
-12.773200
31
0.0
0
LINE
8
0
6
CONTINUOUS
10
-6.326000
20
-11.895000
30
0.0
11
-8.197000
21
-10.691500
31
0.0
0
LINE
8
0
6
CONTINUOUS
10
-8.197000
20
-10.691500
30
0.0
11
-6.326000
21
-11.895000
31
0.0
0
LINE
8
0
6
CONTINUOUS
10
-8.197000
20
-10.691500
30
0.0
11
-9.844000
21
-9.195700
31
0.0
0
LINE
8
0
6
CONTINUOUS
10
-9.844000
20
-9.196700
30
0.0
11
-8.197000
21
-10.691500
31
0.0
0
LINE
8
0
6
CONTINUOUS
10
-12.297000
20
-5.501400
30
0.0
11
-13.035000
21
-3.402900
31
0.0
0
LINE
8
0
6
CONTINUOUS
10
-13.035000
20
-3.402900
30
0.0
11
-12.297000
21
-5.501400
31
0.0
0
LINE
8
0
6
CONTINUOUS
10
-13.035000
20
-3.402900
30
0.0
11
-13.417000
21
-1.210500
31
0.0
0
LINE
8
0
6
CONTINUOUS
10
-13.417000
20
-1.210500
30
0.0
11
-13.035000
21
-3.402900
31
0.0
0
LINE
8
0
6
CONTINUOUS
10
-13.417000
20
-1.210500
30
0.0
11
-13.426000
21
0.000000
31
0.0
0
LINE
8
0
6
CONTINUOUS
10
-13.426000
20
0.000000
30
0.0
11
-13.417000
21
-1.210500
31
0.0
0
LINE
8
0
6
CONTINUOUS
10
13.417000
20
-1.210500
30
0.0
11
13.426000
21
0.000000
31
0.0
0
LINE
8
0
6
CONTINUOUS
10
13.426000
20
0.000000
30
0.0
11
13.417000
21
-1.210500
31
0.0
0
LINE
8
0
6
CONTINUOUS
10
13.035000
20
-3.402900
30
0.0
11
13.417000
21
-1.210500
31
0.0
0
LINE
8
0
6
CONTINUOUS
10
13.417000
20
-1.210500
30
0.0
11
13.035000
21
-3.402900
31
0.0
0
LINE
8
0
6
CONTINUOUS
10
12.297000
20
-5.501400
30
0.0
11
13.035000
21
-3.402900
31
0.0
0
LINE
8
0
6
CONTINUOUS
10
13.035000
20
-3.402900
30
0.0
11
12.297000
21
-5.501400
31
0.0
0
LINE
8
0
6
CONTINUOUS
10
8.197000
20
-10.691500
30
0.0
11
9.844000
21
-9.196700
31
0.0
0
LINE
8
0
6
CONTINUOUS
10
9.844000
20
-9.195700
30
0.0
11
8.197000
21
-10.691500
31
0.0
0
LINE
8
0
6
CONTINUOUS
10
6.326000
20
-11.895000
30
0.0
11
8.197000
21
-10.691500
31
0.0
0
LINE
8
0
6
CONTINUOUS
10
8.197000
20
-10.691500
30
0.0
11
6.326000
21
-11.895000
31
0.0
0
LINE
8
0
6
CONTINUOUS
10
4.281000
20
-12.773200
30
0.0
11
6.326000
21
-11.895000
31
0.0
0
LINE
8
0
6
CONTINUOUS
10
6.326000
20
-11.895000
30
0.0
11
4.281000
21
-12.773200
31
0.0
0
LINE
8
0
6
CONTINUOUS
10
2.120000
20
-13.304100
30
0.0
11
4.281000
21
-12.773200
31
0.0
0
LINE
8
0
6
CONTINUOUS
10
4.281000
20
-12.773200
30
0.0
11
2.120000
21
-13.304100
31
0.0
0
LINE
8
0
6
CONTINUOUS
10
0.000000
20
-13.464200
30
0.0
11
2.120000
21
-13.304100
31
0.0
0
LINE
8
0
6
CONTINUOUS
10
2.120000
20
-13.304100
30
0.0
11
0.000000
21
-13.464200
31
0.0
0
LINE
8
0
6
CONTINUOUS
10
11.224000
20
-7.450400
30
0.0
11
12.297000
21
-5.501400
31
0.0
0
LINE
8
0
6
CONTINUOUS
10
12.297000
20
-5.501400
30
0.0
11
11.224000
21
-7.450400
31
0.0
0
LINE
8
0
6
CONTINUOUS
10
9.844000
20
-9.196700
30
0.0
11
11.224000
21
-7.450400
31
0.0
0
LINE
8
0
6
CONTINUOUS
10
11.224000
20
-7.450400
30
0.0
11
9.844000
21
-9.195700
31
0.0
0
LINE
8
0
6
CONTINUOUS
10
39.378000
20
-30.497000
30
0.0
11
39.264000
21
-31.527800
31
0.0
0
LINE
8
0
6
CONTINUOUS
10
39.565000
20
-27.784700
30
0.0
11
39.378000
21
-30.497000
31
0.0
0
LINE
8
0
6
CONTINUOUS
10
39.106000
20
-32.552600
30
0.0
11
38.834000
21
-33.777100
31
0.0
0
LINE
8
0
6
CONTINUOUS
10
38.834000
20
-33.777100
30
0.0
11
38.654000
21
-34.376800
31
0.0
0
LINE
8
0
6
CONTINUOUS
10
39.264000
20
-31.527800
30
0.0
11
39.106000
21
-32.552600
31
0.0
0
LINE
8
0
6
CONTINUOUS
10
39.030000
20
-13.043600
30
0.0
11
38.728000
21
-13.037600
31
0.0
0
LINE
8
0
6
CONTINUOUS
10
38.787000
20
0.000000
30
0.0
11
39.030000
21
-13.043600
31
0.0
0
LINE
8
0
6
CONTINUOUS
10
38.728000
20
-13.037600
30
0.0
11
38.787000
21
0.000000
31
0.0
0
LINE
8
0
6
CONTINUOUS
10
-40.000000
20
0.000600
30
0.0
11
-39.263000
21
0.000000
31
0.0
0
LINE
8
0
6
CONTINUOUS
10
39.263000
20
0.000000
30
0.0
11
40.000000
21
0.000600
31
0.0
0
LINE
8
0
6
CONTINUOUS
10
11.626000
20
7.193000
30
0.0
11
10.357000
21
8.923000
31
0.0
0
LINE
8
0
6
CONTINUOUS
10
13.150000
20
3.739100
30
0.0
11
12.508000
21
5.518000
31
0.0
0
LINE
8
0
6
CONTINUOUS
10
12.508000
20
5.518000
30
0.0
11
11.626000
21
7.193000
31
0.0
0
LINE
8
0
6
CONTINUOUS
10
13.671000
20
0.000000
30
0.0
11
13.541000
21
1.887000
31
0.0
0
LINE
8
0
6
CONTINUOUS
10
13.541000
20
1.887000
30
0.0
11
13.150000
21
3.739100
31
0.0
0
LINE
8
0
6
CONTINUOUS
10
5.307000
20
12.600000
30
0.0
11
3.338000
21
13.257000
31
0.0
0
LINE
8
0
6
CONTINUOUS
10
3.338000
20
13.257000
30
0.0
11
1.292000
21
13.610000
31
0.0
0
LINE
8
0
6
CONTINUOUS
10
1.292000
20
13.610000
30
0.0
11
0.000000
21
13.671000
31
0.0
0
LINE
8
0
6
CONTINUOUS
10
10.357000
20
8.923000
30
0.0
11
8.834000
21
10.433000
31
0.0
0
LINE
8
0
6
CONTINUOUS
10
8.834000
20
10.433000
30
0.0
11
7.153000
21
11.650000
31
0.0
0
LINE
8
0
6
CONTINUOUS
10
7.153000
20
11.650000
30
0.0
11
5.307000
21
12.600000
31
0.0
0
LINE
8
0
6
CONTINUOUS
10
39.263000
20
0.000000
30
0.0
11
40.000000
21
0.000600
31
0.0
0
LINE
8
0
6
CONTINUOUS
10
39.990000
20
6.704000
30
0.0
11
40.000000
21
0.000600
31
0.0
0
LINE
8
0
6
CONTINUOUS
10
39.958000
20
12.033000
30
0.0
11
39.990000
21
6.704000
31
0.0
0
LINE
8
0
6
CONTINUOUS
10
40.000000
20
0.000600
30
0.0
11
39.263000
21
0.000000
31
0.0
0
LINE
8
0
6
CONTINUOUS
10
39.852000
20
19.063000
30
0.0
11
39.958000
21
12.033000
31
0.0
0
LINE
8
0
6
CONTINUOUS
10
38.787000
20
0.000000
30
0.0
11
38.728000
21
13.038000
31
0.0
0
LINE
8
0
6
CONTINUOUS
10
38.728000
20
13.038000
30
0.0
11
39.030000
21
13.044000
31
0.0
0
LINE
8
0
6
CONTINUOUS
10
39.030000
20
13.044000
30
0.0
11
38.787000
21
0.000000
31
0.0
0
LINE
8
0
6
CONTINUOUS
10
38.445000
20
0.000000
30
0.0
11
38.278000
21
13.030000
31
0.0
0
LINE
8
0
6
CONTINUOUS
10
38.278000
20
13.030000
30
0.0
11
38.728000
21
13.038000
31
0.0
0
LINE
8
0
6
CONTINUOUS
10
38.728000
20
13.038000
30
0.0
11
38.445000
21
0.000000
31
0.0
0
LINE
8
0
6
CONTINUOUS
10
37.032000
20
0.000000
30
0.0
11
36.982000
21
13.004000
31
0.0
0
LINE
8
0
6
CONTINUOUS
10
36.982000
20
13.004000
30
0.0
11
37.903000
21
13.022000
31
0.0
0
LINE
8
0
6
CONTINUOUS
10
37.903000
20
13.022000
30
0.0
11
37.032000
21
0.000000
31
0.0
0
LINE
8
0
6
CONTINUOUS
10
19.505000
20
36.875000
30
0.0
11
26.003000
21
36.672000
31
0.0
0
LINE
8
0
6
CONTINUOUS
10
13.004000
20
36.982000
30
0.0
11
9.259000
21
27.775000
31
0.0
0
LINE
8
0
6
CONTINUOUS
10
9.259000
20
27.775000
30
0.0
11
0.000000
21
37.032000
31
0.0
0
LINE
8
0
6
CONTINUOUS
10
0.000000
20
40.000000
30
0.0
11
9.333000
21
39.979000
31
0.0
0
LINE
8
0
6
CONTINUOUS
10
21.118000
20
39.802000
30
0.0
11
26.090000
21
39.639000
31
0.0
0
LINE
8
0
6
CONTINUOUS
10
14.049000
20
39.936000
30
0.0
11
21.118000
21
39.802000
31
0.0
0
LINE
8
0
6
CONTINUOUS
10
13.038000
20
38.728000
30
0.0
11
0.000000
21
38.778000
31
0.0
0
LINE
8
0
6
CONTINUOUS
10
0.000000
20
38.803000
30
0.0
11
13.038000
21
38.728000
31
0.0
0
LINE
8
0
6
CONTINUOUS
10
9.333000
20
39.979000
30
0.0
11
14.049000
21
39.936000
31
0.0
0
LINE
8
0
6
CONTINUOUS
10
13.030000
20
38.278000
30
0.0
11
0.000000
21
38.327000
31
0.0
0
LINE
8
0
6
CONTINUOUS
10
0.000000
20
38.711000
30
0.0
11
13.030000
21
38.278000
31
0.0
0
LINE
8
0
6
CONTINUOUS
10
0.000000
20
37.928000
30
0.0
11
13.004000
21
36.982000
31
0.0
0
LINE
8
0
6
CONTINUOUS
10
26.004000
20
36.672000
30
0.0
11
19.505000
21
36.875000
31
0.0
0
LINE
8
0
6
CONTINUOUS
10
26.036000
20
37.506000
30
0.0
11
26.004000
21
36.672000
31
0.0
0
LINE
8
0
6
CONTINUOUS
10
39.565000
20
27.785000
30
0.0
11
39.640000
21
26.090000
31
0.0
0
LINE
8
0
6
CONTINUOUS
10
39.106000
20
32.553000
30
0.0
11
39.264000
21
31.528000
31
0.0
0
LINE
8
0
6
CONTINUOUS
10
37.300000
20
36.823000
30
0.0
11
37.889000
21
36.032000
31
0.0
0
LINE
8
0
6
CONTINUOUS
10
37.889000
20
36.032000
30
0.0
11
38.184000
21
35.510000
31
0.0
0
LINE
8
0
6
CONTINUOUS
10
36.955000
20
37.176000
30
0.0
11
37.300000
21
36.823000
31
0.0
0
LINE
8
0
6
CONTINUOUS
10
38.184000
20
35.510000
30
0.0
11
38.435000
21
34.965000
31
0.0
0
LINE
8
0
6
CONTINUOUS
10
38.654000
20
34.377000
30
0.0
11
38.834000
21
33.777000
31
0.0
0
LINE
8
0
6
CONTINUOUS
10
38.834000
20
33.777000
30
0.0
11
39.106000
21
32.553000
31
0.0
0
LINE
8
0
6
CONTINUOUS
10
38.435000
20
34.965000
30
0.0
11
38.654000
21
34.377000
31
0.0
0
LINE
8
0
6
CONTINUOUS
10
39.378000
20
30.497000
30
0.0
11
39.565000
21
27.785000
31
0.0
0
LINE
8
0
6
CONTINUOUS
10
39.264000
20
31.528000
30
0.0
11
39.378000
21
30.497000
31
0.0
0
LINE
8
0
6
CONTINUOUS
10
33.798000
20
38.827000
30
0.0
11
34.715000
21
38.531000
31
0.0
0
LINE
8
0
6
CONTINUOUS
10
32.858000
20
39.047000
30
0.0
11
33.798000
21
38.827000
31
0.0
0
LINE
8
0
6
CONTINUOUS
10
31.907000
20
39.211000
30
0.0
11
32.858000
21
39.047000
31
0.0
0
LINE
8
0
6
CONTINUOUS
10
30.967000
20
39.330000
30
0.0
11
31.907000
21
39.211000
31
0.0
0
LINE
8
0
6
CONTINUOUS
10
29.074000
20
39.492000
30
0.0
11
30.967000
21
39.330000
31
0.0
0
LINE
8
0
6
CONTINUOUS
10
34.715000
20
38.531000
30
0.0
11
35.690000
21
38.088000
31
0.0
0
LINE
8
0
6
CONTINUOUS
10
35.690000
20
38.088000
30
0.0
11
36.149000
21
37.814000
31
0.0
0
LINE
8
0
6
CONTINUOUS
10
36.149000
20
37.814000
30
0.0
11
36.583000
21
37.500000
31
0.0
0
LINE
8
0
6
CONTINUOUS
10
36.583000
20
37.500000
30
0.0
11
36.955000
21
37.176000
31
0.0
0
LINE
8
0
6
CONTINUOUS
10
26.090000
20
39.639000
30
0.0
11
29.074000
21
39.492000
31
0.0
0
LINE
8
0
6
CONTINUOUS
10
26.003000
20
36.672000
30
0.0
11
26.036000
21
37.506000
31
0.0
0
LINE
8
0
6
CONTINUOUS
10
39.640000
20
26.090000
30
0.0
11
39.852000
21
19.063000
31
0.0
0
LINE
8
0
6
CONTINUOUS
10
0.000000
20
25.352000
30
0.0
11
9.259000
21
18.516000
31
0.0
0
LINE
8
0
6
CONTINUOUS
10
9.259000
20
18.516000
30
0.0
11
0.000000
21
20.846000
31
0.0
0
LINE
8
0
6
CONTINUOUS
10
13.417000
20
1.210500
30
0.0
11
13.426000
21
0.000000
31
0.0
0
LINE
8
0
6
CONTINUOUS
10
12.929000
20
0.000000
30
0.0
11
12.920000
21
1.165600
31
0.0
0
LINE
8
0
6
CONTINUOUS
10
12.920000
20
1.165600
30
0.0
11
12.929000
21
0.000000
31
0.0
0
LINE
8
0
6
CONTINUOUS
10
12.297000
20
5.501000
30
0.0
11
13.035000
21
3.402900
31
0.0
0
LINE
8
0
6
CONTINUOUS
10
12.553000
20
3.276100
30
0.0
11
11.842000
21
5.298000
31
0.0
0
LINE
8
0
6
CONTINUOUS
10
12.920000
20
1.165600
30
0.0
11
12.553000
21
3.276100
31
0.0
0
LINE
8
0
6
CONTINUOUS
10
13.035000
20
3.402900
30
0.0
11
13.417000
21
1.210500
31
0.0
0
LINE
8
0
6
CONTINUOUS
10
12.553000
20
3.276100
30
0.0
11
12.920000
21
1.165600
31
0.0
0
LINE
8
0
6
CONTINUOUS
10
10.065000
20
0.523900
30
0.0
11
12.553000
21
3.276100
31
0.0
0
LINE
8
0
6
CONTINUOUS
10
12.920000
20
1.165600
30
0.0
11
10.065000
21
0.523900
31
0.0
0
LINE
8
0
6
CONTINUOUS
10
12.553000
20
3.276100
30
0.0
11
12.920000
21
1.165600
31
0.0
0
LINE
8
0
6
CONTINUOUS
10
10.065000
20
0.523900
30
0.0
11
9.797000
21
2.364000
31
0.0
0
LINE
8
0
6
CONTINUOUS
10
11.842000
20
5.298000
30
0.0
11
12.553000
21
3.276100
31
0.0
0
LINE
8
0
6
CONTINUOUS
10
9.797000
20
2.364000
30
0.0
11
9.197000
21
4.124300
31
0.0
0
LINE
8
0
6
CONTINUOUS
10
10.044000
20
0.000000
30
0.0
11
10.065000
21
0.523900
31
0.0
0
LINE
8
0
6
CONTINUOUS
10
6.326000
20
11.895000
30
0.0
11
8.197000
21
10.691000
31
0.0
0
LINE
8
0
6
CONTINUOUS
10
7.893000
20
10.295000
30
0.0
11
6.091000
21
11.454000
31
0.0
0
LINE
8
0
6
CONTINUOUS
10
2.251000
20
9.824000
30
0.0
11
0.407000
21
10.071000
31
0.0
0
LINE
8
0
6
CONTINUOUS
10
6.091000
20
11.454000
30
0.0
11
7.893000
21
10.295000
31
0.0
0
LINE
8
0
6
CONTINUOUS
10
7.893000
20
10.295000
30
0.0
11
9.480000
21
8.855000
31
0.0
0
LINE
8
0
6
CONTINUOUS
10
7.085000
20
7.168000
30
0.0
11
5.648000
21
8.348000
31
0.0
0
LINE
8
0
6
CONTINUOUS
10
8.197000
20
10.691000
30
0.0
11
9.844000
21
9.197000
31
0.0
0
LINE
8
0
6
CONTINUOUS
10
9.480000
20
8.855000
30
0.0
11
7.893000
21
10.295000
31
0.0
0
LINE
8
0
6
CONTINUOUS
10
5.648000
20
8.348000
30
0.0
11
4.018000
21
9.244000
31
0.0
0
LINE
8
0
6
CONTINUOUS
10
4.018000
20
9.244000
30
0.0
11
2.251000
21
9.824000
31
0.0
0
LINE
8
0
6
CONTINUOUS
10
9.844000
20
9.197000
30
0.0
11
11.224000
21
7.450000
31
0.0
0
LINE
8
0
6
CONTINUOUS
10
10.808000
20
7.175000
30
0.0
11
9.480000
21
8.855000
31
0.0
0
LINE
8
0
6
CONTINUOUS
10
9.480000
20
8.855000
30
0.0
11
10.808000
21
7.175000
31
0.0
0
LINE
8
0
6
CONTINUOUS
10
8.283000
20
5.744000
30
0.0
11
7.085000
21
7.168000
31
0.0
0
LINE
8
0
6
CONTINUOUS
10
10.808000
20
7.175000
30
0.0
11
11.842000
21
5.298000
31
0.0
0
LINE
8
0
6
CONTINUOUS
10
9.197000
20
4.124300
30
0.0
11
8.283000
21
5.744000
31
0.0
0
LINE
8
0
6
CONTINUOUS
10
11.224000
20
7.450000
30
0.0
11
12.297000
21
5.501000
31
0.0
0
LINE
8
0
6
CONTINUOUS
10
11.842000
20
5.298000
30
0.0
11
10.808000
21
7.175000
31
0.0
0
LINE
8
0
6
CONTINUOUS
10
2.042000
20
12.811000
30
0.0
11
0.000000
21
12.966000
31
0.0
0
LINE
8
0
6
CONTINUOUS
10
0.000000
20
13.464000
30
0.0
11
2.120000
21
13.304000
31
0.0
0
LINE
8
0
6
CONTINUOUS
10
4.122000
20
12.300000
30
0.0
11
6.091000
21
11.454000
31
0.0
0
LINE
8
0
6
CONTINUOUS
10
2.042000
20
12.811000
30
0.0
11
4.122000
21
12.300000
31
0.0
0
LINE
8
0
6
CONTINUOUS
10
0.407000
20
10.071000
30
0.0
11
0.000000
21
10.050000
31
0.0
0
LINE
8
0
6
CONTINUOUS
10
0.000000
20
12.966000
30
0.0
11
2.042000
21
12.811000
31
0.0
0
LINE
8
0
6
CONTINUOUS
10
4.281000
20
12.773000
30
0.0
11
6.326000
21
11.895000
31
0.0
0
LINE
8
0
6
CONTINUOUS
10
6.091000
20
11.454000
30
0.0
11
4.122000
21
12.300000
31
0.0
0
LINE
8
0
6
CONTINUOUS
10
2.120000
20
13.304000
30
0.0
11
4.281000
21
12.773000
31
0.0
0
LINE
8
0
6
CONTINUOUS
10
4.122000
20
12.300000
30
0.0
11
2.042000
21
12.811000
31
0.0
0
LINE
8
0
6
CONTINUOUS
10
9.844000
20
9.196000
30
0.0
11
11.224000
21
7.450000
31
0.0
0
LINE
8
0
6
CONTINUOUS
10
11.224000
20
7.450000
30
0.0
11
9.844000
21
9.197000
31
0.0
0
LINE
8
0
6
CONTINUOUS
10
11.224000
20
7.450000
30
0.0
11
12.297000
21
5.501000
31
0.0
0
LINE
8
0
6
CONTINUOUS
10
12.297000
20
5.501000
30
0.0
11
11.224000
21
7.450000
31
0.0
0
LINE
8
0
6
CONTINUOUS
10
0.000000
20
13.464000
30
0.0
11
2.120000
21
13.304000
31
0.0
0
LINE
8
0
6
CONTINUOUS
10
2.120000
20
13.304000
30
0.0
11
0.000000
21
13.464000
31
0.0
0
LINE
8
0
6
CONTINUOUS
10
2.120000
20
13.304000
30
0.0
11
4.281000
21
12.773000
31
0.0
0
LINE
8
0
6
CONTINUOUS
10
4.281000
20
12.773000
30
0.0
11
2.120000
21
13.304000
31
0.0
0
LINE
8
0
6
CONTINUOUS
10
4.281000
20
12.773000
30
0.0
11
6.326000
21
11.895000
31
0.0
0
LINE
8
0
6
CONTINUOUS
10
6.326000
20
11.895000
30
0.0
11
4.281000
21
12.773000
31
0.0
0
LINE
8
0
6
CONTINUOUS
10
6.326000
20
11.895000
30
0.0
11
8.197000
21
10.691000
31
0.0
0
LINE
8
0
6
CONTINUOUS
10
8.197000
20
10.691000
30
0.0
11
6.326000
21
11.895000
31
0.0
0
LINE
8
0
6
CONTINUOUS
10
8.197000
20
10.691000
30
0.0
11
9.844000
21
9.196000
31
0.0
0
LINE
8
0
6
CONTINUOUS
10
9.844000
20
9.197000
30
0.0
11
8.197000
21
10.691000
31
0.0
0
LINE
8
0
6
CONTINUOUS
10
12.297000
20
5.501000
30
0.0
11
13.035000
21
3.402900
31
0.0
0
LINE
8
0
6
CONTINUOUS
10
13.035000
20
3.402900
30
0.0
11
12.297000
21
5.501000
31
0.0
0
LINE
8
0
6
CONTINUOUS
10
13.035000
20
3.402900
30
0.0
11
13.417000
21
1.210500
31
0.0
0
LINE
8
0
6
CONTINUOUS
10
13.417000
20
1.210500
30
0.0
11
13.035000
21
3.402900
31
0.0
0
LINE
8
0
6
CONTINUOUS
10
13.417000
20
1.210500
30
0.0
11
13.426000
21
0.000000
31
0.0
0
LINE
8
0
6
CONTINUOUS
10
13.426000
20
0.000000
30
0.0
11
13.417000
21
1.210500
31
0.0
0
LINE
8
0
6
CONTINUOUS
10
40.000000
20
-0.000600
30
0.0
11
39.263000
21
0.000000
31
0.0
0
LINE
8
0
6
CONTINUOUS
10
-13.417000
20
1.210500
30
0.0
11
-13.426000
21
0.000000
31
0.0
0
LINE
8
0
6
CONTINUOUS
10
-13.426000
20
0.000000
30
0.0
11
-13.417000
21
1.210500
31
0.0
0
LINE
8
0
6
CONTINUOUS
10
-39.263000
20
0.000000
30
0.0
11
-40.000000
21
-0.000600
31
0.0
0
LINE
8
0
6
CONTINUOUS
10
-9.333000
20
39.979000
30
0.0
11
0.000000
21
40.000000
31
0.0
0
LINE
8
0
6
CONTINUOUS
10
-2.042000
20
12.811000
30
0.0
11
0.000000
21
12.966000
31
0.0
0
LINE
8
0
6
CONTINUOUS
10
0.000000
20
10.050000
30
0.0
11
-0.407000
21
10.071000
31
0.0
0
LINE
8
0
6
CONTINUOUS
10
-9.797000
20
2.364000
30
0.0
11
-10.065000
21
0.523900
31
0.0
0
LINE
8
0
6
CONTINUOUS
10
-12.920000
20
1.165600
30
0.0
11
-12.553000
21
3.276100
31
0.0
0
LINE
8
0
6
CONTINUOUS
10
-10.065000
20
0.523900
30
0.0
11
-12.920000
21
1.165600
31
0.0
0
LINE
8
0
6
CONTINUOUS
10
-12.920000
20
1.165600
30
0.0
11
-12.553000
21
3.276100
31
0.0
0
LINE
8
0
6
CONTINUOUS
10
-12.553000
20
3.276100
30
0.0
11
-10.065000
21
0.523900
31
0.0
0
LINE
8
0
6
CONTINUOUS
10
-10.065000
20
0.523900
30
0.0
11
-10.044000
21
0.000000
31
0.0
0
LINE
8
0
6
CONTINUOUS
10
-12.929000
20
0.000000
30
0.0
11
-12.920000
21
1.165600
31
0.0
0
LINE
8
0
6
CONTINUOUS
10
-2.251000
20
9.824000
30
0.0
11
-4.018000
21
9.244000
31
0.0
0
LINE
8
0
6
CONTINUOUS
10
-4.018000
20
9.244000
30
0.0
11
-5.648000
21
8.348000
31
0.0
0
LINE
8
0
6
CONTINUOUS
10
-9.480000
20
8.855000
30
0.0
11
-7.893000
21
10.295000
31
0.0
0
LINE
8
0
6
CONTINUOUS
10
-5.648000
20
8.348000
30
0.0
11
-7.085000
21
7.168000
31
0.0
0
LINE
8
0
6
CONTINUOUS
10
-10.808000
20
7.175000
30
0.0
11
-9.480000
21
8.855000
31
0.0
0
LINE
8
0
6
CONTINUOUS
10
-7.085000
20
7.168000
30
0.0
11
-8.283000
21
5.744000
31
0.0
0
LINE
8
0
6
CONTINUOUS
10
-0.407000
20
10.071000
30
0.0
11
-2.251000
21
9.824000
31
0.0
0
LINE
8
0
6
CONTINUOUS
10
-7.893000
20
10.295000
30
0.0
11
-6.091000
21
11.454000
31
0.0
0
LINE
8
0
6
CONTINUOUS
10
-21.118000
20
39.802000
30
0.0
11
-14.049000
21
39.936000
31
0.0
0
LINE
8
0
6
CONTINUOUS
10
-38.654000
20
34.377000
30
0.0
11
-38.435000
21
34.965000
31
0.0
0
LINE
8
0
6
CONTINUOUS
10
-39.106000
20
32.553000
30
0.0
11
-38.834000
21
33.777000
31
0.0
0
LINE
8
0
6
CONTINUOUS
10
-36.149000
20
37.814000
30
0.0
11
-35.690000
21
38.088000
31
0.0
0
LINE
8
0
6
CONTINUOUS
10
-40.000000
20
0.000600
30
0.0
11
-39.263000
21
0.000000
31
0.0
0
LINE
8
0
6
CONTINUOUS
10
-39.263000
20
0.000000
30
0.0
11
-40.000000
21
0.000600
31
0.0
0
LINE
8
0
6
CONTINUOUS
10
-39.990000
20
6.704000
30
0.0
11
-39.958000
21
12.033000
31
0.0
0
LINE
8
0
6
CONTINUOUS
10
-40.000000
20
0.000600
30
0.0
11
-39.990000
21
6.704000
31
0.0
0
LINE
8
0
6
CONTINUOUS
10
0.000000
20
37.032000
30
0.0
11
-9.259000
21
27.775000
31
0.0
0
LINE
8
0
6
CONTINUOUS
10
-9.259000
20
27.775000
30
0.0
11
-13.004000
21
36.982000
31
0.0
0
LINE
8
0
6
CONTINUOUS
10
-13.150000
20
3.739100
30
0.0
11
-13.541000
21
1.887000
31
0.0
0
LINE
8
0
6
CONTINUOUS
10
-13.541000
20
1.887000
30
0.0
11
-13.671000
21
0.000000
31
0.0
0
LINE
8
0
6
CONTINUOUS
10
-10.357000
20
8.923000
30
0.0
11
-11.626000
21
7.193000
31
0.0
0
LINE
8
0
6
CONTINUOUS
10
0.000000
20
20.846000
30
0.0
11
-9.259000
21
18.516000
31
0.0
0
LINE
8
0
6
CONTINUOUS
10
-9.259000
20
18.516000
30
0.0
11
0.000000
21
25.352000
31
0.0
0
LINE
8
0
6
CONTINUOUS
10
0.000000
20
13.671000
30
0.0
11
-1.292000
21
13.610000
31
0.0
0
LINE
8
0
6
CONTINUOUS
10
-11.626000
20
7.193000
30
0.0
11
-12.508000
21
5.518000
31
0.0
0
LINE
8
0
6
CONTINUOUS
10
-12.508000
20
5.518000
30
0.0
11
-13.150000
21
3.739100
31
0.0
0
LINE
8
0
6
CONTINUOUS
10
-1.292000
20
13.610000
30
0.0
11
-3.338000
21
13.257000
31
0.0
0
LINE
8
0
6
CONTINUOUS
10
-3.338000
20
13.257000
30
0.0
11
-5.307000
21
12.600000
31
0.0
0
LINE
8
0
6
CONTINUOUS
10
-5.307000
20
12.600000
30
0.0
11
-7.153000
21
11.650000
31
0.0
0
LINE
8
0
6
CONTINUOUS
10
-7.153000
20
11.650000
30
0.0
11
-8.834000
21
10.433000
31
0.0
0
LINE
8
0
6
CONTINUOUS
10
-26.036000
20
37.506000
30
0.0
11
-26.003000
21
36.672000
31
0.0
0
LINE
8
0
6
CONTINUOUS
10
-26.003000
20
36.672000
30
0.0
11
-19.505000
21
36.875000
31
0.0
0
LINE
8
0
6
CONTINUOUS
10
-26.004000
20
36.672000
30
0.0
11
-26.036000
21
37.506000
31
0.0
0
LINE
8
0
6
CONTINUOUS
10
-19.505000
20
36.875000
30
0.0
11
-26.004000
21
36.672000
31
0.0
0
LINE
8
0
6
CONTINUOUS
10
-4.122000
20
12.300000
30
0.0
11
-2.042000
21
12.811000
31
0.0
0
LINE
8
0
6
CONTINUOUS
10
-6.091000
20
11.454000
30
0.0
11
-4.122000
21
12.300000
31
0.0
0
LINE
8
0
6
CONTINUOUS
10
-11.842000
20
5.298000
30
0.0
11
-10.808000
21
7.175000
31
0.0
0
LINE
8
0
6
CONTINUOUS
10
-8.283000
20
5.744000
30
0.0
11
-9.197000
21
4.124300
31
0.0
0
LINE
8
0
6
CONTINUOUS
10
-9.197000
20
4.124300
30
0.0
11
-9.797000
21
2.364000
31
0.0
0
LINE
8
0
6
CONTINUOUS
10
-12.553000
20
3.276100
30
0.0
11
-11.842000
21
5.298000
31
0.0
0
LINE
8
0
6
CONTINUOUS
10
-2.120000
20
13.304000
30
0.0
11
0.000000
21
13.464000
31
0.0
0
LINE
8
0
6
CONTINUOUS
10
0.000000
20
12.966000
30
0.0
11
-2.042000
21
12.811000
31
0.0
0
LINE
8
0
6
CONTINUOUS
10
-4.281000
20
12.773000
30
0.0
11
-2.120000
21
13.304000
31
0.0
0
LINE
8
0
6
CONTINUOUS
10
-2.042000
20
12.811000
30
0.0
11
-4.122000
21
12.300000
31
0.0
0
LINE
8
0
6
CONTINUOUS
10
-6.326000
20
11.895000
30
0.0
11
-4.281000
21
12.773000
31
0.0
0
LINE
8
0
6
CONTINUOUS
10
-4.122000
20
12.300000
30
0.0
11
-6.091000
21
11.454000
31
0.0
0
LINE
8
0
6
CONTINUOUS
10
-8.197000
20
10.691000
30
0.0
11
-6.326000
21
11.895000
31
0.0
0
LINE
8
0
6
CONTINUOUS
10
-6.091000
20
11.454000
30
0.0
11
-7.893000
21
10.295000
31
0.0
0
LINE
8
0
6
CONTINUOUS
10
-9.844000
20
9.197000
30
0.0
11
-8.197000
21
10.691000
31
0.0
0
LINE
8
0
6
CONTINUOUS
10
-7.893000
20
10.295000
30
0.0
11
-9.480000
21
8.855000
31
0.0
0
LINE
8
0
6
CONTINUOUS
10
-11.224000
20
7.450000
30
0.0
11
-9.844000
21
9.197000
31
0.0
0
LINE
8
0
6
CONTINUOUS
10
-9.480000
20
8.855000
30
0.0
11
-10.808000
21
7.175000
31
0.0
0
LINE
8
0
6
CONTINUOUS
10
-12.297000
20
5.501000
30
0.0
11
-11.224000
21
7.450000
31
0.0
0
LINE
8
0
6
CONTINUOUS
10
-10.808000
20
7.175000
30
0.0
11
-11.842000
21
5.298000
31
0.0
0
LINE
8
0
6
CONTINUOUS
10
-13.035000
20
3.402900
30
0.0
11
-12.297000
21
5.501000
31
0.0
0
LINE
8
0
6
CONTINUOUS
10
-11.842000
20
5.298000
30
0.0
11
-12.553000
21
3.276100
31
0.0
0
LINE
8
0
6
CONTINUOUS
10
-12.553000
20
3.276100
30
0.0
11
-12.920000
21
1.165600
31
0.0
0
LINE
8
0
6
CONTINUOUS
10
-13.417000
20
1.210500
30
0.0
11
-13.035000
21
3.402900
31
0.0
0
LINE
8
0
6
CONTINUOUS
10
-13.426000
20
0.000000
30
0.0
11
-13.417000
21
1.210500
31
0.0
0
LINE
8
0
6
CONTINUOUS
10
-12.920000
20
1.165600
30
0.0
11
-12.929000
21
0.000000
31
0.0
0
LINE
8
0
6
CONTINUOUS
10
-13.035000
20
3.402900
30
0.0
11
-13.417000
21
1.210500
31
0.0
0
LINE
8
0
6
CONTINUOUS
10
-13.417000
20
1.210500
30
0.0
11
-13.035000
21
3.402900
31
0.0
0
LINE
8
0
6
CONTINUOUS
10
-12.297000
20
5.501000
30
0.0
11
-13.035000
21
3.402900
31
0.0
0
LINE
8
0
6
CONTINUOUS
10
-13.035000
20
3.402900
30
0.0
11
-12.297000
21
5.501000
31
0.0
0
LINE
8
0
6
CONTINUOUS
10
-11.224000
20
7.450000
30
0.0
11
-12.297000
21
5.501000
31
0.0
0
LINE
8
0
6
CONTINUOUS
10
-12.297000
20
5.501000
30
0.0
11
-11.224000
21
7.450000
31
0.0
0
LINE
8
0
6
CONTINUOUS
10
-9.844000
20
9.197000
30
0.0
11
-11.224000
21
7.450000
31
0.0
0
LINE
8
0
6
CONTINUOUS
10
-11.224000
20
7.450000
30
0.0
11
-9.844000
21
9.196000
31
0.0
0
LINE
8
0
6
CONTINUOUS
10
-8.197000
20
10.691000
30
0.0
11
-9.844000
21
9.197000
31
0.0
0
LINE
8
0
6
CONTINUOUS
10
-9.844000
20
9.196000
30
0.0
11
-8.197000
21
10.691000
31
0.0
0
LINE
8
0
6
CONTINUOUS
10
-6.326000
20
11.895000
30
0.0
11
-8.197000
21
10.691000
31
0.0
0
LINE
8
0
6
CONTINUOUS
10
-8.197000
20
10.691000
30
0.0
11
-6.326000
21
11.895000
31
0.0
0
LINE
8
0
6
CONTINUOUS
10
-4.281000
20
12.773000
30
0.0
11
-6.326000
21
11.895000
31
0.0
0
LINE
8
0
6
CONTINUOUS
10
-6.326000
20
11.895000
30
0.0
11
-4.281000
21
12.773000
31
0.0
0
LINE
8
0
6
CONTINUOUS
10
-2.120000
20
13.304000
30
0.0
11
-4.281000
21
12.773000
31
0.0
0
LINE
8
0
6
CONTINUOUS
10
-4.281000
20
12.773000
30
0.0
11
-2.120000
21
13.304000
31
0.0
0
LINE
8
0
6
CONTINUOUS
10
0.000000
20
13.464000
30
0.0
11
-2.120000
21
13.304000
31
0.0
0
LINE
8
0
6
CONTINUOUS
10
-2.120000
20
13.304000
30
0.0
11
0.000000
21
13.464000
31
0.0
0
LINE
8
0
6
CONTINUOUS
10
-37.032000
20
0.000000
30
0.0
11
-37.903000
21
13.022000
31
0.0
0
LINE
8
0
6
CONTINUOUS
10
-37.903000
20
13.022000
30
0.0
11
-36.982000
21
13.004000
31
0.0
0
LINE
8
0
6
CONTINUOUS
10
-36.982000
20
13.004000
30
0.0
11
-37.032000
21
0.000000
31
0.0
0
LINE
8
0
6
CONTINUOUS
10
-38.728000
20
13.038000
30
0.0
11
-38.278000
21
13.030000
31
0.0
0
LINE
8
0
6
CONTINUOUS
10
-38.445000
20
0.000000
30
0.0
11
-38.728000
21
13.038000
31
0.0
0
LINE
8
0
6
CONTINUOUS
10
-38.278000
20
13.030000
30
0.0
11
-38.445000
21
0.000000
31
0.0
0
LINE
8
0
6
CONTINUOUS
10
-39.030000
20
13.044000
30
0.0
11
-38.728000
21
13.038000
31
0.0
0
LINE
8
0
6
CONTINUOUS
10
-38.787000
20
0.000000
30
0.0
11
-39.030000
21
13.044000
31
0.0
0
LINE
8
0
6
CONTINUOUS
10
-38.728000
20
13.038000
30
0.0
11
-38.787000
21
0.000000
31
0.0
0
LINE
8
0
6
CONTINUOUS
10
-13.004000
20
36.982000
30
0.0
11
0.000000
21
37.928000
31
0.0
0
LINE
8
0
6
CONTINUOUS
10
-13.030000
20
38.278000
30
0.0
11
0.000000
21
38.711000
31
0.0
0
LINE
8
0
6
CONTINUOUS
10
0.000000
20
38.327000
30
0.0
11
-13.030000
21
38.278000
31
0.0
0
LINE
8
0
6
CONTINUOUS
10
-13.038000
20
38.728000
30
0.0
11
0.000000
21
38.803000
31
0.0
0
LINE
8
0
6
CONTINUOUS
10
0.000000
20
38.778000
30
0.0
11
-13.038000
21
38.728000
31
0.0
0
LINE
8
0
6
CONTINUOUS
10
-14.049000
20
39.936000
30
0.0
11
-9.333000
21
39.979000
31
0.0
0
LINE
8
0
6
CONTINUOUS
10
-26.090000
20
39.639000
30
0.0
11
-21.118000
21
39.802000
31
0.0
0
LINE
8
0
6
CONTINUOUS
10
-38.834000
20
33.777000
30
0.0
11
-38.654000
21
34.377000
31
0.0
0
LINE
8
0
6
CONTINUOUS
10
-39.264000
20
31.528000
30
0.0
11
-39.106000
21
32.553000
31
0.0
0
LINE
8
0
6
CONTINUOUS
10
-39.378000
20
30.497000
30
0.0
11
-39.264000
21
31.528000
31
0.0
0
LINE
8
0
6
CONTINUOUS
10
-39.565000
20
27.785000
30
0.0
11
-39.378000
21
30.497000
31
0.0
0
LINE
8
0
6
CONTINUOUS
10
-39.640000
20
26.090000
30
0.0
11
-39.565000
21
27.785000
31
0.0
0
LINE
8
0
6
CONTINUOUS
10
-38.435000
20
34.965000
30
0.0
11
-38.184000
21
35.510000
31
0.0
0
LINE
8
0
6
CONTINUOUS
10
-38.184000
20
35.510000
30
0.0
11
-37.889000
21
36.032000
31
0.0
0
LINE
8
0
6
CONTINUOUS
10
-37.889000
20
36.032000
30
0.0
11
-37.300000
21
36.823000
31
0.0
0
LINE
8
0
6
CONTINUOUS
10
-37.300000
20
36.823000
30
0.0
11
-36.955000
21
37.176000
31
0.0
0
LINE
8
0
6
CONTINUOUS
10
-36.955000
20
37.176000
30
0.0
11
-36.583000
21
37.500000
31
0.0
0
LINE
8
0
6
CONTINUOUS
10
-36.583000
20
37.500000
30
0.0
11
-36.149000
21
37.814000
31
0.0
0
LINE
8
0
6
CONTINUOUS
10
-29.074000
20
39.492000
30
0.0
11
-26.090000
21
39.639000
31
0.0
0
LINE
8
0
6
CONTINUOUS
10
-30.967000
20
39.330000
30
0.0
11
-29.074000
21
39.492000
31
0.0
0
LINE
8
0
6
CONTINUOUS
10
-31.907000
20
39.211000
30
0.0
11
-30.967000
21
39.330000
31
0.0
0
LINE
8
0
6
CONTINUOUS
10
-32.858000
20
39.047000
30
0.0
11
-31.907000
21
39.211000
31
0.0
0
LINE
8
0
6
CONTINUOUS
10
-33.798000
20
38.827000
30
0.0
11
-32.858000
21
39.047000
31
0.0
0
LINE
8
0
6
CONTINUOUS
10
-34.715000
20
38.531000
30
0.0
11
-33.798000
21
38.827000
31
0.0
0
LINE
8
0
6
CONTINUOUS
10
-35.690000
20
38.088000
30
0.0
11
-34.715000
21
38.531000
31
0.0
0
LINE
8
0
6
CONTINUOUS
10
-39.852000
20
19.063000
30
0.0
11
-39.640000
21
26.090000
31
0.0
0
LINE
8
0
6
CONTINUOUS
10
-39.958000
20
12.033000
30
0.0
11
-39.852000
21
19.063000
31
0.0
0
LINE
8
0
6
CONTINUOUS
10
-8.834000
20
10.433000
30
0.0
11
-10.357000
21
8.923000
31
0.0
0
LINE
8
0
6
CONTINUOUS
10
174.263000
20
-94.119205
30
0.0
11
176.271000
21
-93.112580
31
0.0
0
LINE
8
0
6
CONTINUOUS
10
172.169000
20
-94.773510
30
0.0
11
174.263000
21
-94.119205
31
0.0
0
LINE
8
0
6
CONTINUOUS
10
169.960000
20
-95.000000
30
0.0
11
172.169000
21
-94.773510
31
0.0
0
LINE
8
0
6
CONTINUOUS
10
0.000000
20
-95.000000
30
0.0
11
169.960000
21
-95.000000
31
0.0
0
LINE
8
0
6
CONTINUOUS
10
176.271000
20
-93.112580
30
0.0
11
177.849000
21
-91.728480
31
0.0
0
LINE
8
0
6
CONTINUOUS
10
177.849000
20
-91.728480
30
0.0
11
178.996000
21
-89.966890
31
0.0
0
LINE
8
0
6
CONTINUOUS
10
178.996000
20
-89.966890
30
0.0
11
179.742000
21
-88.129800
31
0.0
0
LINE
8
0
6
CONTINUOUS
10
179.742000
20
-88.129800
30
0.0
11
180.000000
21
-86.192050
31
0.0
0
LINE
8
0
6
CONTINUOUS
10
180.000000
20
-86.192050
30
0.0
11
180.000000
21
0.000000
31
0.0
0
LINE
8
0
6
CONTINUOUS
10
176.271000
20
-93.112580
30
0.0
11
174.263000
21
-94.119205
31
0.0
0
LINE
8
0
6
CONTINUOUS
10
174.263000
20
-94.119205
30
0.0
11
172.169000
21
-94.773510
31
0.0
0
LINE
8
0
6
CONTINUOUS
10
172.169000
20
-94.773510
30
0.0
11
169.960000
21
-95.000000
31
0.0
0
LINE
8
0
6
CONTINUOUS
10
169.960000
20
-95.000000
30
0.0
11
0.000000
21
-95.000000
31
0.0
0
LINE
8
0
6
CONTINUOUS
10
177.849000
20
-91.728480
30
0.0
11
176.271000
21
-93.112580
31
0.0
0
LINE
8
0
6
CONTINUOUS
10
178.996000
20
-89.966890
30
0.0
11
177.849000
21
-91.728480
31
0.0
0
LINE
8
0
6
CONTINUOUS
10
179.742000
20
-88.129800
30
0.0
11
178.996000
21
-89.966890
31
0.0
0
LINE
8
0
6
CONTINUOUS
10
180.000000
20
-86.192050
30
0.0
11
179.742000
21
-88.129800
31
0.0
0
LINE
8
0
6
CONTINUOUS
10
180.000000
20
0.000000
30
0.0
11
180.000000
21
-86.192050
31
0.0
0
LINE
8
0
6
CONTINUOUS
10
0.000000
20
95.000000
30
0.0
11
169.960000
21
95.000000
31
0.0
0
LINE
8
0
6
CONTINUOUS
10
174.263000
20
94.119000
30
0.0
11
176.271000
21
93.113000
31
0.0
0
LINE
8
0
6
CONTINUOUS
10
172.169000
20
94.774000
30
0.0
11
174.263000
21
94.119000
31
0.0
0
LINE
8
0
6
CONTINUOUS
10
169.960000
20
95.000000
30
0.0
11
172.169000
21
94.774000
31
0.0
0
LINE
8
0
6
CONTINUOUS
10
169.960000
20
95.000000
30
0.0
11
0.000000
21
95.000000
31
0.0
0
LINE
8
0
6
CONTINUOUS
10
0.000000
20
95.000000
30
0.0
11
169.960000
21
95.000000
31
0.0
0
LINE
8
0
6
CONTINUOUS
10
176.271000
20
93.113000
30
0.0
11
177.849000
21
91.728000
31
0.0
0
LINE
8
0
6
CONTINUOUS
10
177.849000
20
91.728000
30
0.0
11
178.996000
21
89.967000
31
0.0
0
LINE
8
0
6
CONTINUOUS
10
178.996000
20
89.967000
30
0.0
11
179.742000
21
88.130000
31
0.0
0
LINE
8
0
6
CONTINUOUS
10
179.742000
20
88.130000
30
0.0
11
180.000000
21
86.192000
31
0.0
0
LINE
8
0
6
CONTINUOUS
10
180.000000
20
86.192000
30
0.0
11
180.000000
21
0.000000
31
0.0
0
LINE
8
0
6
CONTINUOUS
10
176.271000
20
93.113000
30
0.0
11
174.263000
21
94.119000
31
0.0
0
LINE
8
0
6
CONTINUOUS
10
174.263000
20
94.119000
30
0.0
11
172.169000
21
94.774000
31
0.0
0
LINE
8
0
6
CONTINUOUS
10
172.169000
20
94.774000
30
0.0
11
169.960000
21
95.000000
31
0.0
0
LINE
8
0
6
CONTINUOUS
10
169.960000
20
95.000000
30
0.0
11
0.000000
21
95.000000
31
0.0
0
LINE
8
0
6
CONTINUOUS
10
177.849000
20
91.728000
30
0.0
11
176.271000
21
93.113000
31
0.0
0
LINE
8
0
6
CONTINUOUS
10
178.996000
20
89.967000
30
0.0
11
177.849000
21
91.728000
31
0.0
0
LINE
8
0
6
CONTINUOUS
10
179.742000
20
88.130000
30
0.0
11
178.996000
21
89.967000
31
0.0
0
LINE
8
0
6
CONTINUOUS
10
180.000000
20
86.192000
30
0.0
11
179.742000
21
88.130000
31
0.0
0
LINE
8
0
6
CONTINUOUS
10
180.000000
20
0.000000
30
0.0
11
180.000000
21
86.192000
31
0.0
0
LINE
8
0
6
CONTINUOUS
10
-174.262950
20
94.119000
30
0.0
11
-176.270920
21
93.113000
31
0.0
0
LINE
8
0
6
CONTINUOUS
10
-172.168920
20
94.774000
30
0.0
11
-174.262950
21
94.119000
31
0.0
0
LINE
8
0
6
CONTINUOUS
10
-169.960200
20
95.000000
30
0.0
11
-172.168920
21
94.774000
31
0.0
0
LINE
8
0
6
CONTINUOUS
10
0.000000
20
95.000000
30
0.0
11
-169.960200
21
95.000000
31
0.0
0
LINE
8
0
6
CONTINUOUS
10
-176.270920
20
93.113000
30
0.0
11
-177.848610
21
91.728000
31
0.0
0
LINE
8
0
6
CONTINUOUS
10
-177.848610
20
91.728000
30
0.0
11
-178.996020
21
89.967000
31
0.0
0
LINE
8
0
6
CONTINUOUS
10
-178.996020
20
89.967000
30
0.0
11
-179.741833
21
88.130000
31
0.0
0
LINE
8
0
6
CONTINUOUS
10
-179.741833
20
88.130000
30
0.0
11
-180.000000
21
86.192000
31
0.0
0
LINE
8
0
6
CONTINUOUS
10
-180.000000
20
86.192000
30
0.0
11
-180.000000
21
0.000000
31
0.0
0
LINE
8
0
6
CONTINUOUS
10
-176.270920
20
93.113000
30
0.0
11
-174.262950
21
94.119000
31
0.0
0
LINE
8
0
6
CONTINUOUS
10
-174.262950
20
94.119000
30
0.0
11
-172.168920
21
94.774000
31
0.0
0
LINE
8
0
6
CONTINUOUS
10
-172.168920
20
94.774000
30
0.0
11
-169.960200
21
95.000000
31
0.0
0
LINE
8
0
6
CONTINUOUS
10
-169.960200
20
95.000000
30
0.0
11
0.000000
21
95.000000
31
0.0
0
LINE
8
0
6
CONTINUOUS
10
0.000000
20
95.000000
30
0.0
11
-169.960200
21
95.000000
31
0.0
0
LINE
8
0
6
CONTINUOUS
10
-177.848610
20
91.728000
30
0.0
11
-176.270920
21
93.113000
31
0.0
0
LINE
8
0
6
CONTINUOUS
10
-178.996020
20
89.967000
30
0.0
11
-177.848610
21
91.728000
31
0.0
0
LINE
8
0
6
CONTINUOUS
10
-179.741833
20
88.130000
30
0.0
11
-178.996020
21
89.967000
31
0.0
0
LINE
8
0
6
CONTINUOUS
10
-180.000000
20
86.192000
30
0.0
11
-179.741833
21
88.130000
31
0.0
0
LINE
8
0
6
CONTINUOUS
10
-180.000000
20
0.000000
30
0.0
11
-180.000000
21
86.192000
31
0.0
0
LINE
8
0
6
CONTINUOUS
10
-169.960200
20
95.000000
30
0.0
11
0.000000
21
95.000000
31
0.0
0
LINE
8
0
6
CONTINUOUS
10
-174.262950
20
-94.119205
30
0.0
11
-176.270920
21
-93.112580
31
0.0
0
LINE
8
0
6
CONTINUOUS
10
-172.168920
20
-94.773510
30
0.0
11
-174.262950
21
-94.119205
31
0.0
0
LINE
8
0
6
CONTINUOUS
10
-169.960200
20
-95.000000
30
0.0
11
-172.168920
21
-94.773510
31
0.0
0
LINE
8
0
6
CONTINUOUS
10
0.000000
20
-95.000000
30
0.0
11
-169.960200
21
-95.000000
31
0.0
0
LINE
8
0
6
CONTINUOUS
10
-176.270920
20
-93.112580
30
0.0
11
-177.848610
21
-91.728480
31
0.0
0
LINE
8
0
6
CONTINUOUS
10
-177.848610
20
-91.728480
30
0.0
11
-178.996020
21
-89.966890
31
0.0
0
LINE
8
0
6
CONTINUOUS
10
-178.996020
20
-89.966890
30
0.0
11
-179.741833
21
-88.129800
31
0.0
0
LINE
8
0
6
CONTINUOUS
10
-179.741833
20
-88.129800
30
0.0
11
-180.000000
21
-86.192050
31
0.0
0
LINE
8
0
6
CONTINUOUS
10
-180.000000
20
-86.192050
30
0.0
11
-180.000000
21
0.000000
31
0.0
0
LINE
8
0
6
CONTINUOUS
10
-176.270920
20
-93.112580
30
0.0
11
-174.262950
21
-94.119205
31
0.0
0
LINE
8
0
6
CONTINUOUS
10
-174.262950
20
-94.119205
30
0.0
11
-172.168920
21
-94.773510
31
0.0
0
LINE
8
0
6
CONTINUOUS
10
-172.168920
20
-94.773510
30
0.0
11
-169.960200
21
-95.000000
31
0.0
0
LINE
8
0
6
CONTINUOUS
10
-169.960200
20
-95.000000
30
0.0
11
0.000000
21
-95.000000
31
0.0
0
LINE
8
0
6
CONTINUOUS
10
-177.848610
20
-91.728480
30
0.0
11
-176.270920
21
-93.112580
31
0.0
0
LINE
8
0
6
CONTINUOUS
10
-178.996020
20
-89.966890
30
0.0
11
-177.848610
21
-91.728480
31
0.0
0
LINE
8
0
6
CONTINUOUS
10
-179.741833
20
-88.129800
30
0.0
11
-178.996020
21
-89.966890
31
0.0
0
LINE
8
0
6
CONTINUOUS
10
-180.000000
20
-86.192050
30
0.0
11
-179.741833
21
-88.129800
31
0.0
0
LINE
8
0
6
CONTINUOUS
10
-180.000000
20
0.000000
30
0.0
11
-180.000000
21
-86.192050
31
0.0
0
LINE
8
0
6
CONTINUOUS
10
-8.834000
20
0.000000
30
0.0
11
-8.595000
21
1.489400
31
0.0
0
LINE
8
0
6
CONTINUOUS
10
-8.595000
20
1.489400
30
0.0
11
-6.927000
21
4.799100
31
0.0
0
LINE
8
0
6
CONTINUOUS
10
-2.951000
20
8.014000
30
0.0
11
-2.602000
21
8.109000
31
0.0
0
LINE
8
0
6
CONTINUOUS
10
-6.387000
20
5.448000
30
0.0
11
-2.951000
21
8.014000
31
0.0
0
LINE
8
0
6
CONTINUOUS
10
-6.927000
20
4.799100
30
0.0
11
-6.387000
21
5.448000
31
0.0
0
LINE
8
0
6
CONTINUOUS
10
-2.602000
20
8.109000
30
0.0
11
0.000000
21
8.511000
31
0.0
0
LINE
8
0
6
CONTINUOUS
10
8.595000
20
1.489400
30
0.0
11
8.834000
21
0.000000
31
0.0
0
LINE
8
0
6
CONTINUOUS
10
6.927000
20
4.799100
30
0.0
11
8.595000
21
1.489400
31
0.0
0
LINE
8
0
6
CONTINUOUS
10
2.602000
20
8.109000
30
0.0
11
2.951000
21
8.014000
31
0.0
0
LINE
8
0
6
CONTINUOUS
10
2.951000
20
8.014000
30
0.0
11
6.387000
21
5.448000
31
0.0
0
LINE
8
0
6
CONTINUOUS
10
6.387000
20
5.448000
30
0.0
11
6.927000
21
4.799100
31
0.0
0
LINE
8
0
6
CONTINUOUS
10
0.000000
20
8.511000
30
0.0
11
2.602000
21
8.109000
31
0.0
0
LINE
8
0
6
CONTINUOUS
10
-12.050000
20
-3.200000
30
0.0
11
-12.500000
21
0.000000
31
0.0
0
LINE
8
0
6
CONTINUOUS
10
-10.850000
20
-6.200000
30
0.0
11
-12.050000
21
-3.200000
31
0.0
0
LINE
8
0
6
CONTINUOUS
10
-8.850000
20
-8.850000
30
0.0
11
-10.850000
21
-6.200000
31
0.0
0
LINE
8
0
6
CONTINUOUS
10
-6.200000
20
-10.850000
30
0.0
11
-8.850000
21
-8.850000
31
0.0
0
LINE
8
0
6
CONTINUOUS
10
-3.200000
20
-12.050000
30
0.0
11
-6.200000
21
-10.850000
31
0.0
0
LINE
8
0
6
CONTINUOUS
10
0.000000
20
-12.500000
30
0.0
11
-3.200000
21
-12.050000
31
0.0
0
LINE
8
0
6
CONTINUOUS
10
12.500000
20
0.000000
30
0.0
11
12.050000
21
-3.200000
31
0.0
0
LINE
8
0
6
CONTINUOUS
10
12.050000
20
-3.200000
30
0.0
11
10.850000
21
-6.200000
31
0.0
0
LINE
8
0
6
CONTINUOUS
10
10.850000
20
-6.200000
30
0.0
11
8.850000
21
-8.850000
31
0.0
0
LINE
8
0
6
CONTINUOUS
10
8.850000
20
-8.850000
30
0.0
11
6.200000
21
-10.850000
31
0.0
0
LINE
8
0
6
CONTINUOUS
10
6.200000
20
-10.850000
30
0.0
11
3.200000
21
-12.050000
31
0.0
0
LINE
8
0
6
CONTINUOUS
10
3.200000
20
-12.050000
30
0.0
11
0.000000
21
-12.500000
31
0.0
0
LINE
8
0
6
CONTINUOUS
10
-12.500000
20
0.000000
30
0.0
11
-12.050000
21
3.200000
31
0.0
0
LINE
8
0
6
CONTINUOUS
10
-12.050000
20
3.200000
30
0.0
11
-10.850000
21
6.200000
31
0.0
0
LINE
8
0
6
CONTINUOUS
10
-10.850000
20
6.200000
30
0.0
11
-8.850000
21
8.850000
31
0.0
0
LINE
8
0
6
CONTINUOUS
10
-8.850000
20
8.850000
30
0.0
11
-6.200000
21
10.850000
31
0.0
0
LINE
8
0
6
CONTINUOUS
10
-6.200000
20
10.850000
30
0.0
11
-3.200000
21
12.050000
31
0.0
0
LINE
8
0
6
CONTINUOUS
10
-3.200000
20
12.050000
30
0.0
11
0.000000
21
12.500000
31
0.0
0
LINE
8
0
6
CONTINUOUS
10
12.050000
20
3.200000
30
0.0
11
12.500000
21
0.000000
31
0.0
0
LINE
8
0
6
CONTINUOUS
10
10.850000
20
6.200000
30
0.0
11
12.050000
21
3.200000
31
0.0
0
LINE
8
0
6
CONTINUOUS
10
8.850000
20
8.850000
30
0.0
11
10.850000
21
6.200000
31
0.0
0
LINE
8
0
6
CONTINUOUS
10
6.200000
20
10.850000
30
0.0
11
8.850000
21
8.850000
31
0.0
0
LINE
8
0
6
CONTINUOUS
10
3.200000
20
12.050000
30
0.0
11
6.200000
21
10.850000
31
0.0
0
LINE
8
0
6
CONTINUOUS
10
0.000000
20
12.500000
30
0.0
11
3.200000
21
12.050000
31
0.0
0
LINE
8
0
6
CONTINUOUS
10
-8.595000
20
-1.489400
30
0.0
11
-8.834000
21
0.000000
31
0.0
0
LINE
8
0
6
CONTINUOUS
10
-6.927000
20
-4.799100
30
0.0
11
-8.595000
21
-1.489400
31
0.0
0
LINE
8
0
6
CONTINUOUS
10
-2.602000
20
-8.108900
30
0.0
11
-2.951000
21
-8.014100
31
0.0
0
LINE
8
0
6
CONTINUOUS
10
-2.951000
20
-8.014100
30
0.0
11
-6.387000
21
-5.447900
31
0.0
0
LINE
8
0
6
CONTINUOUS
10
-6.387000
20
-5.447900
30
0.0
11
-6.927000
21
-4.799100
31
0.0
0
LINE
8
0
6
CONTINUOUS
10
0.000000
20
-8.510800
30
0.0
11
-2.602000
21
-8.108900
31
0.0
0
LINE
8
0
6
CONTINUOUS
10
8.834000
20
0.000000
30
0.0
11
8.595000
21
-1.489400
31
0.0
0
LINE
8
0
6
CONTINUOUS
10
8.595000
20
-1.489400
30
0.0
11
6.927000
21
-4.799100
31
0.0
0
LINE
8
0
6
CONTINUOUS
10
2.951000
20
-8.014100
30
0.0
11
2.602000
21
-8.108900
31
0.0
0
LINE
8
0
6
CONTINUOUS
10
6.387000
20
-5.447900
30
0.0
11
2.951000
21
-8.014100
31
0.0
0
LINE
8
0
6
CONTINUOUS
10
6.927000
20
-4.799100
30
0.0
11
6.387000
21
-5.447900
31
0.0
0
LINE
8
0
6
CONTINUOUS
10
2.602000
20
-8.108900
30
0.0
11
0.000000
21
-8.510800
31
0.0
0
ENDSEC
0
EOF
