999
Erzeugt mit innoplus bad 
0
SECTION
2
HEADER
9
$ACADVER
1
AC1009
9
$DWGCODEPAGE
3
ISO8859-1
0
ENDSEC
0
SECTION
2
TABLES
0
TABLE
2
LAYER
70
1
0
LAYER
2
0
70
0
62
7
6
CONTINUOUS
0
ENDTAB
0
ENDSEC
0
SECTION
2
ENTITIES
0
LINE
8
0
6
CONTINUOUS
10
11.265086
20
-1.142251
30
0.0
11
11.721000
21
7.013540
31
0.0
0
LINE
8
0
6
CONTINUOUS
10
-11.720670
20
7.026700
30
0.0
11
-11.241771
21
-1.540796
31
0.0
0
LINE
8
0
6
CONTINUOUS
10
-7.211250
20
-22.370460
30
0.0
11
-5.107770
21
-22.761700
31
0.0
0
LINE
8
0
6
CONTINUOUS
10
2.610630
20
-23.011250
30
0.0
11
5.066960
21
-22.767460
31
0.0
0
LINE
8
0
6
CONTINUOUS
10
-8.823300
20
-21.861160
30
0.0
11
-7.211250
21
-22.370460
31
0.0
0
LINE
8
0
6
CONTINUOUS
10
-0.023600
20
-23.093420
30
0.0
11
2.610630
21
-23.011250
31
0.0
0
LINE
8
0
6
CONTINUOUS
10
8.799870
20
-21.871080
30
0.0
11
8.927526
21
-21.797219
31
0.0
0
LINE
8
0
6
CONTINUOUS
10
-9.545940
20
-21.437491
30
0.0
11
-8.823300
21
-21.861160
31
0.0
0
LINE
8
0
6
CONTINUOUS
10
-2.656200
20
-23.008320
30
0.0
11
-0.023600
21
-23.093420
31
0.0
0
LINE
8
0
6
CONTINUOUS
10
7.178000
20
-22.378550
30
0.0
11
8.799870
21
-21.871080
31
0.0
0
LINE
8
0
6
CONTINUOUS
10
-5.107770
20
-22.761700
30
0.0
11
-2.656200
21
-23.008320
31
0.0
0
LINE
8
0
6
CONTINUOUS
10
5.066960
20
-22.767460
30
0.0
11
7.178000
21
-22.378550
31
0.0
0
LINE
8
0
6
CONTINUOUS
10
-1.190870
20
-215.270280
30
0.0
11
3.476040
21
-215.148210
31
0.0
0
LINE
8
0
6
CONTINUOUS
10
3.476040
20
-215.148210
30
0.0
11
5.409170
21
-214.853490
31
0.0
0
LINE
8
0
6
CONTINUOUS
10
5.409170
20
-214.853490
30
0.0
11
5.411370
21
-193.457040
31
0.0
0
LINE
8
0
6
CONTINUOUS
10
-7.790830
20
-214.853490
30
0.0
11
-5.857770
21
-215.148170
31
0.0
0
LINE
8
0
6
CONTINUOUS
10
-7.788630
20
-193.451850
30
0.0
11
-7.790830
21
-214.853490
31
0.0
0
LINE
8
0
6
CONTINUOUS
10
-5.857770
20
-215.148170
30
0.0
11
-1.190870
21
-215.270280
31
0.0
0
LINE
8
0
6
CONTINUOUS
10
5.411370
20
-193.457040
30
0.0
11
5.426800
21
-171.115270
31
0.0
0
LINE
8
0
6
CONTINUOUS
10
-7.773200
20
-171.098870
30
0.0
11
-7.788630
21
-193.451850
31
0.0
0
LINE
8
0
6
CONTINUOUS
10
5.426800
20
-171.115270
30
0.0
11
5.468670
21
-147.865110
31
0.0
0
LINE
8
0
6
CONTINUOUS
10
-7.731290
20
-147.830970
30
0.0
11
-7.773200
21
-171.098870
31
0.0
0
LINE
8
0
6
CONTINUOUS
10
5.468670
20
-147.865110
30
0.0
11
5.550190
21
-123.742840
31
0.0
0
LINE
8
0
6
CONTINUOUS
10
-7.649690
20
-123.685120
30
0.0
11
-7.731290
21
-147.830970
31
0.0
0
LINE
8
0
6
CONTINUOUS
10
5.550190
20
-123.742840
30
0.0
11
5.684550
21
-98.784720
31
0.0
0
LINE
8
0
6
CONTINUOUS
10
-7.515160
20
-98.698360
30
0.0
11
-7.649690
21
-123.685120
31
0.0
0
LINE
8
0
6
CONTINUOUS
10
5.684550
20
-98.784720
30
0.0
11
5.885010
21
-73.027050
31
0.0
0
LINE
8
0
6
CONTINUOUS
10
-7.314450
20
-72.907690
30
0.0
11
-7.515160
21
-98.698360
31
0.0
0
LINE
8
0
6
CONTINUOUS
10
5.885010
20
-73.027050
30
0.0
11
6.164770
21
-46.505940
31
0.0
0
LINE
8
0
6
CONTINUOUS
10
-7.034310
20
-46.350340
30
0.0
11
-7.314450
21
-72.907690
31
0.0
0
LINE
8
0
6
CONTINUOUS
10
6.164770
20
-46.505940
30
0.0
11
6.492662
21
-22.504808
31
0.0
0
LINE
8
0
6
CONTINUOUS
10
-6.707992
20
-22.464064
30
0.0
11
-7.034310
21
-46.350340
31
0.0
0
LINE
8
0
6
CONTINUOUS
10
-37.448790
20
111.812660
30
0.0
11
-30.613200
21
107.910780
31
0.0
0
LINE
8
0
6
CONTINUOUS
10
-43.336890
20
116.039170
30
0.0
11
-37.448790
21
111.812660
31
0.0
0
LINE
8
0
6
CONTINUOUS
10
-0.000070
20
204.397840
30
0.0
11
-7.922850
21
203.924900
31
0.0
0
LINE
8
0
6
CONTINUOUS
10
-42.682110
20
189.544270
30
0.0
11
-47.790240
21
184.791940
31
0.0
0
LINE
8
0
6
CONTINUOUS
10
-47.790240
20
184.791940
30
0.0
11
-52.530900
21
179.026640
31
0.0
0
LINE
8
0
6
CONTINUOUS
10
-52.530900
20
179.026640
30
0.0
11
-56.189420
21
173.132050
31
0.0
0
LINE
8
0
6
CONTINUOUS
10
-56.189420
20
173.132050
30
0.0
11
-58.985290
21
166.068240
31
0.0
0
LINE
8
0
6
CONTINUOUS
10
-58.985290
20
166.068240
30
0.0
11
-60.544980
21
160.007360
31
0.0
0
LINE
8
0
6
CONTINUOUS
10
-60.544980
20
160.007360
30
0.0
11
-61.234050
21
153.301000
31
0.0
0
LINE
8
0
6
CONTINUOUS
10
0.000020
20
121.600480
30
0.0
11
0.009691
21
122.223700
31
0.0
0
LINE
8
0
6
CONTINUOUS
10
0.009691
20
122.223700
30
0.0
11
0.024430
21
123.173500
31
0.0
0
LINE
8
0
6
CONTINUOUS
10
-30.613200
20
107.910780
30
0.0
11
-27.261900
21
106.348320
31
0.0
0
LINE
8
0
6
CONTINUOUS
10
-14.962740
20
95.951050
30
0.0
11
-14.422490
21
94.554530
31
0.0
0
LINE
8
0
6
CONTINUOUS
10
-14.422490
20
94.554530
30
0.0
11
-13.372290
21
91.758380
31
0.0
0
LINE
8
0
6
CONTINUOUS
10
-13.372290
20
91.758380
30
0.0
11
-12.558010
21
90.041140
31
0.0
0
LINE
8
0
6
CONTINUOUS
10
-19.199840
20
102.599220
30
0.0
11
-17.608630
21
101.076010
31
0.0
0
LINE
8
0
6
CONTINUOUS
10
-24.541620
20
105.231300
30
0.0
11
-21.595930
21
104.023130
31
0.0
0
LINE
8
0
6
CONTINUOUS
10
-8.367340
20
84.166910
30
0.0
11
-5.835310
21
82.279590
31
0.0
0
LINE
8
0
6
CONTINUOUS
10
-3.077570
20
81.344510
30
0.0
11
0.000070
21
81.092930
31
0.0
0
LINE
8
0
6
CONTINUOUS
10
-5.835310
20
82.279590
30
0.0
11
-3.077570
21
81.344510
31
0.0
0
LINE
8
0
6
CONTINUOUS
10
-15.502980
20
97.347570
30
0.0
11
-14.962740
21
95.951050
31
0.0
0
LINE
8
0
6
CONTINUOUS
10
-59.316460
20
140.161740
30
0.0
11
-56.729940
21
133.197610
31
0.0
0
LINE
8
0
6
CONTINUOUS
10
-56.729940
20
133.197610
30
0.0
11
-53.138480
21
126.908700
31
0.0
0
LINE
8
0
6
CONTINUOUS
10
-14.869160
20
202.691360
30
0.0
11
-22.947620
21
200.401300
31
0.0
0
LINE
8
0
6
CONTINUOUS
10
-36.702030
20
193.888730
30
0.0
11
-42.682110
21
189.544270
31
0.0
0
LINE
8
0
6
CONTINUOUS
10
-29.944510
20
197.562310
30
0.0
11
-36.702030
21
193.888730
31
0.0
0
LINE
8
0
6
CONTINUOUS
10
-22.947620
20
200.401300
30
0.0
11
-29.944510
21
197.562310
31
0.0
0
LINE
8
0
6
CONTINUOUS
10
-7.922850
20
203.924900
30
0.0
11
-14.869160
21
202.691360
31
0.0
0
LINE
8
0
6
CONTINUOUS
10
-48.623070
20
121.323280
30
0.0
11
-43.336890
21
116.039170
31
0.0
0
LINE
8
0
6
CONTINUOUS
10
-53.138480
20
126.908700
30
0.0
11
-48.623070
21
121.323280
31
0.0
0
LINE
8
0
6
CONTINUOUS
10
-60.751900
20
146.484540
30
0.0
11
-59.316460
21
140.161740
31
0.0
0
LINE
8
0
6
CONTINUOUS
10
-61.234050
20
153.301000
30
0.0
11
-60.751900
21
146.484540
31
0.0
0
LINE
8
0
6
CONTINUOUS
10
-21.595930
20
104.023130
30
0.0
11
-19.199840
21
102.599220
31
0.0
0
LINE
8
0
6
CONTINUOUS
10
0.024430
20
123.173500
30
0.0
11
0.022755
21
123.653970
31
0.0
0
LINE
8
0
6
CONTINUOUS
10
0.010298
20
127.226970
30
0.0
11
0.004066
21
129.014552
31
0.0
0
LINE
8
0
6
CONTINUOUS
10
-17.608630
20
101.076010
30
0.0
11
-16.043240
21
98.744090
31
0.0
0
LINE
8
0
6
CONTINUOUS
10
-27.261900
20
106.348320
30
0.0
11
-24.541620
21
105.231300
31
0.0
0
LINE
8
0
6
CONTINUOUS
10
-12.558010
20
90.041140
30
0.0
11
-10.779630
21
86.900860
31
0.0
0
LINE
8
0
6
CONTINUOUS
10
-10.779630
20
86.900860
30
0.0
11
-8.367340
21
84.166910
31
0.0
0
LINE
8
0
6
CONTINUOUS
10
-16.043240
20
98.744090
30
0.0
11
-15.502980
21
97.347570
31
0.0
0
LINE
8
0
6
CONTINUOUS
10
30.613290
20
107.910860
30
0.0
11
37.448870
21
111.812760
31
0.0
0
LINE
8
0
6
CONTINUOUS
10
37.448870
20
111.812760
30
0.0
11
43.336950
21
116.039270
31
0.0
0
LINE
8
0
6
CONTINUOUS
10
7.922710
20
203.924900
30
0.0
11
-0.000070
21
204.397840
31
0.0
0
LINE
8
0
6
CONTINUOUS
10
47.790140
20
184.792050
30
0.0
11
42.682010
21
189.544370
31
0.0
0
LINE
8
0
6
CONTINUOUS
10
52.530820
20
179.026750
30
0.0
11
47.790140
21
184.792050
31
0.0
0
LINE
8
0
6
CONTINUOUS
10
56.189360
20
173.132180
30
0.0
11
52.530820
21
179.026750
31
0.0
0
LINE
8
0
6
CONTINUOUS
10
58.985230
20
166.068390
30
0.0
11
56.189360
21
173.132180
31
0.0
0
LINE
8
0
6
CONTINUOUS
10
60.544940
20
160.007500
30
0.0
11
58.985230
21
166.068390
31
0.0
0
LINE
8
0
6
CONTINUOUS
10
61.234030
20
153.301140
30
0.0
11
60.544940
21
160.007500
31
0.0
0
LINE
8
0
6
CONTINUOUS
10
-0.024390
20
123.173500
30
0.0
11
0.000020
21
121.600480
31
0.0
0
LINE
8
0
6
CONTINUOUS
10
27.262000
20
106.348380
30
0.0
11
30.613290
21
107.910860
31
0.0
0
LINE
8
0
6
CONTINUOUS
10
14.422600
20
94.554560
30
0.0
11
14.962850
21
95.951080
31
0.0
0
LINE
8
0
6
CONTINUOUS
10
12.558130
20
90.041160
30
0.0
11
13.372410
21
91.758410
31
0.0
0
LINE
8
0
6
CONTINUOUS
10
13.372410
20
91.758410
30
0.0
11
14.422600
21
94.554560
31
0.0
0
LINE
8
0
6
CONTINUOUS
10
17.608730
20
101.076050
30
0.0
11
19.199940
21
102.599260
31
0.0
0
LINE
8
0
6
CONTINUOUS
10
21.596020
20
104.023170
30
0.0
11
24.541710
21
105.231350
31
0.0
0
LINE
8
0
6
CONTINUOUS
10
5.835440
20
82.279600
30
0.0
11
8.367470
21
84.166930
31
0.0
0
LINE
8
0
6
CONTINUOUS
10
0.000070
20
81.092930
30
0.0
11
3.077700
21
81.344520
31
0.0
0
LINE
8
0
6
CONTINUOUS
10
3.077700
20
81.344520
30
0.0
11
5.835440
21
82.279600
31
0.0
0
LINE
8
0
6
CONTINUOUS
10
14.962850
20
95.951080
30
0.0
11
15.503090
21
97.347610
31
0.0
0
LINE
8
0
6
CONTINUOUS
10
56.729960
20
133.197740
30
0.0
11
59.316470
21
140.161870
31
0.0
0
LINE
8
0
6
CONTINUOUS
10
53.138530
20
126.908820
30
0.0
11
56.729960
21
133.197740
31
0.0
0
LINE
8
0
6
CONTINUOUS
10
22.947490
20
200.401360
30
0.0
11
14.869030
21
202.691400
31
0.0
0
LINE
8
0
6
CONTINUOUS
10
42.682010
20
189.544370
30
0.0
11
36.701910
21
193.888830
31
0.0
0
LINE
8
0
6
CONTINUOUS
10
36.701910
20
193.888830
30
0.0
11
29.944380
21
197.562380
31
0.0
0
LINE
8
0
6
CONTINUOUS
10
29.944380
20
197.562380
30
0.0
11
22.947490
21
200.401360
31
0.0
0
LINE
8
0
6
CONTINUOUS
10
14.869030
20
202.691400
30
0.0
11
7.922710
21
203.924900
31
0.0
0
LINE
8
0
6
CONTINUOUS
10
43.336950
20
116.039270
30
0.0
11
48.623120
21
121.323400
31
0.0
0
LINE
8
0
6
CONTINUOUS
10
48.623120
20
121.323400
30
0.0
11
53.138530
21
126.908820
31
0.0
0
LINE
8
0
6
CONTINUOUS
10
59.316470
20
140.161870
30
0.0
11
60.751890
21
146.484680
31
0.0
0
LINE
8
0
6
CONTINUOUS
10
60.751890
20
146.484680
30
0.0
11
61.234030
21
153.301140
31
0.0
0
LINE
8
0
6
CONTINUOUS
10
19.199940
20
102.599260
30
0.0
11
21.596020
21
104.023170
31
0.0
0
LINE
8
0
6
CONTINUOUS
10
-0.004046
20
129.013588
30
0.0
11
-0.009284
21
127.509944
31
0.0
0
LINE
8
0
6
CONTINUOUS
10
16.043350
20
98.744130
30
0.0
11
17.608730
21
101.076050
31
0.0
0
LINE
8
0
6
CONTINUOUS
10
24.541710
20
105.231350
30
0.0
11
27.262000
21
106.348380
31
0.0
0
LINE
8
0
6
CONTINUOUS
10
10.779760
20
86.900890
30
0.0
11
12.558130
21
90.041160
31
0.0
0
LINE
8
0
6
CONTINUOUS
10
8.367470
20
84.166930
30
0.0
11
10.779760
21
86.900890
31
0.0
0
LINE
8
0
6
CONTINUOUS
10
15.503090
20
97.347610
30
0.0
11
16.043350
21
98.744130
31
0.0
0
LINE
8
0
6
CONTINUOUS
10
10.849850
20
164.849200
30
0.0
11
5.427340
21
166.683900
31
0.0
0
LINE
8
0
6
CONTINUOUS
10
-22.950840
20
148.259190
30
0.0
11
-22.137460
21
143.363550
31
0.0
0
LINE
8
0
6
CONTINUOUS
10
-22.137460
20
143.363550
30
0.0
11
-19.968610
21
138.777420
31
0.0
0
LINE
8
0
6
CONTINUOUS
10
-19.968610
20
138.777420
30
0.0
11
-19.711770
21
138.480830
31
0.0
0
LINE
8
0
6
CONTINUOUS
10
18.997250
20
138.479070
30
0.0
11
19.254180
21
138.775630
31
0.0
0
LINE
8
0
6
CONTINUOUS
10
21.423340
20
143.361540
30
0.0
11
21.894347
21
146.196265
31
0.0
0
LINE
8
0
6
CONTINUOUS
10
21.894347
20
146.196265
30
0.0
11
22.236770
21
148.257120
31
0.0
0
LINE
8
0
6
CONTINUOUS
10
5.427340
20
166.683900
30
0.0
11
-0.356610
21
167.371270
31
0.0
0
LINE
8
0
6
CONTINUOUS
10
15.639720
20
161.790520
30
0.0
11
10.849850
21
164.849200
31
0.0
0
LINE
8
0
6
CONTINUOUS
10
19.254530
20
157.735920
30
0.0
11
15.639720
21
161.790520
31
0.0
0
LINE
8
0
6
CONTINUOUS
10
22.236770
20
148.257120
30
0.0
11
21.423520
21
153.149690
31
0.0
0
LINE
8
0
6
CONTINUOUS
10
-0.356610
20
167.371270
30
0.0
11
-6.140740
21
166.684410
31
0.0
0
LINE
8
0
6
CONTINUOUS
10
-6.140740
20
166.684410
30
0.0
11
-11.563170
21
164.850250
31
0.0
0
LINE
8
0
6
CONTINUOUS
10
-11.563170
20
164.850250
30
0.0
11
-16.353150
21
161.791990
31
0.0
0
LINE
8
0
6
CONTINUOUS
10
-16.353150
20
161.791990
30
0.0
11
-19.968260
21
157.737730
31
0.0
0
LINE
8
0
6
CONTINUOUS
10
-22.137280
20
153.151700
30
0.0
11
-22.950840
21
148.259190
31
0.0
0
LINE
8
0
6
CONTINUOUS
10
-19.968260
20
157.737730
30
0.0
11
-22.137280
21
153.151700
31
0.0
0
LINE
8
0
6
CONTINUOUS
10
21.423520
20
153.149690
30
0.0
11
19.254530
21
157.735920
31
0.0
0
LINE
8
0
6
CONTINUOUS
10
30.315850
20
155.905470
30
0.0
11
27.261330
21
162.364080
31
0.0
0
LINE
8
0
6
CONTINUOUS
10
26.794490
20
161.776380
30
0.0
11
29.798110
21
155.425680
31
0.0
0
LINE
8
0
6
CONTINUOUS
10
15.425310
20
172.381470
30
0.0
11
7.788970
21
174.965220
31
0.0
0
LINE
8
0
6
CONTINUOUS
10
7.651300
20
174.163580
30
0.0
11
15.160370
21
171.623190
31
0.0
0
LINE
8
0
6
CONTINUOUS
10
-0.356380
20
175.933220
30
0.0
11
-8.501960
21
174.965950
31
0.0
0
LINE
8
0
6
CONTINUOUS
10
-8.364380
20
174.164310
30
0.0
11
-0.356430
21
175.115240
31
0.0
0
LINE
8
0
6
CONTINUOUS
10
15.424440
20
125.650510
30
0.0
11
22.170000
21
129.953390
31
0.0
0
LINE
8
0
6
CONTINUOUS
10
21.790010
20
129.911280
30
0.0
11
15.159520
21
125.682150
31
0.0
0
LINE
8
0
6
CONTINUOUS
10
-16.139060
20
125.651960
30
0.0
11
-13.025685
21
124.597110
31
0.0
0
LINE
8
0
6
CONTINUOUS
10
-8.365300
20
123.139130
30
0.0
11
-15.874200
21
125.683560
31
0.0
0
LINE
8
0
6
CONTINUOUS
10
30.315590
20
142.121160
30
0.0
11
31.461110
21
149.015380
31
0.0
0
LINE
8
0
6
CONTINUOUS
10
30.924010
20
148.652110
30
0.0
11
29.797850
21
141.874040
31
0.0
0
LINE
8
0
6
CONTINUOUS
10
22.170000
20
129.953390
30
0.0
11
27.260830
21
135.662920
31
0.0
0
LINE
8
0
6
CONTINUOUS
10
26.794000
20
135.523740
30
0.0
11
21.790010
21
129.911280
31
0.0
0
LINE
8
0
6
CONTINUOUS
10
-27.975280
20
135.665450
30
0.0
11
-22.884470
21
129.955420
31
0.0
0
LINE
8
0
6
CONTINUOUS
10
-22.504540
20
129.913290
30
0.0
11
-27.508510
21
135.526230
31
0.0
0
LINE
8
0
6
CONTINUOUS
10
-22.884470
20
129.955420
30
0.0
11
-16.139060
21
125.651960
31
0.0
0
LINE
8
0
6
CONTINUOUS
10
-15.874200
20
125.683560
30
0.0
11
-22.504540
21
129.913290
31
0.0
0
LINE
8
0
6
CONTINUOUS
10
-8.501960
20
174.965950
30
0.0
11
-16.138190
21
172.382960
31
0.0
0
LINE
8
0
6
CONTINUOUS
10
-15.873340
20
171.624670
30
0.0
11
-8.364380
21
174.164310
31
0.0
0
LINE
8
0
6
CONTINUOUS
10
7.650310
20
123.138420
30
0.0
11
4.646266
21
122.781614
31
0.0
0
LINE
8
0
6
CONTINUOUS
10
4.646266
20
122.781614
30
0.0
11
4.206155
21
122.729339
31
0.0
0
LINE
8
0
6
CONTINUOUS
10
4.206155
20
122.729339
30
0.0
11
-0.357410
21
122.187300
31
0.0
0
LINE
8
0
6
CONTINUOUS
10
7.788970
20
174.965220
30
0.0
11
-0.356380
21
175.933220
31
0.0
0
LINE
8
0
6
CONTINUOUS
10
-0.356430
20
175.115240
30
0.0
11
7.651300
21
174.163580
31
0.0
0
LINE
8
0
6
CONTINUOUS
10
-31.029340
20
155.908240
30
0.0
11
-32.175050
21
149.018300
31
0.0
0
LINE
8
0
6
CONTINUOUS
10
-31.638030
20
148.654960
30
0.0
11
-30.511680
21
155.428440
31
0.0
0
LINE
8
0
6
CONTINUOUS
10
-31.029600
20
142.123970
30
0.0
11
-27.975280
21
135.665450
31
0.0
0
LINE
8
0
6
CONTINUOUS
10
-27.508510
20
135.526230
30
0.0
11
-30.511940
21
141.876790
31
0.0
0
LINE
8
0
6
CONTINUOUS
10
22.170710
20
168.074030
30
0.0
11
15.425310
21
172.381470
31
0.0
0
LINE
8
0
6
CONTINUOUS
10
15.160370
20
171.623190
30
0.0
11
21.790690
21
167.389270
31
0.0
0
LINE
8
0
6
CONTINUOUS
10
27.261330
20
162.364080
30
0.0
11
22.170710
21
168.074030
31
0.0
0
LINE
8
0
6
CONTINUOUS
10
21.790690
20
167.389270
30
0.0
11
26.794490
21
161.776380
31
0.0
0
LINE
8
0
6
CONTINUOUS
10
-0.357410
20
122.187300
30
0.0
11
-8.365300
21
123.139130
31
0.0
0
LINE
8
0
6
CONTINUOUS
10
12.944521
20
124.810553
30
0.0
11
15.424440
21
125.650510
31
0.0
0
LINE
8
0
6
CONTINUOUS
10
15.159520
20
125.682150
30
0.0
11
7.650310
21
123.138420
31
0.0
0
LINE
8
0
6
CONTINUOUS
10
31.461110
20
149.015380
30
0.0
11
30.315850
21
155.905470
31
0.0
0
LINE
8
0
6
CONTINUOUS
10
29.798110
20
155.425680
30
0.0
11
30.924010
21
148.652110
31
0.0
0
LINE
8
0
6
CONTINUOUS
10
-16.138190
20
172.382960
30
0.0
11
-22.883760
21
168.076090
31
0.0
0
LINE
8
0
6
CONTINUOUS
10
-22.503830
20
167.391270
30
0.0
11
-15.873340
21
171.624670
31
0.0
0
LINE
8
0
6
CONTINUOUS
10
-30.511680
20
155.428440
30
0.0
11
-27.508020
21
161.778870
31
0.0
0
LINE
8
0
6
CONTINUOUS
10
-27.974780
20
162.366600
30
0.0
11
-31.029340
21
155.908240
31
0.0
0
LINE
8
0
6
CONTINUOUS
10
27.260830
20
135.662920
30
0.0
11
30.315590
21
142.121160
31
0.0
0
LINE
8
0
6
CONTINUOUS
10
29.797850
20
141.874040
30
0.0
11
26.794000
21
135.523740
31
0.0
0
LINE
8
0
6
CONTINUOUS
10
-22.883760
20
168.076090
30
0.0
11
-27.974780
21
162.366600
31
0.0
0
LINE
8
0
6
CONTINUOUS
10
-27.508020
20
161.778870
30
0.0
11
-22.503830
21
167.391270
31
0.0
0
LINE
8
0
6
CONTINUOUS
10
-32.175050
20
149.018300
30
0.0
11
-31.029600
21
142.123970
31
0.0
0
LINE
8
0
6
CONTINUOUS
10
-30.511940
20
141.876790
30
0.0
11
-31.638030
21
148.654960
31
0.0
0
LINE
8
0
6
CONTINUOUS
10
34.391070
20
166.536770
30
0.0
11
38.235050
21
158.409280
31
0.0
0
LINE
8
0
6
CONTINUOUS
10
9.891970
20
182.389710
30
0.0
11
19.501950
21
179.138560
31
0.0
0
LINE
8
0
6
CONTINUOUS
10
-10.604590
20
182.390650
30
0.0
11
-0.356160
21
183.607590
31
0.0
0
LINE
8
0
6
CONTINUOUS
10
27.986430
20
125.756430
30
0.0
11
19.500850
21
120.344040
31
0.0
0
LINE
8
0
6
CONTINUOUS
10
-17.065696
20
119.278521
30
0.0
11
-20.215520
21
120.345850
31
0.0
0
LINE
8
0
6
CONTINUOUS
10
39.675960
20
149.740580
30
0.0
11
38.234720
21
141.066160
31
0.0
0
LINE
8
0
6
CONTINUOUS
10
34.390450
20
132.939140
30
0.0
11
27.986430
21
125.756430
31
0.0
0
LINE
8
0
6
CONTINUOUS
10
-28.700910
20
125.758990
30
0.0
11
-35.104900
21
132.942330
31
0.0
0
LINE
8
0
6
CONTINUOUS
10
-20.215520
20
120.345850
30
0.0
11
-28.700910
21
125.758990
31
0.0
0
LINE
8
0
6
CONTINUOUS
10
-20.214420
20
179.140430
30
0.0
11
-10.604590
21
182.390650
31
0.0
0
LINE
8
0
6
CONTINUOUS
10
-0.356160
20
183.607590
30
0.0
11
9.891970
21
182.389710
31
0.0
0
LINE
8
0
6
CONTINUOUS
10
-40.389780
20
149.744240
30
0.0
11
-38.948300
21
158.412810
31
0.0
0
LINE
8
0
6
CONTINUOUS
10
-35.104900
20
132.942330
30
0.0
11
-38.948620
21
141.069680
31
0.0
0
LINE
8
0
6
CONTINUOUS
10
19.501950
20
179.138560
30
0.0
11
27.987300
21
173.720050
31
0.0
0
LINE
8
0
6
CONTINUOUS
10
27.987300
20
173.720050
30
0.0
11
34.391070
21
166.536770
31
0.0
0
LINE
8
0
6
CONTINUOUS
10
19.500850
20
120.344040
30
0.0
11
17.328190
21
119.608061
31
0.0
0
LINE
8
0
6
CONTINUOUS
10
38.235050
20
158.409280
30
0.0
11
39.675960
21
149.740580
31
0.0
0
LINE
8
0
6
CONTINUOUS
10
-28.699990
20
173.722640
30
0.0
11
-20.214420
21
179.140430
31
0.0
0
LINE
8
0
6
CONTINUOUS
10
-38.948300
20
158.412810
30
0.0
11
-35.104270
21
166.539980
31
0.0
0
LINE
8
0
6
CONTINUOUS
10
38.234720
20
141.066160
30
0.0
11
34.390450
21
132.939140
31
0.0
0
LINE
8
0
6
CONTINUOUS
10
-35.104270
20
166.539980
30
0.0
11
-28.699990
21
173.722640
31
0.0
0
LINE
8
0
6
CONTINUOUS
10
-38.948620
20
141.069680
30
0.0
11
-40.389780
21
149.744240
31
0.0
0
LINE
8
0
6
CONTINUOUS
10
42.588330
20
171.583510
30
0.0
11
47.339120
21
161.538740
31
0.0
0
LINE
8
0
6
CONTINUOUS
10
12.309820
20
191.176220
30
0.0
11
24.186810
21
187.158120
31
0.0
0
LINE
8
0
6
CONTINUOUS
10
-13.021950
20
191.177340
30
0.0
11
-0.355890
21
192.681400
31
0.0
0
LINE
8
0
6
CONTINUOUS
10
34.672820
20
121.182960
30
0.0
11
24.185460
21
114.493750
31
0.0
0
LINE
8
0
6
CONTINUOUS
10
-20.117070
20
112.875244
30
0.0
11
-24.900130
21
114.496000
31
0.0
0
LINE
8
0
6
CONTINUOUS
10
49.119940
20
150.825020
30
0.0
11
47.338710
21
140.104290
31
0.0
0
LINE
8
0
6
CONTINUOUS
10
42.587570
20
130.060080
30
0.0
11
34.672820
21
121.182960
31
0.0
0
LINE
8
0
6
CONTINUOUS
10
-35.387250
20
121.186120
30
0.0
11
-43.301960
21
130.064020
31
0.0
0
LINE
8
0
6
CONTINUOUS
10
-24.900130
20
114.496000
30
0.0
11
-35.387250
21
121.186120
31
0.0
0
LINE
8
0
6
CONTINUOUS
10
-24.898780
20
187.160410
30
0.0
11
-13.021950
21
191.177340
31
0.0
0
LINE
8
0
6
CONTINUOUS
10
-0.355890
20
192.681400
30
0.0
11
12.309820
21
191.176220
31
0.0
0
LINE
8
0
6
CONTINUOUS
10
-49.833560
20
150.829540
30
0.0
11
-48.052030
21
161.543060
31
0.0
0
LINE
8
0
6
CONTINUOUS
10
-43.301960
20
130.064020
30
0.0
11
-48.052430
21
140.108650
31
0.0
0
LINE
8
0
6
CONTINUOUS
10
24.186810
20
187.158120
30
0.0
11
34.673890
21
180.461380
31
0.0
0
LINE
8
0
6
CONTINUOUS
10
34.673890
20
180.461380
30
0.0
11
42.588330
21
171.583510
31
0.0
0
LINE
8
0
6
CONTINUOUS
10
24.185460
20
114.493750
30
0.0
11
20.326726
21
113.186617
31
0.0
0
LINE
8
0
6
CONTINUOUS
10
47.339120
20
161.538740
30
0.0
11
49.119940
21
150.825020
31
0.0
0
LINE
8
0
6
CONTINUOUS
10
-35.386120
20
180.464550
30
0.0
11
-24.898780
21
187.160410
31
0.0
0
LINE
8
0
6
CONTINUOUS
10
-48.052030
20
161.543060
30
0.0
11
-43.301190
21
171.587440
31
0.0
0
LINE
8
0
6
CONTINUOUS
10
47.338710
20
140.104290
30
0.0
11
42.587570
21
130.060080
31
0.0
0
LINE
8
0
6
CONTINUOUS
10
-43.301190
20
171.587440
30
0.0
11
-35.386120
21
180.464550
31
0.0
0
LINE
8
0
6
CONTINUOUS
10
-48.052430
20
140.108650
30
0.0
11
-49.833560
21
150.829540
31
0.0
0
LINE
8
0
6
CONTINUOUS
10
-22.654940
20
147.838410
30
0.0
11
-21.852210
21
143.006560
31
0.0
0
LINE
8
0
6
CONTINUOUS
10
-0.356670
20
166.699780
30
0.0
11
-6.065020
21
166.021910
31
0.0
0
LINE
8
0
6
CONTINUOUS
10
-6.065700
20
129.650010
30
0.0
11
-0.357370
21
128.971630
31
0.0
0
LINE
8
0
6
CONTINUOUS
10
10.702400
20
131.462430
30
0.0
11
15.429640
21
134.477490
31
0.0
0
LINE
8
0
6
CONTINUOUS
10
10.703010
20
164.211080
30
0.0
11
5.351520
21
166.021400
31
0.0
0
LINE
8
0
6
CONTINUOUS
10
21.138180
20
152.664820
30
0.0
11
18.997600
21
157.190640
31
0.0
0
LINE
8
0
6
CONTINUOUS
10
18.997250
20
138.479070
30
0.0
11
21.138000
21
143.004600
31
0.0
0
LINE
8
0
6
CONTINUOUS
10
-0.357370
20
128.971630
30
0.0
11
5.350850
21
129.649500
31
0.0
0
LINE
8
0
6
CONTINUOUS
10
-19.711770
20
138.480830
30
0.0
11
-16.144170
21
134.478940
31
0.0
0
LINE
8
0
6
CONTINUOUS
10
21.138000
20
143.004600
30
0.0
11
21.940770
21
147.836360
31
0.0
0
LINE
8
0
6
CONTINUOUS
10
5.351520
20
166.021400
30
0.0
11
-0.356670
21
166.699780
31
0.0
0
LINE
8
0
6
CONTINUOUS
10
-21.852030
20
152.666790
30
0.0
11
-22.654940
21
147.838410
31
0.0
0
LINE
8
0
6
CONTINUOUS
10
-19.711420
20
157.192410
30
0.0
11
-21.852030
21
152.666790
31
0.0
0
LINE
8
0
6
CONTINUOUS
10
-16.143670
20
161.193930
30
0.0
11
-19.711420
21
157.192410
31
0.0
0
LINE
8
0
6
CONTINUOUS
10
-11.416430
20
164.212130
30
0.0
11
-16.143670
21
161.193930
31
0.0
0
LINE
8
0
6
CONTINUOUS
10
21.940770
20
147.836360
30
0.0
11
21.138180
21
152.664820
31
0.0
0
LINE
8
0
6
CONTINUOUS
10
18.997600
20
157.190640
30
0.0
11
15.430130
21
161.192490
31
0.0
0
LINE
8
0
6
CONTINUOUS
10
15.430130
20
161.192490
30
0.0
11
10.703010
21
164.211080
31
0.0
0
LINE
8
0
6
CONTINUOUS
10
-21.852210
20
143.006560
30
0.0
11
-19.711770
21
138.480830
31
0.0
0
LINE
8
0
6
CONTINUOUS
10
15.429640
20
134.477490
30
0.0
11
18.997250
21
138.479070
31
0.0
0
LINE
8
0
6
CONTINUOUS
10
-6.065020
20
166.021910
30
0.0
11
-11.416430
21
164.212130
31
0.0
0
LINE
8
0
6
CONTINUOUS
10
5.350850
20
129.649500
30
0.0
11
10.702400
21
131.462430
31
0.0
0
LINE
8
0
6
CONTINUOUS
10
-16.144170
20
134.478940
30
0.0
11
-11.417040
21
131.463460
31
0.0
0
LINE
8
0
6
CONTINUOUS
10
-11.417040
20
131.463460
30
0.0
11
-6.065700
21
129.650010
31
0.0
0
LINE
8
0
6
CONTINUOUS
10
10.393620
20
95.087890
30
0.0
11
10.393620
21
95.213070
31
0.0
0
LINE
8
0
6
CONTINUOUS
10
-8.089630
20
89.463280
30
0.0
11
-5.681890
21
87.103100
31
0.0
0
LINE
8
0
6
CONTINUOUS
10
-3.133820
20
85.761410
30
0.0
11
0.000060
21
85.326230
31
0.0
0
LINE
8
0
6
CONTINUOUS
10
0.000060
20
85.393280
30
0.0
11
-3.144240
21
85.830070
31
0.0
0
LINE
8
0
6
CONTINUOUS
10
-9.537830
20
92.251630
30
0.0
11
-8.089630
21
89.463280
31
0.0
0
LINE
8
0
6
CONTINUOUS
10
-9.428050
20
92.147720
30
0.0
11
-8.008550
21
89.453750
31
0.0
0
LINE
8
0
6
CONTINUOUS
10
-2.572630
20
104.213400
30
0.0
11
-5.764300
21
103.126820
31
0.0
0
LINE
8
0
6
CONTINUOUS
10
0.000040
20
104.719770
30
0.0
11
-2.516010
21
104.470690
31
0.0
0
LINE
8
0
6
CONTINUOUS
10
0.000040
20
104.466770
30
0.0
11
-2.572630
21
104.213400
31
0.0
0
LINE
8
0
6
CONTINUOUS
10
-5.764300
20
103.126820
30
0.0
11
-8.627650
21
100.805860
31
0.0
0
LINE
8
0
6
CONTINUOUS
10
-10.393510
20
95.087870
30
0.0
11
-9.537830
21
92.251630
31
0.0
0
LINE
8
0
6
CONTINUOUS
10
-5.681890
20
87.103100
30
0.0
11
-3.133820
21
85.761410
31
0.0
0
LINE
8
0
6
CONTINUOUS
10
-3.144240
20
85.830070
30
0.0
11
-5.719490
21
87.188810
31
0.0
0
LINE
8
0
6
CONTINUOUS
10
5.682010
20
87.103110
30
0.0
11
8.089740
21
89.463300
31
0.0
0
LINE
8
0
6
CONTINUOUS
10
5.719610
20
87.188820
30
0.0
11
8.011720
21
89.456760
31
0.0
0
LINE
8
0
6
CONTINUOUS
10
0.000060
20
85.326230
30
0.0
11
3.133940
21
85.761420
31
0.0
0
LINE
8
0
6
CONTINUOUS
10
0.000060
20
85.393280
30
0.0
11
3.144360
21
85.830080
31
0.0
0
LINE
8
0
6
CONTINUOUS
10
8.089740
20
89.463300
30
0.0
11
9.537940
21
92.251660
31
0.0
0
LINE
8
0
6
CONTINUOUS
10
8.590600
20
100.835990
30
0.0
11
10.115150
21
97.459960
31
0.0
0
LINE
8
0
6
CONTINUOUS
10
2.516090
20
104.470690
30
0.0
11
0.000040
21
104.719770
31
0.0
0
LINE
8
0
6
CONTINUOUS
10
0.000040
20
104.466770
30
0.0
11
2.572720
21
104.213410
31
0.0
0
LINE
8
0
6
CONTINUOUS
10
9.537940
20
92.251660
30
0.0
11
10.393620
21
95.087890
31
0.0
0
LINE
8
0
6
CONTINUOUS
10
3.133940
20
85.761420
30
0.0
11
5.682010
21
87.103110
31
0.0
0
LINE
8
0
6
CONTINUOUS
10
3.144360
20
85.830080
30
0.0
11
5.719610
21
87.188820
31
0.0
0
LINE
8
0
6
CONTINUOUS
10
5.965690
20
144.530400
30
0.0
11
6.670710
21
145.309380
31
0.0
0
LINE
8
0
6
CONTINUOUS
10
6.670710
20
145.309380
30
0.0
11
7.551450
21
145.870060
31
0.0
0
LINE
8
0
6
CONTINUOUS
10
7.551450
20
145.870060
30
0.0
11
8.606370
21
146.200990
31
0.0
0
LINE
8
0
6
CONTINUOUS
10
8.606370
20
146.200990
30
0.0
11
9.713660
21
146.358200
31
0.0
0
LINE
8
0
6
CONTINUOUS
10
9.713660
20
146.358200
30
0.0
11
10.807460
21
146.247090
31
0.0
0
LINE
8
0
6
CONTINUOUS
10
10.807460
20
146.247090
30
0.0
11
11.877590
21
145.869870
31
0.0
0
LINE
8
0
6
CONTINUOUS
10
13.907820
20
141.772860
30
0.0
11
13.463220
21
140.868390
31
0.0
0
LINE
8
0
6
CONTINUOUS
10
14.041400
20
142.699690
30
0.0
11
13.907820
21
141.772860
31
0.0
0
LINE
8
0
6
CONTINUOUS
10
13.852080
20
143.638030
30
0.0
11
14.041400
21
142.699690
31
0.0
0
LINE
8
0
6
CONTINUOUS
10
13.461610
20
144.527640
30
0.0
11
13.852080
21
143.638030
31
0.0
0
LINE
8
0
6
CONTINUOUS
10
12.798930
20
145.274850
30
0.0
11
13.461610
21
144.527640
31
0.0
0
LINE
8
0
6
CONTINUOUS
10
11.877590
20
145.869870
30
0.0
11
12.798930
21
145.274850
31
0.0
0
LINE
8
0
6
CONTINUOUS
10
13.463220
20
140.868390
30
0.0
11
12.758270
21
140.087920
31
0.0
0
LINE
8
0
6
CONTINUOUS
10
5.521090
20
143.624550
30
0.0
11
5.965690
21
144.530400
31
0.0
0
LINE
8
0
6
CONTINUOUS
10
5.387510
20
142.699200
30
0.0
11
5.521090
21
143.624550
31
0.0
0
LINE
8
0
6
CONTINUOUS
10
5.576840
20
141.761360
30
0.0
11
5.387510
21
142.699200
31
0.0
0
LINE
8
0
6
CONTINUOUS
10
5.967300
20
140.868750
30
0.0
11
5.576840
21
141.761360
31
0.0
0
LINE
8
0
6
CONTINUOUS
10
6.628300
20
140.125490
30
0.0
11
5.967300
21
140.868750
31
0.0
0
LINE
8
0
6
CONTINUOUS
10
-3.392110
20
154.887720
30
0.0
11
-4.108890
21
155.619140
31
0.0
0
LINE
8
0
6
CONTINUOUS
10
-4.108890
20
155.619140
30
0.0
11
-4.541660
21
156.478320
31
0.0
0
LINE
8
0
6
CONTINUOUS
10
-4.541660
20
156.478320
30
0.0
11
-4.690420
21
157.449580
31
0.0
0
LINE
8
0
6
CONTINUOUS
10
-1.512130
20
160.985620
30
0.0
11
-0.362540
21
161.111950
31
0.0
0
LINE
8
0
6
CONTINUOUS
10
-2.526490
20
160.618990
30
0.0
11
-1.512130
21
160.985620
31
0.0
0
LINE
8
0
6
CONTINUOUS
10
-3.392010
20
160.012220
30
0.0
11
-2.526490
21
160.618990
31
0.0
0
LINE
8
0
6
CONTINUOUS
10
-4.108820
20
159.280790
30
0.0
11
-3.392010
21
160.012220
31
0.0
0
LINE
8
0
6
CONTINUOUS
10
-4.541630
20
158.421710
30
0.0
11
-4.108820
21
159.280790
31
0.0
0
LINE
8
0
6
CONTINUOUS
10
-4.690420
20
157.449580
30
0.0
11
-4.541630
21
158.421710
31
0.0
0
LINE
8
0
6
CONTINUOUS
10
-0.362540
20
161.111950
30
0.0
11
0.787040
21
160.985530
31
0.0
0
LINE
8
0
6
CONTINUOUS
10
0.787040
20
160.985530
30
0.0
11
1.801330
21
160.618810
31
0.0
0
LINE
8
0
6
CONTINUOUS
10
1.801330
20
160.618810
30
0.0
11
2.666890
21
160.011930
31
0.0
0
LINE
8
0
6
CONTINUOUS
10
2.666890
20
160.011930
30
0.0
11
3.383670
21
159.280450
31
0.0
0
LINE
8
0
6
CONTINUOUS
10
3.383670
20
159.280450
30
0.0
11
3.816450
21
158.421350
31
0.0
0
LINE
8
0
6
CONTINUOUS
10
3.816450
20
158.421350
30
0.0
11
3.965210
21
157.449180
31
0.0
0
LINE
8
0
6
CONTINUOUS
10
3.383610
20
155.618780
30
0.0
11
2.666790
21
154.887460
31
0.0
0
LINE
8
0
6
CONTINUOUS
10
2.666790
20
154.887460
30
0.0
11
2.806744
21
154.990968
31
0.0
0
LINE
8
0
6
CONTINUOUS
10
3.816410
20
156.477960
30
0.0
11
3.383610
21
155.618780
31
0.0
0
LINE
8
0
6
CONTINUOUS
10
3.965210
20
157.449180
30
0.0
11
3.816410
21
156.477960
31
0.0
0
LINE
8
0
6
CONTINUOUS
10
-6.674360
20
144.523180
30
0.0
11
-6.229790
21
143.617260
31
0.0
0
LINE
8
0
6
CONTINUOUS
10
-6.229790
20
143.617260
30
0.0
11
-6.096250
21
142.690390
31
0.0
0
LINE
8
0
6
CONTINUOUS
10
-6.096250
20
142.690390
30
0.0
11
-6.283930
21
141.753420
31
0.0
0
LINE
8
0
6
CONTINUOUS
10
-6.283930
20
141.753420
30
0.0
11
-6.676170
21
140.862440
31
0.0
0
LINE
8
0
6
CONTINUOUS
10
-7.337130
20
140.115390
30
0.0
11
-7.198965
21
140.219499
31
0.0
0
LINE
8
0
6
CONTINUOUS
10
-6.676170
20
140.862440
30
0.0
11
-7.337130
21
140.115390
31
0.0
0
LINE
8
0
6
CONTINUOUS
10
-13.467100
20
140.082210
30
0.0
11
-14.170340
21
140.860360
31
0.0
0
LINE
8
0
6
CONTINUOUS
10
-13.606573
20
140.187207
30
0.0
11
-13.467100
21
140.082210
31
0.0
0
LINE
8
0
6
CONTINUOUS
10
-14.170340
20
140.860360
30
0.0
11
-14.616650
21
141.766330
31
0.0
0
LINE
8
0
6
CONTINUOUS
10
-14.616650
20
141.766330
30
0.0
11
-14.750200
21
142.693210
31
0.0
0
LINE
8
0
6
CONTINUOUS
10
-14.750200
20
142.693210
30
0.0
11
-14.560830
21
143.631020
31
0.0
0
LINE
8
0
6
CONTINUOUS
10
-14.560830
20
143.631020
30
0.0
11
-14.170270
21
144.521970
31
0.0
0
LINE
8
0
6
CONTINUOUS
10
-14.170270
20
144.521970
30
0.0
11
-13.507560
21
145.268240
31
0.0
0
LINE
8
0
6
CONTINUOUS
10
-13.507560
20
145.268240
30
0.0
11
-12.586200
21
145.862650
31
0.0
0
LINE
8
0
6
CONTINUOUS
10
-7.379340
20
145.302200
30
0.0
11
-6.674360
21
144.523180
31
0.0
0
LINE
8
0
6
CONTINUOUS
10
-8.260130
20
145.861540
30
0.0
11
-7.379340
21
145.302200
31
0.0
0
LINE
8
0
6
CONTINUOUS
10
-9.314970
20
146.191970
30
0.0
11
-8.260130
21
145.861540
31
0.0
0
LINE
8
0
6
CONTINUOUS
10
-10.422310
20
146.352250
30
0.0
11
-9.314970
21
146.191970
31
0.0
0
LINE
8
0
6
CONTINUOUS
10
-11.516060
20
146.240290
30
0.0
11
-10.422310
21
146.352250
31
0.0
0
LINE
8
0
6
CONTINUOUS
10
-12.586200
20
145.862650
30
0.0
11
-11.516060
21
146.240290
31
0.0
0
LINE
8
0
6
CONTINUOUS
10
21.257320
20
194.114320
30
0.0
11
22.568480
21
192.703700
31
0.0
0
LINE
8
0
6
CONTINUOUS
10
21.780190
20
191.037670
30
0.0
11
22.568480
21
192.703700
31
0.0
0
LINE
8
0
6
CONTINUOUS
10
19.680720
20
190.782250
30
0.0
11
21.780190
21
191.037670
31
0.0
0
LINE
8
0
6
CONTINUOUS
10
18.369540
20
192.192870
30
0.0
11
19.680720
21
190.782250
31
0.0
0
LINE
8
0
6
CONTINUOUS
10
19.157840
20
193.858880
30
0.0
11
18.369540
21
192.192870
31
0.0
0
LINE
8
0
6
CONTINUOUS
10
21.257320
20
194.114320
30
0.0
11
19.157840
21
193.858880
31
0.0
0
LINE
8
0
6
CONTINUOUS
10
22.568480
20
192.703700
30
0.0
11
21.257320
21
194.114320
31
0.0
0
LINE
8
0
6
CONTINUOUS
10
19.157840
20
193.858880
30
0.0
11
21.257320
21
194.114320
31
0.0
0
LINE
8
0
6
CONTINUOUS
10
18.369540
20
192.192870
30
0.0
11
19.157840
21
193.858880
31
0.0
0
LINE
8
0
6
CONTINUOUS
10
18.369542
20
192.771340
30
0.0
11
18.369540
21
192.192870
31
0.0
0
LINE
8
0
6
CONTINUOUS
10
30.743860
20
189.800080
30
0.0
11
31.714560
21
188.204490
31
0.0
0
LINE
8
0
6
CONTINUOUS
10
30.566660
20
186.695420
30
0.0
11
31.714560
21
188.204490
31
0.0
0
LINE
8
0
6
CONTINUOUS
10
28.448060
20
186.781990
30
0.0
11
30.566660
21
186.695420
31
0.0
0
LINE
8
0
6
CONTINUOUS
10
27.477370
20
188.377580
30
0.0
11
28.448060
21
186.781990
31
0.0
0
LINE
8
0
6
CONTINUOUS
10
28.625260
20
189.886620
30
0.0
11
27.477370
21
188.377580
31
0.0
0
LINE
8
0
6
CONTINUOUS
10
30.743860
20
189.800080
30
0.0
11
28.625260
21
189.886620
31
0.0
0
LINE
8
0
6
CONTINUOUS
10
31.714560
20
188.204490
30
0.0
11
30.743860
21
189.800080
31
0.0
0
LINE
8
0
6
CONTINUOUS
10
28.625260
20
189.886620
30
0.0
11
30.743860
21
189.800080
31
0.0
0
LINE
8
0
6
CONTINUOUS
10
27.477370
20
188.377580
30
0.0
11
28.625260
21
189.886620
31
0.0
0
LINE
8
0
6
CONTINUOUS
10
27.477370
20
188.938075
30
0.0
11
27.477370
21
188.377580
31
0.0
0
LINE
8
0
6
CONTINUOUS
10
38.945910
20
183.809430
30
0.0
11
39.543270
21
182.087510
31
0.0
0
LINE
8
0
6
CONTINUOUS
10
38.079400
20
180.788850
30
0.0
11
39.543270
21
182.087510
31
0.0
0
LINE
8
0
6
CONTINUOUS
10
36.018190
20
181.212080
30
0.0
11
38.079400
21
180.788850
31
0.0
0
LINE
8
0
6
CONTINUOUS
10
35.420820
20
182.934030
30
0.0
11
36.018190
21
181.212080
31
0.0
0
LINE
8
0
6
CONTINUOUS
10
36.884700
20
184.232710
30
0.0
11
35.420820
21
182.934030
31
0.0
0
LINE
8
0
6
CONTINUOUS
10
38.945910
20
183.809430
30
0.0
11
36.884700
21
184.232710
31
0.0
0
LINE
8
0
6
CONTINUOUS
10
39.543270
20
182.087510
30
0.0
11
38.945910
21
183.809430
31
0.0
0
LINE
8
0
6
CONTINUOUS
10
36.884700
20
184.232710
30
0.0
11
38.945910
21
183.809430
31
0.0
0
LINE
8
0
6
CONTINUOUS
10
35.420820
20
182.934030
30
0.0
11
36.884700
21
184.232710
31
0.0
0
LINE
8
0
6
CONTINUOUS
10
35.420819
20
183.481008
30
0.0
11
35.420820
21
182.934030
31
0.0
0
LINE
8
0
6
CONTINUOUS
10
45.903500
20
176.916970
30
0.0
11
46.106440
21
175.130650
31
0.0
0
LINE
8
0
6
CONTINUOUS
10
44.379430
20
174.088810
30
0.0
11
46.106440
21
175.130650
31
0.0
0
LINE
8
0
6
CONTINUOUS
10
42.449500
20
174.833270
30
0.0
11
44.379430
21
174.088810
31
0.0
0
LINE
8
0
6
CONTINUOUS
10
42.246580
20
176.619640
30
0.0
11
42.449500
21
174.833270
31
0.0
0
LINE
8
0
6
CONTINUOUS
10
43.973580
20
177.661470
30
0.0
11
42.246580
21
176.619640
31
0.0
0
LINE
8
0
6
CONTINUOUS
10
45.903500
20
176.916970
30
0.0
11
43.973580
21
177.661470
31
0.0
0
LINE
8
0
6
CONTINUOUS
10
46.106440
20
175.130650
30
0.0
11
45.903500
21
176.916970
31
0.0
0
LINE
8
0
6
CONTINUOUS
10
43.973580
20
177.661470
30
0.0
11
45.903500
21
176.916970
31
0.0
0
LINE
8
0
6
CONTINUOUS
10
42.246580
20
176.619640
30
0.0
11
43.973580
21
177.661470
31
0.0
0
LINE
8
0
6
CONTINUOUS
10
42.246579
20
177.138041
30
0.0
11
42.246580
21
176.619640
31
0.0
0
LINE
8
0
6
CONTINUOUS
10
47.086580
20
167.338500
30
0.0
11
47.287660
21
169.125000
31
0.0
0
LINE
8
0
6
CONTINUOUS
10
47.086578
20
167.706995
30
0.0
11
47.086580
21
167.338500
31
0.0
0
LINE
8
0
6
CONTINUOUS
10
48.814650
20
166.297910
30
0.0
11
50.743820
21
167.043820
31
0.0
0
LINE
8
0
6
CONTINUOUS
10
47.086580
20
167.338500
30
0.0
11
48.814650
21
166.297910
31
0.0
0
LINE
8
0
6
CONTINUOUS
10
47.287660
20
169.125000
30
0.0
11
47.086580
21
167.338500
31
0.0
0
LINE
8
0
6
CONTINUOUS
10
49.216800
20
169.870890
30
0.0
11
47.287660
21
169.125000
31
0.0
0
LINE
8
0
6
CONTINUOUS
10
50.944880
20
168.830310
30
0.0
11
49.216800
21
169.870890
31
0.0
0
LINE
8
0
6
CONTINUOUS
10
50.743820
20
167.043820
30
0.0
11
50.944880
21
168.830310
31
0.0
0
LINE
8
0
6
CONTINUOUS
10
49.216800
20
169.870890
30
0.0
11
50.944880
21
168.830310
31
0.0
0
LINE
8
0
6
CONTINUOUS
10
47.287660
20
169.125000
30
0.0
11
49.216800
21
169.870890
31
0.0
0
LINE
8
0
6
CONTINUOUS
10
47.287658
20
169.650734
30
0.0
11
47.287660
21
169.125000
31
0.0
0
LINE
8
0
6
CONTINUOUS
10
49.970550
20
159.248170
30
0.0
11
50.570280
21
160.969520
31
0.0
0
LINE
8
0
6
CONTINUOUS
10
49.970546
20
159.534993
30
0.0
11
49.970550
21
159.248170
31
0.0
0
LINE
8
0
6
CONTINUOUS
10
51.432570
20
157.948090
30
0.0
11
53.494400
21
158.369300
31
0.0
0
LINE
8
0
6
CONTINUOUS
10
49.970550
20
159.248170
30
0.0
11
51.432570
21
157.948090
31
0.0
0
LINE
8
0
6
CONTINUOUS
10
50.570280
20
160.969520
30
0.0
11
49.970550
21
159.248170
31
0.0
0
LINE
8
0
6
CONTINUOUS
10
52.632050
20
161.390760
30
0.0
11
50.570280
21
160.969520
31
0.0
0
LINE
8
0
6
CONTINUOUS
10
54.094110
20
160.090650
30
0.0
11
52.632050
21
161.390760
31
0.0
0
LINE
8
0
6
CONTINUOUS
10
53.494400
20
158.369300
30
0.0
11
54.094110
21
160.090650
31
0.0
0
LINE
8
0
6
CONTINUOUS
10
52.632050
20
161.390760
30
0.0
11
54.094110
21
160.090650
31
0.0
0
LINE
8
0
6
CONTINUOUS
10
50.570280
20
160.969520
30
0.0
11
52.632050
21
161.390760
31
0.0
0
LINE
8
0
6
CONTINUOUS
10
50.570275
20
161.406355
30
0.0
11
50.570280
21
160.969520
31
0.0
0
LINE
8
0
6
CONTINUOUS
10
50.916320
20
150.669660
30
0.0
11
51.889320
21
152.264280
31
0.0
0
LINE
8
0
6
CONTINUOUS
10
50.916317
20
150.962521
30
0.0
11
50.916320
21
150.669660
31
0.0
0
LINE
8
0
6
CONTINUOUS
10
52.062040
20
149.159430
30
0.0
11
54.180750
21
149.243790
31
0.0
0
LINE
8
0
6
CONTINUOUS
10
50.916320
20
150.669660
30
0.0
11
52.062040
21
149.159430
31
0.0
0
LINE
8
0
6
CONTINUOUS
10
51.889320
20
152.264280
30
0.0
11
50.916320
21
150.669660
31
0.0
0
LINE
8
0
6
CONTINUOUS
10
54.008030
20
152.348630
30
0.0
11
51.889320
21
152.264280
31
0.0
0
LINE
8
0
6
CONTINUOUS
10
55.153740
20
150.838410
30
0.0
11
54.008030
21
152.348630
31
0.0
0
LINE
8
0
6
CONTINUOUS
10
54.180750
20
149.243790
30
0.0
11
55.153740
21
150.838410
31
0.0
0
LINE
8
0
6
CONTINUOUS
10
54.008030
20
152.348630
30
0.0
11
55.153740
21
150.838410
31
0.0
0
LINE
8
0
6
CONTINUOUS
10
51.889320
20
152.264280
30
0.0
11
54.008030
21
152.348630
31
0.0
0
LINE
8
0
6
CONTINUOUS
10
51.889317
20
152.710054
30
0.0
11
51.889320
21
152.264280
31
0.0
0
LINE
8
0
6
CONTINUOUS
10
50.127500
20
142.961260
30
0.0
11
51.436130
21
144.373550
31
0.0
0
LINE
8
0
6
CONTINUOUS
10
50.127500
20
143.223550
30
0.0
11
50.127500
21
142.961260
31
0.0
0
LINE
8
0
6
CONTINUOUS
10
50.918780
20
141.296250
30
0.0
11
53.018700
21
141.043520
31
0.0
0
LINE
8
0
6
CONTINUOUS
10
50.127500
20
142.961260
30
0.0
11
50.918780
21
141.296250
31
0.0
0
LINE
8
0
6
CONTINUOUS
10
51.436130
20
144.373550
30
0.0
11
50.127500
21
142.961260
31
0.0
0
LINE
8
0
6
CONTINUOUS
10
53.536060
20
144.120850
30
0.0
11
51.436130
21
144.373550
31
0.0
0
LINE
8
0
6
CONTINUOUS
10
54.327360
20
142.455840
30
0.0
11
53.536060
21
144.120850
31
0.0
0
LINE
8
0
6
CONTINUOUS
10
53.018700
20
141.043520
30
0.0
11
54.327360
21
142.455840
31
0.0
0
LINE
8
0
6
CONTINUOUS
10
53.536060
20
144.120850
30
0.0
11
54.327360
21
142.455840
31
0.0
0
LINE
8
0
6
CONTINUOUS
10
51.436130
20
144.373550
30
0.0
11
53.536060
21
144.120850
31
0.0
0
LINE
8
0
6
CONTINUOUS
10
51.436132
20
144.780599
30
0.0
11
51.436130
21
144.373550
31
0.0
0
LINE
8
0
6
CONTINUOUS
10
47.361480
20
135.331800
30
0.0
11
48.963970
21
136.507500
31
0.0
0
LINE
8
0
6
CONTINUOUS
10
47.361479
20
135.593097
30
0.0
11
47.361480
21
135.331800
31
0.0
0
LINE
8
0
6
CONTINUOUS
10
47.763720
20
133.569810
30
0.0
11
49.768400
21
132.983510
31
0.0
0
LINE
8
0
6
CONTINUOUS
10
47.361480
20
135.331800
30
0.0
11
47.763720
21
133.569810
31
0.0
0
LINE
8
0
6
CONTINUOUS
10
48.963970
20
136.507500
30
0.0
11
47.361480
21
135.331800
31
0.0
0
LINE
8
0
6
CONTINUOUS
10
50.968650
20
135.921200
30
0.0
11
48.963970
21
136.507500
31
0.0
0
LINE
8
0
6
CONTINUOUS
10
51.370870
20
134.159210
30
0.0
11
50.968650
21
135.921200
31
0.0
0
LINE
8
0
6
CONTINUOUS
10
49.768400
20
132.983510
30
0.0
11
51.370870
21
134.159210
31
0.0
0
LINE
8
0
6
CONTINUOUS
10
50.968650
20
135.921200
30
0.0
11
51.370870
21
134.159210
31
0.0
0
LINE
8
0
6
CONTINUOUS
10
48.963970
20
136.507500
30
0.0
11
50.968650
21
135.921200
31
0.0
0
LINE
8
0
6
CONTINUOUS
10
48.963966
20
136.931305
30
0.0
11
48.963970
21
136.507500
31
0.0
0
LINE
8
0
6
CONTINUOUS
10
43.640620
20
126.535160
30
0.0
11
43.642090
21
128.329720
31
0.0
0
LINE
8
0
6
CONTINUOUS
10
43.642090
20
128.329720
30
0.0
11
45.479710
21
129.225940
31
0.0
0
LINE
8
0
6
CONTINUOUS
10
43.642088
20
128.598443
30
0.0
11
43.642090
21
128.329720
31
0.0
0
LINE
8
0
6
CONTINUOUS
10
43.640620
20
126.535160
30
0.0
11
45.476790
21
125.636810
31
0.0
0
LINE
8
0
6
CONTINUOUS
10
43.642090
20
128.329720
30
0.0
11
43.640620
21
126.535160
31
0.0
0
LINE
8
0
6
CONTINUOUS
10
45.479710
20
129.225940
30
0.0
11
43.642090
21
128.329720
31
0.0
0
LINE
8
0
6
CONTINUOUS
10
47.315870
20
128.327580
30
0.0
11
45.479710
21
129.225940
31
0.0
0
LINE
8
0
6
CONTINUOUS
10
47.314420
20
126.533030
30
0.0
11
47.315870
21
128.327580
31
0.0
0
LINE
8
0
6
CONTINUOUS
10
45.476790
20
125.636810
30
0.0
11
47.314420
21
126.533030
31
0.0
0
LINE
8
0
6
CONTINUOUS
10
45.479710
20
129.225940
30
0.0
11
47.315870
21
128.327580
31
0.0
0
LINE
8
0
6
CONTINUOUS
10
45.479707
20
129.637476
30
0.0
11
45.479710
21
129.225940
31
0.0
0
LINE
8
0
6
CONTINUOUS
10
37.396970
20
120.143450
30
0.0
11
37.799050
21
121.905480
31
0.0
0
LINE
8
0
6
CONTINUOUS
10
37.396966
20
120.553764
30
0.0
11
37.396970
21
120.143450
31
0.0
0
LINE
8
0
6
CONTINUOUS
10
37.799050
20
121.905480
30
0.0
11
39.803660
21
122.491880
31
0.0
0
LINE
8
0
6
CONTINUOUS
10
37.799048
20
122.159178
30
0.0
11
37.799050
21
121.905480
31
0.0
0
LINE
8
0
6
CONTINUOUS
10
37.396970
20
120.143450
30
0.0
11
38.999510
21
118.967830
31
0.0
0
LINE
8
0
6
CONTINUOUS
10
37.799050
20
121.905480
30
0.0
11
37.396970
21
120.143450
31
0.0
0
LINE
8
0
6
CONTINUOUS
10
39.803660
20
122.491880
30
0.0
11
37.799050
21
121.905480
31
0.0
0
LINE
8
0
6
CONTINUOUS
10
41.406200
20
121.316270
30
0.0
11
39.803660
21
122.491880
31
0.0
0
LINE
8
0
6
CONTINUOUS
10
41.004140
20
119.554230
30
0.0
11
41.406200
21
121.316270
31
0.0
0
LINE
8
0
6
CONTINUOUS
10
38.999510
20
118.967830
30
0.0
11
41.004140
21
119.554230
31
0.0
0
LINE
8
0
6
CONTINUOUS
10
39.803660
20
122.491880
30
0.0
11
41.406200
21
121.316270
31
0.0
0
LINE
8
0
6
CONTINUOUS
10
39.803658
20
122.900313
30
0.0
11
39.803660
21
122.491880
31
0.0
0
LINE
8
0
6
CONTINUOUS
10
29.946920
20
114.842910
30
0.0
11
30.734170
21
116.509280
31
0.0
0
LINE
8
0
6
CONTINUOUS
10
29.946917
20
115.269746
30
0.0
11
29.946920
21
114.842910
31
0.0
0
LINE
8
0
6
CONTINUOUS
10
30.734170
20
116.509280
30
0.0
11
32.833500
21
116.765630
31
0.0
0
LINE
8
0
6
CONTINUOUS
10
30.734169
20
116.766059
30
0.0
11
30.734170
21
116.509280
31
0.0
0
LINE
8
0
6
CONTINUOUS
10
29.946920
20
114.842910
30
0.0
11
31.258980
21
113.432880
31
0.0
0
LINE
8
0
6
CONTINUOUS
10
30.734170
20
116.509280
30
0.0
11
29.946920
21
114.842910
31
0.0
0
LINE
8
0
6
CONTINUOUS
10
32.833500
20
116.765630
30
0.0
11
30.734170
21
116.509280
31
0.0
0
LINE
8
0
6
CONTINUOUS
10
34.145530
20
115.355600
30
0.0
11
32.833500
21
116.765630
31
0.0
0
LINE
8
0
6
CONTINUOUS
10
33.358290
20
113.689210
30
0.0
11
34.145530
21
115.355600
31
0.0
0
LINE
8
0
6
CONTINUOUS
10
31.258980
20
113.432880
30
0.0
11
33.358290
21
113.689210
31
0.0
0
LINE
8
0
6
CONTINUOUS
10
32.833500
20
116.765630
30
0.0
11
34.145530
21
115.355600
31
0.0
0
LINE
8
0
6
CONTINUOUS
10
32.833497
20
117.183785
30
0.0
11
32.833500
21
116.765630
31
0.0
0
LINE
8
0
6
CONTINUOUS
10
-1.836950
20
196.740810
30
0.0
11
-0.000050
21
197.638090
31
0.0
0
LINE
8
0
6
CONTINUOUS
10
-1.836950
20
196.740810
30
0.0
11
-1.836954
21
197.644176
31
0.0
0
LINE
8
0
6
CONTINUOUS
10
-1.836940
20
194.946260
30
0.0
11
-1.836950
21
196.740810
31
0.0
0
LINE
8
0
6
CONTINUOUS
10
-0.000050
20
197.638090
30
0.0
11
-1.836950
21
196.740810
31
0.0
0
LINE
8
0
6
CONTINUOUS
10
1.836840
20
196.740810
30
0.0
11
-0.000050
21
197.638090
31
0.0
0
LINE
8
0
6
CONTINUOUS
10
1.836840
20
194.946240
30
0.0
11
1.836840
21
196.740810
31
0.0
0
LINE
8
0
6
CONTINUOUS
10
-0.000050
20
194.048990
30
0.0
11
1.836840
21
194.946240
31
0.0
0
LINE
8
0
6
CONTINUOUS
10
-1.836940
20
194.946260
30
0.0
11
-0.000050
21
194.048990
31
0.0
0
LINE
8
0
6
CONTINUOUS
10
-1.836950
20
196.740810
30
0.0
11
-1.836940
21
194.946260
31
0.0
0
LINE
8
0
6
CONTINUOUS
10
1.836840
20
196.740810
30
0.0
11
1.836836
21
197.644184
31
0.0
0
LINE
8
0
6
CONTINUOUS
10
-0.000050
20
197.638090
30
0.0
11
1.836840
21
196.740810
31
0.0
0
LINE
8
0
6
CONTINUOUS
10
-0.000057
20
198.673295
30
0.0
11
-0.000050
21
197.638090
31
0.0
0
LINE
8
0
6
CONTINUOUS
10
-12.482690
20
195.606240
30
0.0
11
-10.877910
21
196.779700
31
0.0
0
LINE
8
0
6
CONTINUOUS
10
-12.482692
20
196.467557
30
0.0
11
-12.482690
21
195.606240
31
0.0
0
LINE
8
0
6
CONTINUOUS
10
-10.877910
20
196.779700
30
0.0
11
-12.482690
21
195.606240
31
0.0
0
LINE
8
0
6
CONTINUOUS
10
-8.874400
20
196.190560
30
0.0
11
-10.877910
21
196.779700
31
0.0
0
LINE
8
0
6
CONTINUOUS
10
-8.475660
20
194.427980
30
0.0
11
-8.874400
21
196.190560
31
0.0
0
LINE
8
0
6
CONTINUOUS
10
-10.080440
20
193.254540
30
0.0
11
-8.475660
21
194.427980
31
0.0
0
LINE
8
0
6
CONTINUOUS
10
-12.083950
20
193.843660
30
0.0
11
-10.080440
21
193.254540
31
0.0
0
LINE
8
0
6
CONTINUOUS
10
-12.482690
20
195.606240
30
0.0
11
-12.083950
21
193.843660
31
0.0
0
LINE
8
0
6
CONTINUOUS
10
-10.877910
20
196.779700
30
0.0
11
-8.874400
21
196.190560
31
0.0
0
LINE
8
0
6
CONTINUOUS
10
-10.877914
20
197.791989
30
0.0
11
-10.877910
21
196.779700
31
0.0
0
LINE
8
0
6
CONTINUOUS
10
-8.475660
20
194.427980
30
0.0
11
-8.475662
21
194.998081
31
0.0
0
LINE
8
0
6
CONTINUOUS
10
-8.874400
20
196.190560
30
0.0
11
-8.475660
21
194.427980
31
0.0
0
LINE
8
0
6
CONTINUOUS
10
-8.874404
20
197.057235
30
0.0
11
-8.874400
21
196.190560
31
0.0
0
LINE
8
0
6
CONTINUOUS
10
-22.568590
20
192.703790
30
0.0
11
-21.257430
21
194.114430
31
0.0
0
LINE
8
0
6
CONTINUOUS
10
-22.568592
20
193.582092
30
0.0
11
-22.568590
21
192.703790
31
0.0
0
LINE
8
0
6
CONTINUOUS
10
-21.257430
20
194.114430
30
0.0
11
-22.568590
21
192.703790
31
0.0
0
LINE
8
0
6
CONTINUOUS
10
-19.157950
20
193.859020
30
0.0
11
-21.257430
21
194.114430
31
0.0
0
LINE
8
0
6
CONTINUOUS
10
-18.369650
20
192.193010
30
0.0
11
-19.157950
21
193.859020
31
0.0
0
LINE
8
0
6
CONTINUOUS
10
-19.680820
20
190.782390
30
0.0
11
-18.369650
21
192.193010
31
0.0
0
LINE
8
0
6
CONTINUOUS
10
-21.780290
20
191.037820
30
0.0
11
-19.680820
21
190.782390
31
0.0
0
LINE
8
0
6
CONTINUOUS
10
-22.568590
20
192.703790
30
0.0
11
-21.780290
21
191.037820
31
0.0
0
LINE
8
0
6
CONTINUOUS
10
-21.257430
20
194.114430
30
0.0
11
-19.157950
21
193.859020
31
0.0
0
LINE
8
0
6
CONTINUOUS
10
-21.257430
20
195.122308
30
0.0
11
-21.257430
21
194.114430
31
0.0
0
LINE
8
0
6
CONTINUOUS
10
-18.369650
20
192.193010
30
0.0
11
-18.369652
21
192.771307
31
0.0
0
LINE
8
0
6
CONTINUOUS
10
-19.157950
20
193.859020
30
0.0
11
-18.369650
21
192.193010
31
0.0
0
LINE
8
0
6
CONTINUOUS
10
-19.157952
20
194.731204
30
0.0
11
-19.157950
21
193.859020
31
0.0
0
LINE
8
0
6
CONTINUOUS
10
-31.714650
20
188.205180
30
0.0
11
-30.743960
21
189.800770
31
0.0
0
LINE
8
0
6
CONTINUOUS
10
-31.714650
20
189.060348
30
0.0
11
-31.714650
21
188.205180
31
0.0
0
LINE
8
0
6
CONTINUOUS
10
-30.743960
20
189.800770
30
0.0
11
-31.714650
21
188.205180
31
0.0
0
LINE
8
0
6
CONTINUOUS
10
-28.625360
20
189.887350
30
0.0
11
-30.743960
21
189.800770
31
0.0
0
LINE
8
0
6
CONTINUOUS
10
-27.477460
20
188.378290
30
0.0
11
-28.625360
21
189.887350
31
0.0
0
LINE
8
0
6
CONTINUOUS
10
-28.448160
20
186.782700
30
0.0
11
-27.477460
21
188.378290
31
0.0
0
LINE
8
0
6
CONTINUOUS
10
-30.566750
20
186.696120
30
0.0
11
-28.448160
21
186.782700
31
0.0
0
LINE
8
0
6
CONTINUOUS
10
-31.714650
20
188.205180
30
0.0
11
-30.566750
21
186.696120
31
0.0
0
LINE
8
0
6
CONTINUOUS
10
-30.743960
20
189.800770
30
0.0
11
-28.625360
21
189.887350
31
0.0
0
LINE
8
0
6
CONTINUOUS
10
-30.743960
20
190.802938
30
0.0
11
-30.743960
21
189.800770
31
0.0
0
LINE
8
0
6
CONTINUOUS
10
-27.477460
20
188.378290
30
0.0
11
-27.477460
21
188.938009
31
0.0
0
LINE
8
0
6
CONTINUOUS
10
-28.625360
20
189.887350
30
0.0
11
-27.477460
21
188.378290
31
0.0
0
LINE
8
0
6
CONTINUOUS
10
-28.625362
20
190.741787
30
0.0
11
-28.625360
21
189.887350
31
0.0
0
LINE
8
0
6
CONTINUOUS
10
-39.543360
20
182.087410
30
0.0
11
-38.945990
21
183.809310
31
0.0
0
LINE
8
0
6
CONTINUOUS
10
-39.543356
20
182.928827
30
0.0
11
-39.543360
21
182.087410
31
0.0
0
LINE
8
0
6
CONTINUOUS
10
-38.945990
20
183.809310
30
0.0
11
-39.543360
21
182.087410
31
0.0
0
LINE
8
0
6
CONTINUOUS
10
-36.884790
20
184.232610
30
0.0
11
-38.945990
21
183.809310
31
0.0
0
LINE
8
0
6
CONTINUOUS
10
-35.420900
20
182.933970
30
0.0
11
-36.884790
21
184.232610
31
0.0
0
LINE
8
0
6
CONTINUOUS
10
-36.018270
20
181.212020
30
0.0
11
-35.420900
21
182.933970
31
0.0
0
LINE
8
0
6
CONTINUOUS
10
-38.079480
20
180.788760
30
0.0
11
-36.018270
21
181.212020
31
0.0
0
LINE
8
0
6
CONTINUOUS
10
-39.543360
20
182.087410
30
0.0
11
-38.079480
21
180.788760
31
0.0
0
LINE
8
0
6
CONTINUOUS
10
-38.945990
20
183.809310
30
0.0
11
-36.884790
21
184.232610
31
0.0
0
LINE
8
0
6
CONTINUOUS
10
-38.945990
20
184.787821
30
0.0
11
-38.945990
21
183.809310
31
0.0
0
LINE
8
0
6
CONTINUOUS
10
-35.420900
20
182.933970
30
0.0
11
-35.420900
21
183.480931
31
0.0
0
LINE
8
0
6
CONTINUOUS
10
-36.884790
20
184.232610
30
0.0
11
-35.420900
21
182.933970
31
0.0
0
LINE
8
0
6
CONTINUOUS
10
-36.884785
20
185.073494
30
0.0
11
-36.884790
21
184.232610
31
0.0
0
LINE
8
0
6
CONTINUOUS
10
-46.106520
20
175.129640
30
0.0
11
-45.903590
21
176.915940
31
0.0
0
LINE
8
0
6
CONTINUOUS
10
-46.106516
20
175.960173
30
0.0
11
-46.106520
21
175.129640
31
0.0
0
LINE
8
0
6
CONTINUOUS
10
-45.903590
20
176.915940
30
0.0
11
-46.106520
21
175.129640
31
0.0
0
LINE
8
0
6
CONTINUOUS
10
-43.973670
20
177.660440
30
0.0
11
-45.903590
21
176.915940
31
0.0
0
LINE
8
0
6
CONTINUOUS
10
-42.246660
20
176.618610
30
0.0
11
-43.973670
21
177.660440
31
0.0
0
LINE
8
0
6
CONTINUOUS
10
-42.449590
20
174.832260
30
0.0
11
-42.246660
21
176.618610
31
0.0
0
LINE
8
0
6
CONTINUOUS
10
-44.379510
20
174.087790
30
0.0
11
-42.449590
21
174.832260
31
0.0
0
LINE
8
0
6
CONTINUOUS
10
-46.106520
20
175.129640
30
0.0
11
-44.379510
21
174.087790
31
0.0
0
LINE
8
0
6
CONTINUOUS
10
-45.903590
20
176.915940
30
0.0
11
-43.973670
21
177.660440
31
0.0
0
LINE
8
0
6
CONTINUOUS
10
-45.903590
20
177.890415
30
0.0
11
-45.903590
21
176.915940
31
0.0
0
LINE
8
0
6
CONTINUOUS
10
-42.246660
20
176.618610
30
0.0
11
-42.246660
21
177.137932
31
0.0
0
LINE
8
0
6
CONTINUOUS
10
-43.973670
20
177.660440
30
0.0
11
-42.246660
21
176.618610
31
0.0
0
LINE
8
0
6
CONTINUOUS
10
-43.973667
20
178.482852
30
0.0
11
-43.973670
21
177.660440
31
0.0
0
LINE
8
0
6
CONTINUOUS
10
-47.086630
20
167.338310
30
0.0
11
-47.086629
21
167.706884
31
0.0
0
LINE
8
0
6
CONTINUOUS
10
-47.287730
20
169.124770
30
0.0
11
-47.086630
21
167.338310
31
0.0
0
LINE
8
0
6
CONTINUOUS
10
-50.944940
20
168.830110
30
0.0
11
-50.743880
21
167.043620
31
0.0
0
LINE
8
0
6
CONTINUOUS
10
-49.216870
20
169.870710
30
0.0
11
-50.944940
21
168.830110
31
0.0
0
LINE
8
0
6
CONTINUOUS
10
-47.287730
20
169.124770
30
0.0
11
-49.216870
21
169.870710
31
0.0
0
LINE
8
0
6
CONTINUOUS
10
-47.086630
20
167.338310
30
0.0
11
-47.287730
21
169.124770
31
0.0
0
LINE
8
0
6
CONTINUOUS
10
-48.814710
20
166.297720
30
0.0
11
-47.086630
21
167.338310
31
0.0
0
LINE
8
0
6
CONTINUOUS
10
-50.743880
20
167.043620
30
0.0
11
-48.814710
21
166.297720
31
0.0
0
LINE
8
0
6
CONTINUOUS
10
-50.944940
20
168.830110
30
0.0
11
-49.216870
21
169.870710
31
0.0
0
LINE
8
0
6
CONTINUOUS
10
-50.944946
20
169.781972
30
0.0
11
-50.944940
21
168.830110
31
0.0
0
LINE
8
0
6
CONTINUOUS
10
-47.287730
20
169.124770
30
0.0
11
-47.287728
21
169.650591
31
0.0
0
LINE
8
0
6
CONTINUOUS
10
-49.216870
20
169.870710
30
0.0
11
-47.287730
21
169.124770
31
0.0
0
LINE
8
0
6
CONTINUOUS
10
-49.216868
20
170.688080
30
0.0
11
-49.216870
21
169.870710
31
0.0
0
LINE
8
0
6
CONTINUOUS
10
-49.970590
20
159.262150
30
0.0
11
-49.970587
21
159.534901
31
0.0
0
LINE
8
0
6
CONTINUOUS
10
-50.570330
20
160.983470
30
0.0
11
-49.970590
21
159.262150
31
0.0
0
LINE
8
0
6
CONTINUOUS
10
-54.094180
20
160.104590
30
0.0
11
-53.494450
21
158.383260
31
0.0
0
LINE
8
0
6
CONTINUOUS
10
-52.632110
20
161.404710
30
0.0
11
-54.094180
21
160.104590
31
0.0
0
LINE
8
0
6
CONTINUOUS
10
-50.570330
20
160.983470
30
0.0
11
-52.632110
21
161.404710
31
0.0
0
LINE
8
0
6
CONTINUOUS
10
-49.970590
20
159.262150
30
0.0
11
-50.570330
21
160.983470
31
0.0
0
LINE
8
0
6
CONTINUOUS
10
-51.432620
20
157.962060
30
0.0
11
-49.970590
21
159.262150
31
0.0
0
LINE
8
0
6
CONTINUOUS
10
-53.494450
20
158.383260
30
0.0
11
-51.432620
21
157.962060
31
0.0
0
LINE
8
0
6
CONTINUOUS
10
-54.094180
20
160.104590
30
0.0
11
-52.632110
21
161.404710
31
0.0
0
LINE
8
0
6
CONTINUOUS
10
-54.094180
20
161.004984
30
0.0
11
-54.094180
21
160.104590
31
0.0
0
LINE
8
0
6
CONTINUOUS
10
-50.570330
20
160.983470
30
0.0
11
-50.570326
21
161.406239
31
0.0
0
LINE
8
0
6
CONTINUOUS
10
-52.632110
20
161.404710
30
0.0
11
-50.570330
21
160.983470
31
0.0
0
LINE
8
0
6
CONTINUOUS
10
-52.632113
20
162.141294
30
0.0
11
-52.632110
21
161.404710
31
0.0
0
LINE
8
0
6
CONTINUOUS
10
-50.916350
20
150.669760
30
0.0
11
-50.916346
21
150.962402
31
0.0
0
LINE
8
0
6
CONTINUOUS
10
-51.889350
20
152.264370
30
0.0
11
-50.916350
21
150.669760
31
0.0
0
LINE
8
0
6
CONTINUOUS
10
-55.153770
20
150.838500
30
0.0
11
-54.180780
21
149.243900
31
0.0
0
LINE
8
0
6
CONTINUOUS
10
-54.008060
20
152.348730
30
0.0
11
-55.153770
21
150.838500
31
0.0
0
LINE
8
0
6
CONTINUOUS
10
-51.889350
20
152.264370
30
0.0
11
-54.008060
21
152.348730
31
0.0
0
LINE
8
0
6
CONTINUOUS
10
-50.916350
20
150.669760
30
0.0
11
-51.889350
21
152.264370
31
0.0
0
LINE
8
0
6
CONTINUOUS
10
-52.062060
20
149.159550
30
0.0
11
-50.916350
21
150.669760
31
0.0
0
LINE
8
0
6
CONTINUOUS
10
-54.180780
20
149.243900
30
0.0
11
-52.062060
21
149.159550
31
0.0
0
LINE
8
0
6
CONTINUOUS
10
-55.153770
20
150.838500
30
0.0
11
-54.008060
21
152.348730
31
0.0
0
LINE
8
0
6
CONTINUOUS
10
-55.153766
20
151.755805
30
0.0
11
-55.153770
21
150.838500
31
0.0
0
LINE
8
0
6
CONTINUOUS
10
-51.889350
20
152.264370
30
0.0
11
-51.889347
21
152.709917
31
0.0
0
LINE
8
0
6
CONTINUOUS
10
-54.008060
20
152.348730
30
0.0
11
-51.889350
21
152.264370
31
0.0
0
LINE
8
0
6
CONTINUOUS
10
-54.008057
20
153.107870
30
0.0
11
-54.008060
21
152.348730
31
0.0
0
LINE
8
0
6
CONTINUOUS
10
-50.127500
20
142.947420
30
0.0
11
-50.127501
21
143.223437
31
0.0
0
LINE
8
0
6
CONTINUOUS
10
-51.436150
20
144.359730
30
0.0
11
-50.127500
21
142.947420
31
0.0
0
LINE
8
0
6
CONTINUOUS
10
-54.327370
20
142.441980
30
0.0
11
-53.018700
21
141.029690
31
0.0
0
LINE
8
0
6
CONTINUOUS
10
-53.536070
20
144.106970
30
0.0
11
-54.327370
21
142.441980
31
0.0
0
LINE
8
0
6
CONTINUOUS
10
-51.436150
20
144.359730
30
0.0
11
-53.536070
21
144.106970
31
0.0
0
LINE
8
0
6
CONTINUOUS
10
-50.127500
20
142.947420
30
0.0
11
-51.436150
21
144.359730
31
0.0
0
LINE
8
0
6
CONTINUOUS
10
-50.918790
20
141.282420
30
0.0
11
-50.127500
21
142.947420
31
0.0
0
LINE
8
0
6
CONTINUOUS
10
-53.018700
20
141.029690
30
0.0
11
-50.918790
21
141.282420
31
0.0
0
LINE
8
0
6
CONTINUOUS
10
-54.327370
20
142.441980
30
0.0
11
-53.536070
21
144.106970
31
0.0
0
LINE
8
0
6
CONTINUOUS
10
-54.327368
20
143.342263
30
0.0
11
-54.327370
21
142.441980
31
0.0
0
LINE
8
0
6
CONTINUOUS
10
-51.436150
20
144.359730
30
0.0
11
-51.436150
21
144.780502
31
0.0
0
LINE
8
0
6
CONTINUOUS
10
-53.536070
20
144.106970
30
0.0
11
-51.436150
21
144.359730
31
0.0
0
LINE
8
0
6
CONTINUOUS
10
-53.536072
20
144.841913
30
0.0
11
-53.536070
21
144.106970
31
0.0
0
LINE
8
0
6
CONTINUOUS
10
-47.361480
20
135.336870
30
0.0
11
-47.361478
21
135.592985
31
0.0
0
LINE
8
0
6
CONTINUOUS
10
-48.963970
20
136.512570
30
0.0
11
-47.361480
21
135.336870
31
0.0
0
LINE
8
0
6
CONTINUOUS
10
-51.370860
20
134.164290
30
0.0
11
-49.768390
21
132.988580
31
0.0
0
LINE
8
0
6
CONTINUOUS
10
-50.968640
20
135.926290
30
0.0
11
-51.370860
21
134.164290
31
0.0
0
LINE
8
0
6
CONTINUOUS
10
-48.963970
20
136.512570
30
0.0
11
-50.968640
21
135.926290
31
0.0
0
LINE
8
0
6
CONTINUOUS
10
-47.361480
20
135.336870
30
0.0
11
-48.963970
21
136.512570
31
0.0
0
LINE
8
0
6
CONTINUOUS
10
-47.763710
20
133.574870
30
0.0
11
-47.361480
21
135.336870
31
0.0
0
LINE
8
0
6
CONTINUOUS
10
-49.768390
20
132.988580
30
0.0
11
-47.763710
21
133.574870
31
0.0
0
LINE
8
0
6
CONTINUOUS
10
-51.370860
20
134.164290
30
0.0
11
-50.968640
21
135.926290
31
0.0
0
LINE
8
0
6
CONTINUOUS
10
-51.370854
20
135.044550
30
0.0
11
-51.370860
21
134.164290
31
0.0
0
LINE
8
0
6
CONTINUOUS
10
-48.963970
20
136.512570
30
0.0
11
-48.963966
21
136.931189
31
0.0
0
LINE
8
0
6
CONTINUOUS
10
-50.968640
20
135.926290
30
0.0
11
-48.963970
21
136.512570
31
0.0
0
LINE
8
0
6
CONTINUOUS
10
-50.968632
20
136.656972
30
0.0
11
-50.968640
21
135.926290
31
0.0
0
LINE
8
0
6
CONTINUOUS
10
-43.642060
20
128.330210
30
0.0
11
-43.640590
21
126.535660
31
0.0
0
LINE
8
0
6
CONTINUOUS
10
-43.642060
20
128.330210
30
0.0
11
-43.642058
21
128.598347
31
0.0
0
LINE
8
0
6
CONTINUOUS
10
-45.479680
20
129.226420
30
0.0
11
-43.642060
21
128.330210
31
0.0
0
LINE
8
0
6
CONTINUOUS
10
-47.314380
20
126.533500
30
0.0
11
-45.476750
21
125.637300
31
0.0
0
LINE
8
0
6
CONTINUOUS
10
-47.315840
20
128.328050
30
0.0
11
-47.314380
21
126.533500
31
0.0
0
LINE
8
0
6
CONTINUOUS
10
-45.479680
20
129.226420
30
0.0
11
-47.315840
21
128.328050
31
0.0
0
LINE
8
0
6
CONTINUOUS
10
-43.642060
20
128.330210
30
0.0
11
-45.479680
21
129.226420
31
0.0
0
LINE
8
0
6
CONTINUOUS
10
-43.640590
20
126.535660
30
0.0
11
-43.642060
21
128.330210
31
0.0
0
LINE
8
0
6
CONTINUOUS
10
-45.476750
20
125.637300
30
0.0
11
-43.640590
21
126.535660
31
0.0
0
LINE
8
0
6
CONTINUOUS
10
-45.479680
20
129.226420
30
0.0
11
-45.479677
21
129.637365
31
0.0
0
LINE
8
0
6
CONTINUOUS
10
-47.315840
20
128.328050
30
0.0
11
-45.479680
21
129.226420
31
0.0
0
LINE
8
0
6
CONTINUOUS
10
-47.315835
20
129.049711
30
0.0
11
-47.315840
21
128.328050
31
0.0
0
LINE
8
0
6
CONTINUOUS
10
-37.396900
20
120.142680
30
0.0
11
-37.396896
21
120.553683
31
0.0
0
LINE
8
0
6
CONTINUOUS
10
-37.798990
20
121.904710
30
0.0
11
-37.396900
21
120.142680
31
0.0
0
LINE
8
0
6
CONTINUOUS
10
-37.798990
20
121.904710
30
0.0
11
-37.798988
21
122.159086
31
0.0
0
LINE
8
0
6
CONTINUOUS
10
-39.803600
20
122.491110
30
0.0
11
-37.798990
21
121.904710
31
0.0
0
LINE
8
0
6
CONTINUOUS
10
-41.004070
20
119.553450
30
0.0
11
-38.999440
21
118.967060
31
0.0
0
LINE
8
0
6
CONTINUOUS
10
-41.406140
20
121.315490
30
0.0
11
-41.004070
21
119.553450
31
0.0
0
LINE
8
0
6
CONTINUOUS
10
-39.803600
20
122.491110
30
0.0
11
-41.406140
21
121.315490
31
0.0
0
LINE
8
0
6
CONTINUOUS
10
-37.798990
20
121.904710
30
0.0
11
-39.803600
21
122.491110
31
0.0
0
LINE
8
0
6
CONTINUOUS
10
-37.396900
20
120.142680
30
0.0
11
-37.798990
21
121.904710
31
0.0
0
LINE
8
0
6
CONTINUOUS
10
-38.999440
20
118.967060
30
0.0
11
-37.396900
21
120.142680
31
0.0
0
LINE
8
0
6
CONTINUOUS
10
-39.803600
20
122.491110
30
0.0
11
-39.803599
21
122.900225
31
0.0
0
LINE
8
0
6
CONTINUOUS
10
-41.406140
20
121.315490
30
0.0
11
-39.803600
21
122.491110
31
0.0
0
LINE
8
0
6
CONTINUOUS
10
-41.406138
20
122.035950
30
0.0
11
-41.406140
21
121.315490
31
0.0
0
LINE
8
0
6
CONTINUOUS
10
-29.946830
20
114.842710
30
0.0
11
-29.946827
21
115.269673
31
0.0
0
LINE
8
0
6
CONTINUOUS
10
-30.734100
20
116.509070
30
0.0
11
-29.946830
21
114.842710
31
0.0
0
LINE
8
0
6
CONTINUOUS
10
-30.734100
20
116.509070
30
0.0
11
-30.734099
21
116.765983
31
0.0
0
LINE
8
0
6
CONTINUOUS
10
-32.833420
20
116.765420
30
0.0
11
-30.734100
21
116.509070
31
0.0
0
LINE
8
0
6
CONTINUOUS
10
-33.358210
20
113.689020
30
0.0
11
-31.258900
21
113.432680
31
0.0
0
LINE
8
0
6
CONTINUOUS
10
-34.145450
20
115.355400
30
0.0
11
-33.358210
21
113.689020
31
0.0
0
LINE
8
0
6
CONTINUOUS
10
-32.833420
20
116.765420
30
0.0
11
-34.145450
21
115.355400
31
0.0
0
LINE
8
0
6
CONTINUOUS
10
-30.734100
20
116.509070
30
0.0
11
-32.833420
21
116.765420
31
0.0
0
LINE
8
0
6
CONTINUOUS
10
-29.946830
20
114.842710
30
0.0
11
-30.734100
21
116.509070
31
0.0
0
LINE
8
0
6
CONTINUOUS
10
-31.258900
20
113.432680
30
0.0
11
-29.946830
21
114.842710
31
0.0
0
LINE
8
0
6
CONTINUOUS
10
-32.833420
20
116.765420
30
0.0
11
-32.833417
21
117.183709
31
0.0
0
LINE
8
0
6
CONTINUOUS
10
-34.145450
20
115.355400
30
0.0
11
-32.833420
21
116.765420
31
0.0
0
LINE
8
0
6
CONTINUOUS
10
-34.145447
20
116.082043
30
0.0
11
-34.145450
21
115.355400
31
0.0
0
LINE
8
0
6
CONTINUOUS
10
-1.836940
20
188.253150
30
0.0
11
-0.000050
21
189.150420
31
0.0
0
LINE
8
0
6
CONTINUOUS
10
-1.836940
20
188.253150
30
0.0
11
-1.836944
21
189.209098
31
0.0
0
LINE
8
0
6
CONTINUOUS
10
-1.836940
20
186.458600
30
0.0
11
-1.836940
21
188.253150
31
0.0
0
LINE
8
0
6
CONTINUOUS
10
-0.000050
20
189.150420
30
0.0
11
-1.836940
21
188.253150
31
0.0
0
LINE
8
0
6
CONTINUOUS
10
1.836840
20
188.253170
30
0.0
11
-0.000050
21
189.150420
31
0.0
0
LINE
8
0
6
CONTINUOUS
10
1.836840
20
186.458600
30
0.0
11
1.836840
21
188.253170
31
0.0
0
LINE
8
0
6
CONTINUOUS
10
-0.000050
20
185.561330
30
0.0
11
1.836840
21
186.458600
31
0.0
0
LINE
8
0
6
CONTINUOUS
10
-1.836940
20
186.458600
30
0.0
11
-0.000050
21
185.561330
31
0.0
0
LINE
8
0
6
CONTINUOUS
10
-1.836940
20
188.253150
30
0.0
11
-1.836940
21
186.458600
31
0.0
0
LINE
8
0
6
CONTINUOUS
10
1.836840
20
188.253170
30
0.0
11
1.836836
21
189.209120
31
0.0
0
LINE
8
0
6
CONTINUOUS
10
-0.000050
20
189.150420
30
0.0
11
1.836840
21
188.253170
31
0.0
0
LINE
8
0
6
CONTINUOUS
10
-0.000055
20
190.222847
30
0.0
11
-0.000050
21
189.150420
31
0.0
0
LINE
8
0
6
CONTINUOUS
10
-12.668740
20
186.746170
30
0.0
11
-11.137480
21
187.987950
31
0.0
0
LINE
8
0
6
CONTINUOUS
10
-12.668740
20
187.676005
30
0.0
11
-12.668740
21
186.746170
31
0.0
0
LINE
8
0
6
CONTINUOUS
10
-11.137480
20
187.987950
30
0.0
11
-12.668740
21
186.746170
31
0.0
0
LINE
8
0
6
CONTINUOUS
10
-9.100780
20
187.486870
30
0.0
11
-11.137480
21
187.987950
31
0.0
0
LINE
8
0
6
CONTINUOUS
10
-8.595340
20
185.743990
30
0.0
11
-9.100780
21
187.486870
31
0.0
0
LINE
8
0
6
CONTINUOUS
10
-10.126590
20
184.502210
30
0.0
11
-8.595340
21
185.743990
31
0.0
0
LINE
8
0
6
CONTINUOUS
10
-12.163290
20
185.003290
30
0.0
11
-10.126590
21
184.502210
31
0.0
0
LINE
8
0
6
CONTINUOUS
10
-12.668740
20
186.746170
30
0.0
11
-12.163290
21
185.003290
31
0.0
0
LINE
8
0
6
CONTINUOUS
10
-11.137480
20
187.987950
30
0.0
11
-9.100780
21
187.486870
31
0.0
0
LINE
8
0
6
CONTINUOUS
10
-11.137482
20
189.041208
30
0.0
11
-11.137480
21
187.987950
31
0.0
0
LINE
8
0
6
CONTINUOUS
10
-8.595340
20
185.743990
30
0.0
11
-8.595340
21
186.415539
31
0.0
0
LINE
8
0
6
CONTINUOUS
10
-9.100780
20
187.486870
30
0.0
11
-8.595340
21
185.743990
31
0.0
0
LINE
8
0
6
CONTINUOUS
10
-9.100782
20
188.422031
30
0.0
11
-9.100780
21
187.486870
31
0.0
0
LINE
8
0
6
CONTINUOUS
10
-22.797810
20
183.075860
30
0.0
11
-21.665080
21
184.593060
31
0.0
0
LINE
8
0
6
CONTINUOUS
10
-22.797808
20
183.980771
30
0.0
11
-22.797810
21
183.075860
31
0.0
0
LINE
8
0
6
CONTINUOUS
10
-21.665080
20
184.593060
30
0.0
11
-22.797810
21
183.075860
31
0.0
0
LINE
8
0
6
CONTINUOUS
10
-19.545690
20
184.521740
30
0.0
11
-21.665080
21
184.593060
31
0.0
0
LINE
8
0
6
CONTINUOUS
10
-18.559040
20
182.933150
30
0.0
11
-19.545690
21
184.521740
31
0.0
0
LINE
8
0
6
CONTINUOUS
10
-19.691770
20
181.415910
30
0.0
11
-18.559040
21
182.933150
31
0.0
0
LINE
8
0
6
CONTINUOUS
10
-21.811150
20
181.487290
30
0.0
11
-19.691770
21
181.415910
31
0.0
0
LINE
8
0
6
CONTINUOUS
10
-22.797810
20
183.075860
30
0.0
11
-21.811150
21
181.487290
31
0.0
0
LINE
8
0
6
CONTINUOUS
10
-21.665080
20
184.593060
30
0.0
11
-19.545690
21
184.521740
31
0.0
0
LINE
8
0
6
CONTINUOUS
10
-21.665080
20
185.634085
30
0.0
11
-21.665080
21
184.593060
31
0.0
0
LINE
8
0
6
CONTINUOUS
10
-18.559040
20
182.933150
30
0.0
11
-18.559040
21
183.588641
31
0.0
0
LINE
8
0
6
CONTINUOUS
10
-19.545690
20
184.521740
30
0.0
11
-18.559040
21
182.933150
31
0.0
0
LINE
8
0
6
CONTINUOUS
10
-19.545690
20
185.439454
30
0.0
11
-19.545690
21
184.521740
31
0.0
0
LINE
8
0
6
CONTINUOUS
10
-31.572090
20
177.496750
30
0.0
11
-30.900970
21
179.199080
31
0.0
0
LINE
8
0
6
CONTINUOUS
10
-31.572090
20
178.386092
30
0.0
11
-31.572090
21
177.496750
31
0.0
0
LINE
8
0
6
CONTINUOUS
10
-30.900970
20
179.199080
30
0.0
11
-31.572090
21
177.496750
31
0.0
0
LINE
8
0
6
CONTINUOUS
10
-28.822890
20
179.558560
30
0.0
11
-30.900970
21
179.199080
31
0.0
0
LINE
8
0
6
CONTINUOUS
10
-27.415940
20
178.215630
30
0.0
11
-28.822890
21
179.558560
31
0.0
0
LINE
8
0
6
CONTINUOUS
10
-28.087060
20
176.513260
30
0.0
11
-27.415940
21
178.215630
31
0.0
0
LINE
8
0
6
CONTINUOUS
10
-30.165140
20
176.153840
30
0.0
11
-28.087060
21
176.513260
31
0.0
0
LINE
8
0
6
CONTINUOUS
10
-31.572090
20
177.496750
30
0.0
11
-30.165140
21
176.153840
31
0.0
0
LINE
8
0
6
CONTINUOUS
10
-30.900970
20
179.199080
30
0.0
11
-28.822890
21
179.558560
31
0.0
0
LINE
8
0
6
CONTINUOUS
10
-30.900968
20
180.223062
30
0.0
11
-30.900970
21
179.199080
31
0.0
0
LINE
8
0
6
CONTINUOUS
10
-27.415940
20
178.215630
30
0.0
11
-27.415939
21
178.849761
31
0.0
0
LINE
8
0
6
CONTINUOUS
10
-28.822890
20
179.558560
30
0.0
11
-27.415940
21
178.215630
31
0.0
0
LINE
8
0
6
CONTINUOUS
10
-28.822888
20
180.454924
30
0.0
11
-28.822890
21
179.558560
31
0.0
0
LINE
8
0
6
CONTINUOUS
10
-38.510350
20
170.305440
30
0.0
11
-38.338340
21
172.094070
31
0.0
0
LINE
8
0
6
CONTINUOUS
10
-38.510346
20
171.183627
30
0.0
11
-38.510350
21
170.305440
31
0.0
0
LINE
8
0
6
CONTINUOUS
10
-38.338340
20
172.094070
30
0.0
11
-38.510350
21
170.305440
31
0.0
0
LINE
8
0
6
CONTINUOUS
10
-36.421500
20
172.862390
30
0.0
11
-38.338340
21
172.094070
31
0.0
0
LINE
8
0
6
CONTINUOUS
10
-34.676660
20
171.842030
30
0.0
11
-36.421500
21
172.862390
31
0.0
0
LINE
8
0
6
CONTINUOUS
10
-34.848660
20
170.053360
30
0.0
11
-34.676660
21
171.842030
31
0.0
0
LINE
8
0
6
CONTINUOUS
10
-36.765500
20
169.285080
30
0.0
11
-34.848660
21
170.053360
31
0.0
0
LINE
8
0
6
CONTINUOUS
10
-38.510350
20
170.305440
30
0.0
11
-36.765500
21
169.285080
31
0.0
0
LINE
8
0
6
CONTINUOUS
10
-38.338340
20
172.094070
30
0.0
11
-36.421500
21
172.862390
31
0.0
0
LINE
8
0
6
CONTINUOUS
10
-38.338338
20
173.091699
30
0.0
11
-38.338340
21
172.094070
31
0.0
0
LINE
8
0
6
CONTINUOUS
10
-34.676660
20
171.842030
30
0.0
11
-34.676659
21
172.446130
31
0.0
0
LINE
8
0
6
CONTINUOUS
10
-36.421500
20
172.862390
30
0.0
11
-34.676660
21
171.842030
31
0.0
0
LINE
8
0
6
CONTINUOUS
10
-36.421498
20
173.722967
30
0.0
11
-36.421500
21
172.862390
31
0.0
0
LINE
8
0
6
CONTINUOUS
10
-39.612190
20
162.398200
30
0.0
11
-39.612188
21
162.855718
31
0.0
0
LINE
8
0
6
CONTINUOUS
10
-39.952760
20
164.169500
30
0.0
11
-39.612190
21
162.398200
31
0.0
0
LINE
8
0
6
CONTINUOUS
10
-43.578880
20
163.670440
30
0.0
11
-43.238310
21
161.899150
31
0.0
0
LINE
8
0
6
CONTINUOUS
10
-41.936110
20
164.805600
30
0.0
11
-43.578880
21
163.670440
31
0.0
0
LINE
8
0
6
CONTINUOUS
10
-39.952760
20
164.169500
30
0.0
11
-41.936110
21
164.805600
31
0.0
0
LINE
8
0
6
CONTINUOUS
10
-39.612190
20
162.398200
30
0.0
11
-39.952760
21
164.169500
31
0.0
0
LINE
8
0
6
CONTINUOUS
10
-41.254970
20
161.263040
30
0.0
11
-39.612190
21
162.398200
31
0.0
0
LINE
8
0
6
CONTINUOUS
10
-43.238310
20
161.899150
30
0.0
11
-41.254970
21
161.263040
31
0.0
0
LINE
8
0
6
CONTINUOUS
10
-43.578880
20
163.670440
30
0.0
11
-41.936110
21
164.805600
31
0.0
0
LINE
8
0
6
CONTINUOUS
10
-43.578874
20
164.646795
30
0.0
11
-43.578880
21
163.670440
31
0.0
0
LINE
8
0
6
CONTINUOUS
10
-39.952760
20
164.169500
30
0.0
11
-39.952756
21
164.779253
31
0.0
0
LINE
8
0
6
CONTINUOUS
10
-41.936110
20
164.805600
30
0.0
11
-39.952760
21
164.169500
31
0.0
0
LINE
8
0
6
CONTINUOUS
10
-41.936104
20
165.674867
30
0.0
11
-41.936110
21
164.805600
31
0.0
0
LINE
8
0
6
CONTINUOUS
10
-42.393050
20
154.394540
30
0.0
11
-42.393048
21
154.807881
31
0.0
0
LINE
8
0
6
CONTINUOUS
10
-43.227250
20
156.044510
30
0.0
11
-42.393050
21
154.394540
31
0.0
0
LINE
8
0
6
CONTINUOUS
10
-46.604980
20
154.822020
30
0.0
11
-45.770780
21
153.172100
31
0.0
0
LINE
8
0
6
CONTINUOUS
10
-45.333210
20
156.258230
30
0.0
11
-46.604980
21
154.822020
31
0.0
0
LINE
8
0
6
CONTINUOUS
10
-43.227250
20
156.044510
30
0.0
11
-45.333210
21
156.258230
31
0.0
0
LINE
8
0
6
CONTINUOUS
10
-42.393050
20
154.394540
30
0.0
11
-43.227250
21
156.044510
31
0.0
0
LINE
8
0
6
CONTINUOUS
10
-43.664820
20
152.958330
30
0.0
11
-42.393050
21
154.394540
31
0.0
0
LINE
8
0
6
CONTINUOUS
10
-45.770780
20
153.172100
30
0.0
11
-43.664820
21
152.958330
31
0.0
0
LINE
8
0
6
CONTINUOUS
10
-46.604980
20
154.822020
30
0.0
11
-45.333210
21
156.258230
31
0.0
0
LINE
8
0
6
CONTINUOUS
10
-46.604972
20
155.712056
30
0.0
11
-46.604980
21
154.822020
31
0.0
0
LINE
8
0
6
CONTINUOUS
10
-43.227250
20
156.044510
30
0.0
11
-43.227247
21
156.588667
31
0.0
0
LINE
8
0
6
CONTINUOUS
10
-45.333210
20
156.258230
30
0.0
11
-43.227250
21
156.044510
31
0.0
0
LINE
8
0
6
CONTINUOUS
10
-45.333205
20
157.040356
30
0.0
11
-45.333210
21
156.258230
31
0.0
0
LINE
8
0
6
CONTINUOUS
10
-42.082760
20
145.387470
30
0.0
11
-42.082757
21
145.796339
31
0.0
0
LINE
8
0
6
CONTINUOUS
10
-43.354530
20
146.823650
30
0.0
11
-42.082760
21
145.387470
31
0.0
0
LINE
8
0
6
CONTINUOUS
10
-46.294690
20
144.959980
30
0.0
11
-45.022920
21
143.523780
31
0.0
0
LINE
8
0
6
CONTINUOUS
10
-45.460500
20
146.609910
30
0.0
11
-46.294690
21
144.959980
31
0.0
0
LINE
8
0
6
CONTINUOUS
10
-43.354530
20
146.823650
30
0.0
11
-45.460500
21
146.609910
31
0.0
0
LINE
8
0
6
CONTINUOUS
10
-42.082760
20
145.387470
30
0.0
11
-43.354530
21
146.823650
31
0.0
0
LINE
8
0
6
CONTINUOUS
10
-42.916960
20
143.737520
30
0.0
11
-42.082760
21
145.387470
31
0.0
0
LINE
8
0
6
CONTINUOUS
10
-45.022920
20
143.523780
30
0.0
11
-42.916960
21
143.737520
31
0.0
0
LINE
8
0
6
CONTINUOUS
10
-46.294690
20
144.959980
30
0.0
11
-45.460500
21
146.609910
31
0.0
0
LINE
8
0
6
CONTINUOUS
10
-46.294684
20
145.842891
30
0.0
11
-46.294690
21
144.959980
31
0.0
0
LINE
8
0
6
CONTINUOUS
10
-43.354530
20
146.823650
30
0.0
11
-43.354527
21
147.365487
31
0.0
0
LINE
8
0
6
CONTINUOUS
10
-45.460500
20
146.609910
30
0.0
11
-43.354530
21
146.823650
31
0.0
0
LINE
8
0
6
CONTINUOUS
10
-45.460495
20
147.388769
30
0.0
11
-45.460500
21
146.609910
31
0.0
0
LINE
8
0
6
CONTINUOUS
10
-39.612150
20
136.984160
30
0.0
11
-39.612148
21
137.381938
31
0.0
0
LINE
8
0
6
CONTINUOUS
10
-41.254930
20
138.119350
30
0.0
11
-39.612150
21
136.984160
31
0.0
0
LINE
8
0
6
CONTINUOUS
10
-43.578850
20
135.711950
30
0.0
11
-41.936070
21
134.576790
31
0.0
0
LINE
8
0
6
CONTINUOUS
10
-43.238280
20
137.483230
30
0.0
11
-43.578850
21
135.711950
31
0.0
0
LINE
8
0
6
CONTINUOUS
10
-41.254930
20
138.119350
30
0.0
11
-43.238280
21
137.483230
31
0.0
0
LINE
8
0
6
CONTINUOUS
10
-39.612150
20
136.984160
30
0.0
11
-41.254930
21
138.119350
31
0.0
0
LINE
8
0
6
CONTINUOUS
10
-39.952720
20
135.212880
30
0.0
11
-39.612150
21
136.984160
31
0.0
0
LINE
8
0
6
CONTINUOUS
10
-41.936070
20
134.576790
30
0.0
11
-39.952720
21
135.212880
31
0.0
0
LINE
8
0
6
CONTINUOUS
10
-43.578850
20
135.711950
30
0.0
11
-43.238280
21
137.483230
31
0.0
0
LINE
8
0
6
CONTINUOUS
10
-43.578843
20
136.586675
30
0.0
11
-43.578850
21
135.711950
31
0.0
0
LINE
8
0
6
CONTINUOUS
10
-41.254930
20
138.119350
30
0.0
11
-41.254928
21
138.645622
31
0.0
0
LINE
8
0
6
CONTINUOUS
10
-43.238280
20
137.483230
30
0.0
11
-41.254930
21
138.119350
31
0.0
0
LINE
8
0
6
CONTINUOUS
10
-43.238274
20
138.247970
30
0.0
11
-43.238280
21
137.483230
31
0.0
0
LINE
8
0
6
CONTINUOUS
10
-34.676600
20
127.540730
30
0.0
11
-34.676597
21
128.051235
31
0.0
0
LINE
8
0
6
CONTINUOUS
10
-34.848610
20
129.329370
30
0.0
11
-34.676600
21
127.540730
31
0.0
0
LINE
8
0
6
CONTINUOUS
10
-34.848610
20
129.329370
30
0.0
11
-34.848607
21
129.726080
31
0.0
0
LINE
8
0
6
CONTINUOUS
10
-36.765450
20
130.097690
30
0.0
11
-34.848610
21
129.329370
31
0.0
0
LINE
8
0
6
CONTINUOUS
10
-38.338290
20
127.288660
30
0.0
11
-36.421450
21
126.520380
31
0.0
0
LINE
8
0
6
CONTINUOUS
10
-38.510290
20
129.077310
30
0.0
11
-38.338290
21
127.288660
31
0.0
0
LINE
8
0
6
CONTINUOUS
10
-36.765450
20
130.097690
30
0.0
11
-38.510290
21
129.077310
31
0.0
0
LINE
8
0
6
CONTINUOUS
10
-34.848610
20
129.329370
30
0.0
11
-36.765450
21
130.097690
31
0.0
0
LINE
8
0
6
CONTINUOUS
10
-34.676600
20
127.540730
30
0.0
11
-34.848610
21
129.329370
31
0.0
0
LINE
8
0
6
CONTINUOUS
10
-36.421450
20
126.520380
30
0.0
11
-34.676600
21
127.540730
31
0.0
0
LINE
8
0
6
CONTINUOUS
10
-36.765450
20
130.097690
30
0.0
11
-36.765447
21
130.618571
31
0.0
0
LINE
8
0
6
CONTINUOUS
10
-38.510290
20
129.077310
30
0.0
11
-36.765450
21
130.097690
31
0.0
0
LINE
8
0
6
CONTINUOUS
10
-38.510285
20
129.836175
30
0.0
11
-38.510290
21
129.077310
31
0.0
0
LINE
8
0
6
CONTINUOUS
10
-28.756260
20
122.492380
30
0.0
11
-28.756257
21
123.011350
31
0.0
0
LINE
8
0
6
CONTINUOUS
10
-29.427380
20
124.194750
30
0.0
11
-28.756260
21
122.492380
31
0.0
0
LINE
8
0
6
CONTINUOUS
10
-29.427380
20
124.194750
30
0.0
11
-29.427378
21
124.595091
31
0.0
0
LINE
8
0
6
CONTINUOUS
10
-31.505460
20
124.554170
30
0.0
11
-29.427380
21
124.194750
31
0.0
0
LINE
8
0
6
CONTINUOUS
10
-32.241300
20
121.508880
30
0.0
11
-30.163210
21
121.149460
31
0.0
0
LINE
8
0
6
CONTINUOUS
10
-32.912420
20
123.211250
30
0.0
11
-32.241300
21
121.508880
31
0.0
0
LINE
8
0
6
CONTINUOUS
10
-31.505460
20
124.554170
30
0.0
11
-32.912420
21
123.211250
31
0.0
0
LINE
8
0
6
CONTINUOUS
10
-29.427380
20
124.194750
30
0.0
11
-31.505460
21
124.554170
31
0.0
0
LINE
8
0
6
CONTINUOUS
10
-28.756260
20
122.492380
30
0.0
11
-29.427380
21
124.194750
31
0.0
0
LINE
8
0
6
CONTINUOUS
10
-30.163210
20
121.149460
30
0.0
11
-28.756260
21
122.492380
31
0.0
0
LINE
8
0
6
CONTINUOUS
10
-31.505460
20
124.554170
30
0.0
11
-31.505458
21
125.091804
31
0.0
0
LINE
8
0
6
CONTINUOUS
10
-32.912420
20
123.211250
30
0.0
11
-31.505460
21
124.554170
31
0.0
0
LINE
8
0
6
CONTINUOUS
10
-32.912415
20
123.984741
30
0.0
11
-32.912420
21
123.211250
31
0.0
0
LINE
8
0
6
CONTINUOUS
10
-21.132570
20
117.861910
30
0.0
11
-21.132567
21
118.339641
31
0.0
0
LINE
8
0
6
CONTINUOUS
10
-22.265300
20
119.379130
30
0.0
11
-21.132570
21
117.861910
31
0.0
0
LINE
8
0
6
CONTINUOUS
10
-22.265300
20
119.379130
30
0.0
11
-22.265298
21
119.768258
31
0.0
0
LINE
8
0
6
CONTINUOUS
10
-24.384690
20
119.307780
30
0.0
11
-22.265300
21
119.379130
31
0.0
0
LINE
8
0
6
CONTINUOUS
10
-24.238600
20
116.201970
30
0.0
11
-22.119220
21
116.273320
31
0.0
0
LINE
8
0
6
CONTINUOUS
10
-25.371340
20
117.719200
30
0.0
11
-24.238600
21
116.201970
31
0.0
0
LINE
8
0
6
CONTINUOUS
10
-24.384690
20
119.307780
30
0.0
11
-25.371340
21
117.719200
31
0.0
0
LINE
8
0
6
CONTINUOUS
10
-22.265300
20
119.379130
30
0.0
11
-24.384690
21
119.307780
31
0.0
0
LINE
8
0
6
CONTINUOUS
10
-21.132570
20
117.861910
30
0.0
11
-22.265300
21
119.379130
31
0.0
0
LINE
8
0
6
CONTINUOUS
10
-22.119220
20
116.273320
30
0.0
11
-21.132570
21
117.861910
31
0.0
0
LINE
8
0
6
CONTINUOUS
10
-24.384690
20
119.307780
30
0.0
11
-24.384688
21
119.845951
31
0.0
0
LINE
8
0
6
CONTINUOUS
10
-25.371340
20
117.719200
30
0.0
11
-24.384690
21
119.307780
31
0.0
0
LINE
8
0
6
CONTINUOUS
10
-25.371335
20
118.493666
30
0.0
11
-25.371340
21
117.719200
31
0.0
0
LINE
8
0
6
CONTINUOUS
10
25.371450
20
117.719590
30
0.0
11
25.371450
21
118.493736
31
0.0
0
LINE
8
0
6
CONTINUOUS
10
24.384800
20
119.308180
30
0.0
11
25.371450
21
117.719590
31
0.0
0
LINE
8
0
6
CONTINUOUS
10
24.384800
20
119.308180
30
0.0
11
24.384799
21
119.846026
31
0.0
0
LINE
8
0
6
CONTINUOUS
10
22.265420
20
119.379530
30
0.0
11
24.384800
21
119.308180
31
0.0
0
LINE
8
0
6
CONTINUOUS
10
22.265420
20
119.379530
30
0.0
11
22.265419
21
119.768337
31
0.0
0
LINE
8
0
6
CONTINUOUS
10
21.132690
20
117.862290
30
0.0
11
22.265420
21
119.379530
31
0.0
0
LINE
8
0
6
CONTINUOUS
10
21.132689
20
118.339710
30
0.0
11
21.132690
21
117.862290
31
0.0
0
LINE
8
0
6
CONTINUOUS
10
24.238720
20
116.202370
30
0.0
11
25.371450
21
117.719590
31
0.0
0
LINE
8
0
6
CONTINUOUS
10
22.119340
20
116.273720
30
0.0
11
24.238720
21
116.202370
31
0.0
0
LINE
8
0
6
CONTINUOUS
10
21.132690
20
117.862290
30
0.0
11
22.119340
21
116.273720
31
0.0
0
LINE
8
0
6
CONTINUOUS
10
22.265420
20
119.379530
30
0.0
11
21.132690
21
117.862290
31
0.0
0
LINE
8
0
6
CONTINUOUS
10
24.384800
20
119.308180
30
0.0
11
22.265420
21
119.379530
31
0.0
0
LINE
8
0
6
CONTINUOUS
10
25.371450
20
117.719590
30
0.0
11
24.384800
21
119.308180
31
0.0
0
LINE
8
0
6
CONTINUOUS
10
31.572100
20
121.894240
30
0.0
11
31.572098
21
122.642715
31
0.0
0
LINE
8
0
6
CONTINUOUS
10
30.165130
20
123.237150
30
0.0
11
31.572100
21
121.894240
31
0.0
0
LINE
8
0
6
CONTINUOUS
10
30.165130
20
123.237150
30
0.0
11
30.165130
21
123.747847
31
0.0
0
LINE
8
0
6
CONTINUOUS
10
28.087060
20
122.877720
30
0.0
11
30.165130
21
123.237150
31
0.0
0
LINE
8
0
6
CONTINUOUS
10
28.087060
20
122.877720
30
0.0
11
28.087059
21
123.269255
31
0.0
0
LINE
8
0
6
CONTINUOUS
10
27.415940
20
121.175360
30
0.0
11
28.087060
21
122.877720
31
0.0
0
LINE
8
0
6
CONTINUOUS
10
27.415939
20
121.685532
30
0.0
11
27.415940
21
121.175360
31
0.0
0
LINE
8
0
6
CONTINUOUS
10
30.900970
20
120.191870
30
0.0
11
31.572100
21
121.894240
31
0.0
0
LINE
8
0
6
CONTINUOUS
10
28.822900
20
119.832420
30
0.0
11
30.900970
21
120.191870
31
0.0
0
LINE
8
0
6
CONTINUOUS
10
27.415940
20
121.175360
30
0.0
11
28.822900
21
119.832420
31
0.0
0
LINE
8
0
6
CONTINUOUS
10
28.087060
20
122.877720
30
0.0
11
27.415940
21
121.175360
31
0.0
0
LINE
8
0
6
CONTINUOUS
10
30.165130
20
123.237150
30
0.0
11
28.087060
21
122.877720
31
0.0
0
LINE
8
0
6
CONTINUOUS
10
31.572100
20
121.894240
30
0.0
11
30.165130
21
123.237150
31
0.0
0
LINE
8
0
6
CONTINUOUS
10
38.510350
20
129.077030
30
0.0
11
38.510347
21
129.836313
31
0.0
0
LINE
8
0
6
CONTINUOUS
10
36.765510
20
130.097360
30
0.0
11
38.510350
21
129.077030
31
0.0
0
LINE
8
0
6
CONTINUOUS
10
36.765510
20
130.097360
30
0.0
11
36.765508
21
130.618675
31
0.0
0
LINE
8
0
6
CONTINUOUS
10
34.848660
20
129.329080
30
0.0
11
36.765510
21
130.097360
31
0.0
0
LINE
8
0
6
CONTINUOUS
10
34.848660
20
129.329080
30
0.0
11
34.848659
21
129.726213
31
0.0
0
LINE
8
0
6
CONTINUOUS
10
34.676660
20
127.540430
30
0.0
11
34.848660
21
129.329080
31
0.0
0
LINE
8
0
6
CONTINUOUS
10
34.676659
20
128.051361
30
0.0
11
34.676660
21
127.540430
31
0.0
0
LINE
8
0
6
CONTINUOUS
10
38.338350
20
127.288360
30
0.0
11
38.510350
21
129.077030
31
0.0
0
LINE
8
0
6
CONTINUOUS
10
36.421510
20
126.520060
30
0.0
11
38.338350
21
127.288360
31
0.0
0
LINE
8
0
6
CONTINUOUS
10
34.676660
20
127.540430
30
0.0
11
36.421510
21
126.520060
31
0.0
0
LINE
8
0
6
CONTINUOUS
10
34.848660
20
129.329080
30
0.0
11
34.676660
21
127.540430
31
0.0
0
LINE
8
0
6
CONTINUOUS
10
36.765510
20
130.097360
30
0.0
11
34.848660
21
129.329080
31
0.0
0
LINE
8
0
6
CONTINUOUS
10
38.510350
20
129.077030
30
0.0
11
36.765510
21
130.097360
31
0.0
0
LINE
8
0
6
CONTINUOUS
10
43.578850
20
135.707600
30
0.0
11
43.578848
21
136.586799
31
0.0
0
LINE
8
0
6
CONTINUOUS
10
43.238280
20
137.478890
30
0.0
11
43.578850
21
135.707600
31
0.0
0
LINE
8
0
6
CONTINUOUS
10
43.238280
20
137.478890
30
0.0
11
43.238277
21
138.248111
31
0.0
0
LINE
8
0
6
CONTINUOUS
10
41.254940
20
138.114980
30
0.0
11
43.238280
21
137.478890
31
0.0
0
LINE
8
0
6
CONTINUOUS
10
41.254940
20
138.114980
30
0.0
11
41.254938
21
138.645737
31
0.0
0
LINE
8
0
6
CONTINUOUS
10
39.612170
20
136.979790
30
0.0
11
41.254940
21
138.114980
31
0.0
0
LINE
8
0
6
CONTINUOUS
10
39.612168
20
137.382061
30
0.0
11
39.612170
21
136.979790
31
0.0
0
LINE
8
0
6
CONTINUOUS
10
43.578850
20
135.707600
30
0.0
11
43.238280
21
137.478890
31
0.0
0
LINE
8
0
6
CONTINUOUS
10
41.936070
20
134.572410
30
0.0
11
43.578850
21
135.707600
31
0.0
0
LINE
8
0
6
CONTINUOUS
10
39.952740
20
135.208500
30
0.0
11
41.936070
21
134.572410
31
0.0
0
LINE
8
0
6
CONTINUOUS
10
39.612170
20
136.979790
30
0.0
11
39.952740
21
135.208500
31
0.0
0
LINE
8
0
6
CONTINUOUS
10
41.254940
20
138.114980
30
0.0
11
39.612170
21
136.979790
31
0.0
0
LINE
8
0
6
CONTINUOUS
10
43.238280
20
137.478890
30
0.0
11
41.254940
21
138.114980
31
0.0
0
LINE
8
0
6
CONTINUOUS
10
46.294680
20
144.959210
30
0.0
11
46.294674
21
145.843004
31
0.0
0
LINE
8
0
6
CONTINUOUS
10
45.460480
20
146.609190
30
0.0
11
46.294680
21
144.959210
31
0.0
0
LINE
8
0
6
CONTINUOUS
10
45.460480
20
146.609190
30
0.0
11
45.460475
21
147.388916
31
0.0
0
LINE
8
0
6
CONTINUOUS
10
43.354520
20
146.822900
30
0.0
11
45.460480
21
146.609190
31
0.0
0
LINE
8
0
6
CONTINUOUS
10
43.354520
20
146.822900
30
0.0
11
43.354517
21
147.365617
31
0.0
0
LINE
8
0
6
CONTINUOUS
10
42.082750
20
145.386710
30
0.0
11
43.354520
21
146.822900
31
0.0
0
LINE
8
0
6
CONTINUOUS
10
42.082748
20
145.796465
30
0.0
11
42.082750
21
145.386710
31
0.0
0
LINE
8
0
6
CONTINUOUS
10
46.294680
20
144.959210
30
0.0
11
45.460480
21
146.609190
31
0.0
0
LINE
8
0
6
CONTINUOUS
10
45.022920
20
143.523020
30
0.0
11
46.294680
21
144.959210
31
0.0
0
LINE
8
0
6
CONTINUOUS
10
42.916960
20
143.736780
30
0.0
11
45.022920
21
143.523020
31
0.0
0
LINE
8
0
6
CONTINUOUS
10
42.082750
20
145.386710
30
0.0
11
42.916960
21
143.736780
31
0.0
0
LINE
8
0
6
CONTINUOUS
10
43.354520
20
146.822900
30
0.0
11
42.082750
21
145.386710
31
0.0
0
LINE
8
0
6
CONTINUOUS
10
45.460480
20
146.609190
30
0.0
11
43.354520
21
146.822900
31
0.0
0
LINE
8
0
6
CONTINUOUS
10
46.294680
20
154.425390
30
0.0
11
46.294674
21
155.323582
31
0.0
0
LINE
8
0
6
CONTINUOUS
10
45.022910
20
155.861580
30
0.0
11
46.294680
21
154.425390
31
0.0
0
LINE
8
0
6
CONTINUOUS
10
45.022910
20
155.861580
30
0.0
11
45.022903
21
156.646867
31
0.0
0
LINE
8
0
6
CONTINUOUS
10
42.916950
20
155.647840
30
0.0
11
45.022910
21
155.861580
31
0.0
0
LINE
8
0
6
CONTINUOUS
10
42.916950
20
155.647840
30
0.0
11
42.916945
21
156.195143
31
0.0
0
LINE
8
0
6
CONTINUOUS
10
42.082740
20
153.997870
30
0.0
11
42.916950
21
155.647840
31
0.0
0
LINE
8
0
6
CONTINUOUS
10
42.082739
20
154.419390
30
0.0
11
42.082740
21
153.997870
31
0.0
0
LINE
8
0
6
CONTINUOUS
10
46.294680
20
154.425390
30
0.0
11
45.022910
21
155.861580
31
0.0
0
LINE
8
0
6
CONTINUOUS
10
45.460480
20
152.775430
30
0.0
11
46.294680
21
154.425390
31
0.0
0
LINE
8
0
6
CONTINUOUS
10
43.354510
20
152.561700
30
0.0
11
45.460480
21
152.775430
31
0.0
0
LINE
8
0
6
CONTINUOUS
10
42.082740
20
153.997870
30
0.0
11
43.354510
21
152.561700
31
0.0
0
LINE
8
0
6
CONTINUOUS
10
42.916950
20
155.647840
30
0.0
11
42.082740
21
153.997870
31
0.0
0
LINE
8
0
6
CONTINUOUS
10
45.022910
20
155.861580
30
0.0
11
42.916950
21
155.647840
31
0.0
0
LINE
8
0
6
CONTINUOUS
10
43.578800
20
163.675210
30
0.0
11
43.578794
21
164.646928
31
0.0
0
LINE
8
0
6
CONTINUOUS
10
41.936030
20
164.810360
30
0.0
11
43.578800
21
163.675210
31
0.0
0
LINE
8
0
6
CONTINUOUS
10
41.936030
20
164.810360
30
0.0
11
41.936024
21
165.674989
31
0.0
0
LINE
8
0
6
CONTINUOUS
10
39.952680
20
164.174290
30
0.0
11
41.936030
21
164.810360
31
0.0
0
LINE
8
0
6
CONTINUOUS
10
39.952680
20
164.174290
30
0.0
11
39.952676
21
164.779395
31
0.0
0
LINE
8
0
6
CONTINUOUS
10
39.612130
20
162.403000
30
0.0
11
39.952680
21
164.174290
31
0.0
0
LINE
8
0
6
CONTINUOUS
10
39.612126
20
162.855865
30
0.0
11
39.612130
21
162.403000
31
0.0
0
LINE
8
0
6
CONTINUOUS
10
43.578800
20
163.675210
30
0.0
11
41.936030
21
164.810360
31
0.0
0
LINE
8
0
6
CONTINUOUS
10
43.238240
20
161.903920
30
0.0
11
43.578800
21
163.675210
31
0.0
0
LINE
8
0
6
CONTINUOUS
10
41.254900
20
161.267800
30
0.0
11
43.238240
21
161.903920
31
0.0
0
LINE
8
0
6
CONTINUOUS
10
39.612130
20
162.403000
30
0.0
11
41.254900
21
161.267800
31
0.0
0
LINE
8
0
6
CONTINUOUS
10
39.952680
20
164.174290
30
0.0
11
39.612130
21
162.403000
31
0.0
0
LINE
8
0
6
CONTINUOUS
10
41.936030
20
164.810360
30
0.0
11
39.952680
21
164.174290
31
0.0
0
LINE
8
0
6
CONTINUOUS
10
36.421410
20
172.862920
30
0.0
11
38.338260
21
172.094610
31
0.0
0
LINE
8
0
6
CONTINUOUS
10
36.421410
20
172.862920
30
0.0
11
36.421406
21
173.723072
31
0.0
0
LINE
8
0
6
CONTINUOUS
10
34.676580
20
171.842570
30
0.0
11
36.421410
21
172.862920
31
0.0
0
LINE
8
0
6
CONTINUOUS
10
34.676575
20
172.446256
30
0.0
11
34.676580
21
171.842570
31
0.0
0
LINE
8
0
6
CONTINUOUS
10
38.338260
20
172.094610
30
0.0
11
36.421410
21
172.862920
31
0.0
0
LINE
8
0
6
CONTINUOUS
10
38.510270
20
170.305950
30
0.0
11
38.338260
21
172.094610
31
0.0
0
LINE
8
0
6
CONTINUOUS
10
36.765430
20
169.285600
30
0.0
11
38.510270
21
170.305950
31
0.0
0
LINE
8
0
6
CONTINUOUS
10
34.848580
20
170.053910
30
0.0
11
36.765430
21
169.285600
31
0.0
0
LINE
8
0
6
CONTINUOUS
10
34.676580
20
171.842570
30
0.0
11
34.848580
21
170.053910
31
0.0
0
LINE
8
0
6
CONTINUOUS
10
36.421410
20
172.862920
30
0.0
11
34.676580
21
171.842570
31
0.0
0
LINE
8
0
6
CONTINUOUS
10
38.510270
20
170.305950
30
0.0
11
38.510264
21
171.183731
31
0.0
0
LINE
8
0
6
CONTINUOUS
10
38.338260
20
172.094610
30
0.0
11
38.510270
21
170.305950
31
0.0
0
LINE
8
0
6
CONTINUOUS
10
38.338256
20
173.091822
30
0.0
11
38.338260
21
172.094610
31
0.0
0
LINE
8
0
6
CONTINUOUS
10
28.822770
20
179.558820
30
0.0
11
30.900850
21
179.199400
31
0.0
0
LINE
8
0
6
CONTINUOUS
10
28.822770
20
179.558820
30
0.0
11
28.822764
21
180.455008
31
0.0
0
LINE
8
0
6
CONTINUOUS
10
27.415820
20
178.215900
30
0.0
11
28.822770
21
179.558820
31
0.0
0
LINE
8
0
6
CONTINUOUS
10
27.415816
20
178.849851
30
0.0
11
27.415820
21
178.215900
31
0.0
0
LINE
8
0
6
CONTINUOUS
10
30.900850
20
179.199400
30
0.0
11
28.822770
21
179.558820
31
0.0
0
LINE
8
0
6
CONTINUOUS
10
31.571980
20
177.497060
30
0.0
11
30.900850
21
179.199400
31
0.0
0
LINE
8
0
6
CONTINUOUS
10
30.165020
20
176.154130
30
0.0
11
31.571980
21
177.497060
31
0.0
0
LINE
8
0
6
CONTINUOUS
10
28.086940
20
176.513510
30
0.0
11
30.165020
21
176.154130
31
0.0
0
LINE
8
0
6
CONTINUOUS
10
27.415820
20
178.215900
30
0.0
11
28.086940
21
176.513510
31
0.0
0
LINE
8
0
6
CONTINUOUS
10
28.822770
20
179.558820
30
0.0
11
27.415820
21
178.215900
31
0.0
0
LINE
8
0
6
CONTINUOUS
10
31.571980
20
177.497060
30
0.0
11
31.571974
21
178.386220
31
0.0
0
LINE
8
0
6
CONTINUOUS
10
30.900850
20
179.199400
30
0.0
11
31.571980
21
177.497060
31
0.0
0
LINE
8
0
6
CONTINUOUS
10
30.900843
20
180.223189
30
0.0
11
30.900850
21
179.199400
31
0.0
0
LINE
8
0
6
CONTINUOUS
10
19.545540
20
184.520560
30
0.0
11
21.664930
21
184.591940
31
0.0
0
LINE
8
0
6
CONTINUOUS
10
19.545540
20
184.520560
30
0.0
11
19.545534
21
185.439490
31
0.0
0
LINE
8
0
6
CONTINUOUS
10
18.558900
20
182.932010
30
0.0
11
19.545540
21
184.520560
31
0.0
0
LINE
8
0
6
CONTINUOUS
10
18.558896
20
183.588709
30
0.0
11
18.558900
21
182.932010
31
0.0
0
LINE
8
0
6
CONTINUOUS
10
21.664930
20
184.591940
30
0.0
11
19.545540
21
184.520560
31
0.0
0
LINE
8
0
6
CONTINUOUS
10
22.797660
20
183.074720
30
0.0
11
21.664930
21
184.591940
31
0.0
0
LINE
8
0
6
CONTINUOUS
10
21.811020
20
181.486120
30
0.0
11
22.797660
21
183.074720
31
0.0
0
LINE
8
0
6
CONTINUOUS
10
19.691630
20
181.414770
30
0.0
11
21.811020
21
181.486120
31
0.0
0
LINE
8
0
6
CONTINUOUS
10
18.558900
20
182.932010
30
0.0
11
19.691630
21
181.414770
31
0.0
0
LINE
8
0
6
CONTINUOUS
10
19.545540
20
184.520560
30
0.0
11
18.558900
21
182.932010
31
0.0
0
LINE
8
0
6
CONTINUOUS
10
22.797660
20
183.074720
30
0.0
11
22.797656
21
183.980850
31
0.0
0
LINE
8
0
6
CONTINUOUS
10
21.664930
20
184.591940
30
0.0
11
22.797660
21
183.074720
31
0.0
0
LINE
8
0
6
CONTINUOUS
10
21.664923
20
185.634184
30
0.0
11
21.664930
21
184.591940
31
0.0
0
LINE
8
0
6
CONTINUOUS
10
9.100640
20
187.491940
30
0.0
11
11.137340
21
187.992990
31
0.0
0
LINE
8
0
6
CONTINUOUS
10
9.100640
20
187.491940
30
0.0
11
9.100636
21
188.422067
31
0.0
0
LINE
8
0
6
CONTINUOUS
10
8.595200
20
185.749050
30
0.0
11
9.100640
21
187.491940
31
0.0
0
LINE
8
0
6
CONTINUOUS
10
8.595197
20
186.415555
30
0.0
11
8.595200
21
185.749050
31
0.0
0
LINE
8
0
6
CONTINUOUS
10
11.137340
20
187.992990
30
0.0
11
9.100640
21
187.491940
31
0.0
0
LINE
8
0
6
CONTINUOUS
10
12.668600
20
186.751210
30
0.0
11
11.137340
21
187.992990
31
0.0
0
LINE
8
0
6
CONTINUOUS
10
12.163160
20
185.008370
30
0.0
11
12.668600
21
186.751210
31
0.0
0
LINE
8
0
6
CONTINUOUS
10
10.126460
20
184.507270
30
0.0
11
12.163160
21
185.008370
31
0.0
0
LINE
8
0
6
CONTINUOUS
10
8.595200
20
185.749050
30
0.0
11
10.126460
21
184.507270
31
0.0
0
LINE
8
0
6
CONTINUOUS
10
9.100640
20
187.491940
30
0.0
11
8.595200
21
185.749050
31
0.0
0
LINE
8
0
6
CONTINUOUS
10
12.668600
20
186.751210
30
0.0
11
12.668594
21
187.676018
31
0.0
0
LINE
8
0
6
CONTINUOUS
10
11.137340
20
187.992990
30
0.0
11
12.668600
21
186.751210
31
0.0
0
LINE
8
0
6
CONTINUOUS
10
11.137333
20
189.041209
30
0.0
11
11.137340
21
187.992990
31
0.0
0
LINE
8
0
6
CONTINUOUS
10
-1.836930
20
179.787550
30
0.0
11
-0.000040
21
180.684810
31
0.0
0
LINE
8
0
6
CONTINUOUS
10
-1.836930
20
179.787550
30
0.0
11
-1.836933
21
180.558136
31
0.0
0
LINE
8
0
6
CONTINUOUS
10
-1.836930
20
177.993010
30
0.0
11
-1.836930
21
179.787550
31
0.0
0
LINE
8
0
6
CONTINUOUS
10
-0.000040
20
180.684810
30
0.0
11
-1.836930
21
179.787550
31
0.0
0
LINE
8
0
6
CONTINUOUS
10
1.836850
20
179.787570
30
0.0
11
-0.000040
21
180.684810
31
0.0
0
LINE
8
0
6
CONTINUOUS
10
1.836860
20
177.993010
30
0.0
11
1.836850
21
179.787570
31
0.0
0
LINE
8
0
6
CONTINUOUS
10
-0.000040
20
177.095710
30
0.0
11
1.836860
21
177.993010
31
0.0
0
LINE
8
0
6
CONTINUOUS
10
-1.836930
20
177.993010
30
0.0
11
-0.000040
21
177.095710
31
0.0
0
LINE
8
0
6
CONTINUOUS
10
-1.836930
20
179.787550
30
0.0
11
-1.836930
21
177.993010
31
0.0
0
LINE
8
0
6
CONTINUOUS
10
1.836850
20
179.787570
30
0.0
11
1.836848
21
180.558156
31
0.0
0
LINE
8
0
6
CONTINUOUS
10
-0.000040
20
180.684810
30
0.0
11
1.836850
21
179.787570
31
0.0
0
LINE
8
0
6
CONTINUOUS
10
-0.000044
20
181.545010
30
0.0
11
-0.000040
21
180.684810
31
0.0
0
LINE
8
0
6
CONTINUOUS
10
-13.644450
20
168.445980
30
0.0
11
-12.450220
21
169.929040
31
0.0
0
LINE
8
0
6
CONTINUOUS
10
-13.644450
20
169.082141
30
0.0
11
-13.644450
21
168.445980
31
0.0
0
LINE
8
0
6
CONTINUOUS
10
-12.450220
20
169.929040
30
0.0
11
-13.644450
21
168.445980
31
0.0
0
LINE
8
0
6
CONTINUOUS
10
-10.335030
20
169.795560
30
0.0
11
-12.450220
21
169.929040
31
0.0
0
LINE
8
0
6
CONTINUOUS
10
-9.414080
20
168.179000
30
0.0
11
-10.335030
21
169.795560
31
0.0
0
LINE
8
0
6
CONTINUOUS
10
-10.608310
20
166.695910
30
0.0
11
-9.414080
21
168.179000
31
0.0
0
LINE
8
0
6
CONTINUOUS
10
-12.723500
20
166.829390
30
0.0
11
-10.608310
21
166.695910
31
0.0
0
LINE
8
0
6
CONTINUOUS
10
-13.644450
20
168.445980
30
0.0
11
-12.723500
21
166.829390
31
0.0
0
LINE
8
0
6
CONTINUOUS
10
-12.450220
20
169.929040
30
0.0
11
-10.335030
21
169.795560
31
0.0
0
LINE
8
0
6
CONTINUOUS
10
-12.450220
20
170.657856
30
0.0
11
-12.450220
21
169.929040
31
0.0
0
LINE
8
0
6
CONTINUOUS
10
-9.414080
20
168.179000
30
0.0
11
-9.414081
21
168.639914
31
0.0
0
LINE
8
0
6
CONTINUOUS
10
-10.335030
20
169.795560
30
0.0
11
-9.414080
21
168.179000
31
0.0
0
LINE
8
0
6
CONTINUOUS
10
-10.335031
20
170.438737
30
0.0
11
-10.335030
21
169.795560
31
0.0
0
LINE
8
0
6
CONTINUOUS
10
-22.773510
20
161.435080
30
0.0
11
-22.456320
21
163.209470
31
0.0
0
LINE
8
0
6
CONTINUOUS
10
-22.773507
20
162.062332
30
0.0
11
-22.773510
21
161.435080
31
0.0
0
LINE
8
0
6
CONTINUOUS
10
-22.456320
20
163.209470
30
0.0
11
-22.773510
21
161.435080
31
0.0
0
LINE
8
0
6
CONTINUOUS
10
-20.481480
20
163.864260
30
0.0
11
-22.456320
21
163.209470
31
0.0
0
LINE
8
0
6
CONTINUOUS
10
-18.823840
20
162.744650
30
0.0
11
-20.481480
21
163.864260
31
0.0
0
LINE
8
0
6
CONTINUOUS
10
-19.141030
20
160.970280
30
0.0
11
-18.823840
21
162.744650
31
0.0
0
LINE
8
0
6
CONTINUOUS
10
-21.115860
20
160.315490
30
0.0
11
-19.141030
21
160.970280
31
0.0
0
LINE
8
0
6
CONTINUOUS
10
-22.773510
20
161.435080
30
0.0
11
-21.115860
21
160.315490
31
0.0
0
LINE
8
0
6
CONTINUOUS
10
-22.456320
20
163.209470
30
0.0
11
-20.481480
21
163.864260
31
0.0
0
LINE
8
0
6
CONTINUOUS
10
-22.456317
20
163.924014
30
0.0
11
-22.456320
21
163.209470
31
0.0
0
LINE
8
0
6
CONTINUOUS
10
-18.823840
20
162.744650
30
0.0
11
-18.823839
21
163.197704
31
0.0
0
LINE
8
0
6
CONTINUOUS
10
-20.481480
20
163.864260
30
0.0
11
-18.823840
21
162.744650
31
0.0
0
LINE
8
0
6
CONTINUOUS
10
-20.481479
20
164.498083
30
0.0
11
-20.481480
21
163.864260
31
0.0
0
LINE
8
0
6
CONTINUOUS
10
-23.846840
20
152.666540
30
0.0
11
-23.846838
21
153.005532
31
0.0
0
LINE
8
0
6
CONTINUOUS
10
-24.474320
20
154.380790
30
0.0
11
-23.846840
21
152.666540
31
0.0
0
LINE
8
0
6
CONTINUOUS
10
-27.983660
20
153.461250
30
0.0
11
-27.356180
21
151.746990
31
0.0
0
LINE
8
0
6
CONTINUOUS
10
-26.542730
20
154.778140
30
0.0
11
-27.983660
21
153.461250
31
0.0
0
LINE
8
0
6
CONTINUOUS
10
-24.474320
20
154.380790
30
0.0
11
-26.542730
21
154.778140
31
0.0
0
LINE
8
0
6
CONTINUOUS
10
-23.846840
20
152.666540
30
0.0
11
-24.474320
21
154.380790
31
0.0
0
LINE
8
0
6
CONTINUOUS
10
-25.287760
20
151.349670
30
0.0
11
-23.846840
21
152.666540
31
0.0
0
LINE
8
0
6
CONTINUOUS
10
-27.356180
20
151.746990
30
0.0
11
-25.287760
21
151.349670
31
0.0
0
LINE
8
0
6
CONTINUOUS
10
-27.983660
20
153.461250
30
0.0
11
-26.542730
21
154.778140
31
0.0
0
LINE
8
0
6
CONTINUOUS
10
-27.983657
20
154.158932
30
0.0
11
-27.983660
21
153.461250
31
0.0
0
LINE
8
0
6
CONTINUOUS
10
-24.474320
20
154.380790
30
0.0
11
-24.474318
21
154.817659
31
0.0
0
LINE
8
0
6
CONTINUOUS
10
-26.542730
20
154.778140
30
0.0
11
-24.474320
21
154.380790
31
0.0
0
LINE
8
0
6
CONTINUOUS
10
-26.542727
20
155.393316
30
0.0
11
-26.542730
21
154.778140
31
0.0
0
LINE
8
0
6
CONTINUOUS
10
-23.846830
20
143.449380
30
0.0
11
-23.846828
21
143.774330
31
0.0
0
LINE
8
0
6
CONTINUOUS
10
-25.287760
20
144.766280
30
0.0
11
-23.846830
21
143.449380
31
0.0
0
LINE
8
0
6
CONTINUOUS
10
-27.983650
20
142.654670
30
0.0
11
-26.542720
21
141.337780
31
0.0
0
LINE
8
0
6
CONTINUOUS
10
-27.356170
20
144.368910
30
0.0
11
-27.983650
21
142.654670
31
0.0
0
LINE
8
0
6
CONTINUOUS
10
-25.287760
20
144.766280
30
0.0
11
-27.356170
21
144.368910
31
0.0
0
LINE
8
0
6
CONTINUOUS
10
-23.846830
20
143.449380
30
0.0
11
-25.287760
21
144.766280
31
0.0
0
LINE
8
0
6
CONTINUOUS
10
-24.474310
20
141.735140
30
0.0
11
-23.846830
21
143.449380
31
0.0
0
LINE
8
0
6
CONTINUOUS
10
-26.542720
20
141.337780
30
0.0
11
-24.474310
21
141.735140
31
0.0
0
LINE
8
0
6
CONTINUOUS
10
-27.983650
20
142.654670
30
0.0
11
-27.356170
21
144.368910
31
0.0
0
LINE
8
0
6
CONTINUOUS
10
-27.983646
20
143.338634
30
0.0
11
-27.983650
21
142.654670
31
0.0
0
LINE
8
0
6
CONTINUOUS
10
-25.287760
20
144.766280
30
0.0
11
-25.287757
21
145.189146
31
0.0
0
LINE
8
0
6
CONTINUOUS
10
-27.356170
20
144.368910
30
0.0
11
-25.287760
21
144.766280
31
0.0
0
LINE
8
0
6
CONTINUOUS
10
-27.356167
20
144.971294
30
0.0
11
-27.356170
21
144.368910
31
0.0
0
LINE
8
0
6
CONTINUOUS
10
-18.823820
20
133.370110
30
0.0
11
-18.823817
21
133.783226
31
0.0
0
LINE
8
0
6
CONTINUOUS
10
-19.141010
20
135.144490
30
0.0
11
-18.823820
21
133.370110
31
0.0
0
LINE
8
0
6
CONTINUOUS
10
-19.141010
20
135.144490
30
0.0
11
-19.141008
21
135.460677
31
0.0
0
LINE
8
0
6
CONTINUOUS
10
-21.115850
20
135.799270
30
0.0
11
-19.141010
21
135.144490
31
0.0
0
LINE
8
0
6
CONTINUOUS
10
-22.456290
20
132.905290
30
0.0
11
-20.481460
21
132.250490
31
0.0
0
LINE
8
0
6
CONTINUOUS
10
-22.773490
20
134.679640
30
0.0
11
-22.456290
21
132.905290
31
0.0
0
LINE
8
0
6
CONTINUOUS
10
-21.115850
20
135.799270
30
0.0
11
-22.773490
21
134.679640
31
0.0
0
LINE
8
0
6
CONTINUOUS
10
-19.141010
20
135.144490
30
0.0
11
-21.115850
21
135.799270
31
0.0
0
LINE
8
0
6
CONTINUOUS
10
-18.823820
20
133.370110
30
0.0
11
-19.141010
21
135.144490
31
0.0
0
LINE
8
0
6
CONTINUOUS
10
-20.481460
20
132.250490
30
0.0
11
-18.823820
21
133.370110
31
0.0
0
LINE
8
0
6
CONTINUOUS
10
-21.115850
20
135.799270
30
0.0
11
-21.115846
21
136.215551
31
0.0
0
LINE
8
0
6
CONTINUOUS
10
-22.773490
20
134.679640
30
0.0
11
-21.115850
21
135.799270
31
0.0
0
LINE
8
0
6
CONTINUOUS
10
-22.773486
20
135.274899
30
0.0
11
-22.773490
21
134.679640
31
0.0
0
LINE
8
0
6
CONTINUOUS
10
-9.414040
20
127.934470
30
0.0
11
-9.414038
21
128.313532
31
0.0
0
LINE
8
0
6
CONTINUOUS
10
-10.608280
20
129.417560
30
0.0
11
-9.414040
21
127.934470
31
0.0
0
LINE
8
0
6
CONTINUOUS
10
-10.608280
20
129.417560
30
0.0
11
-10.608278
21
129.724158
31
0.0
0
LINE
8
0
6
CONTINUOUS
10
-12.723460
20
129.284050
30
0.0
11
-10.608280
21
129.417560
31
0.0
0
LINE
8
0
6
CONTINUOUS
10
-12.450170
20
126.184390
30
0.0
11
-10.334990
21
126.317900
31
0.0
0
LINE
8
0
6
CONTINUOUS
10
-13.644410
20
127.667480
30
0.0
11
-12.450170
21
126.184390
31
0.0
0
LINE
8
0
6
CONTINUOUS
10
-12.723460
20
129.284050
30
0.0
11
-13.644410
21
127.667480
31
0.0
0
LINE
8
0
6
CONTINUOUS
10
-10.608280
20
129.417560
30
0.0
11
-12.723460
21
129.284050
31
0.0
0
LINE
8
0
6
CONTINUOUS
10
-9.414040
20
127.934470
30
0.0
11
-10.608280
21
129.417560
31
0.0
0
LINE
8
0
6
CONTINUOUS
10
-10.334990
20
126.317900
30
0.0
11
-9.414040
21
127.934470
31
0.0
0
LINE
8
0
6
CONTINUOUS
10
-12.723460
20
129.284050
30
0.0
11
-12.723458
21
129.688145
31
0.0
0
LINE
8
0
6
CONTINUOUS
10
-13.644410
20
127.667480
30
0.0
11
-12.723460
21
129.284050
31
0.0
0
LINE
8
0
6
CONTINUOUS
10
-13.644406
20
128.248127
30
0.0
11
-13.644410
21
127.667480
31
0.0
0
LINE
8
0
6
CONTINUOUS
10
1.836920
20
126.334730
30
0.0
11
1.836921
21
126.682520
31
0.0
0
LINE
8
0
6
CONTINUOUS
10
0.000020
20
127.231990
30
0.0
11
1.836920
21
126.334730
31
0.0
0
LINE
8
0
6
CONTINUOUS
10
0.000020
20
127.231990
30
0.0
11
0.000021
21
127.505774
31
0.0
0
LINE
8
0
6
CONTINUOUS
10
-1.836870
20
126.334740
30
0.0
11
-0.010269
21
127.226964
31
0.0
0
LINE
8
0
6
CONTINUOUS
10
-1.836869
20
126.682526
30
0.0
11
-1.836870
21
126.334740
31
0.0
0
LINE
8
0
6
CONTINUOUS
10
0.000030
20
123.642870
30
0.0
11
1.836920
21
124.540140
31
0.0
0
LINE
8
0
6
CONTINUOUS
10
-1.836870
20
124.540160
30
0.0
11
-0.022716
21
123.653981
31
0.0
0
LINE
8
0
6
CONTINUOUS
10
-1.836870
20
126.334740
30
0.0
11
-1.836870
21
124.540160
31
0.0
0
LINE
8
0
6
CONTINUOUS
10
0.000020
20
127.231990
30
0.0
11
-1.836870
21
126.334740
31
0.0
0
LINE
8
0
6
CONTINUOUS
10
1.836920
20
126.334730
30
0.0
11
0.010298
21
127.226970
31
0.0
0
LINE
8
0
6
CONTINUOUS
10
1.836920
20
124.540140
30
0.0
11
1.836920
21
126.334730
31
0.0
0
LINE
8
0
6
CONTINUOUS
10
13.644450
20
127.666770
30
0.0
11
13.644450
21
128.248166
31
0.0
0
LINE
8
0
6
CONTINUOUS
10
12.723500
20
129.283350
30
0.0
11
13.644450
21
127.666770
31
0.0
0
LINE
8
0
6
CONTINUOUS
10
12.723500
20
129.283350
30
0.0
11
12.723500
21
129.688184
31
0.0
0
LINE
8
0
6
CONTINUOUS
10
10.608310
20
129.416840
30
0.0
11
12.723500
21
129.283350
31
0.0
0
LINE
8
0
6
CONTINUOUS
10
10.608310
20
129.416840
30
0.0
11
10.608310
21
129.724186
31
0.0
0
LINE
8
0
6
CONTINUOUS
10
9.414080
20
127.933730
30
0.0
11
10.608310
21
129.416840
31
0.0
0
LINE
8
0
6
CONTINUOUS
10
9.414080
20
128.313551
30
0.0
11
9.414080
21
127.933730
31
0.0
0
LINE
8
0
6
CONTINUOUS
10
12.450220
20
126.183680
30
0.0
11
13.644450
21
127.666770
31
0.0
0
LINE
8
0
6
CONTINUOUS
10
10.335040
20
126.317160
30
0.0
11
12.450220
21
126.183680
31
0.0
0
LINE
8
0
6
CONTINUOUS
10
9.414080
20
127.933730
30
0.0
11
10.335040
21
126.317160
31
0.0
0
LINE
8
0
6
CONTINUOUS
10
10.608310
20
129.416840
30
0.0
11
9.414080
21
127.933730
31
0.0
0
LINE
8
0
6
CONTINUOUS
10
12.723500
20
129.283350
30
0.0
11
10.608310
21
129.416840
31
0.0
0
LINE
8
0
6
CONTINUOUS
10
13.644450
20
127.666770
30
0.0
11
12.723500
21
129.283350
31
0.0
0
LINE
8
0
6
CONTINUOUS
10
22.773500
20
134.680340
30
0.0
11
22.773500
21
135.274985
31
0.0
0
LINE
8
0
6
CONTINUOUS
10
21.115860
20
135.799920
30
0.0
11
22.773500
21
134.680340
31
0.0
0
LINE
8
0
6
CONTINUOUS
10
21.115860
20
135.799920
30
0.0
11
21.115859
21
136.215601
31
0.0
0
LINE
8
0
6
CONTINUOUS
10
19.141030
20
135.145140
30
0.0
11
21.115860
21
135.799920
31
0.0
0
LINE
8
0
6
CONTINUOUS
10
19.141030
20
135.145140
30
0.0
11
19.141029
21
135.460730
31
0.0
0
LINE
8
0
6
CONTINUOUS
10
18.823850
20
133.370770
30
0.0
11
19.141030
21
135.145140
31
0.0
0
LINE
8
0
6
CONTINUOUS
10
18.823848
20
133.783293
30
0.0
11
18.823850
21
133.370770
31
0.0
0
LINE
8
0
6
CONTINUOUS
10
22.456320
20
132.905950
30
0.0
11
22.773500
21
134.680340
31
0.0
0
LINE
8
0
6
CONTINUOUS
10
20.481490
20
132.251160
30
0.0
11
22.456320
21
132.905950
31
0.0
0
LINE
8
0
6
CONTINUOUS
10
18.823850
20
133.370770
30
0.0
11
20.481490
21
132.251160
31
0.0
0
LINE
8
0
6
CONTINUOUS
10
19.141030
20
135.145140
30
0.0
11
18.823850
21
133.370770
31
0.0
0
LINE
8
0
6
CONTINUOUS
10
21.115860
20
135.799920
30
0.0
11
19.141030
21
135.145140
31
0.0
0
LINE
8
0
6
CONTINUOUS
10
22.773500
20
134.680340
30
0.0
11
21.115860
21
135.799920
31
0.0
0
LINE
8
0
6
CONTINUOUS
10
27.983650
20
142.654970
30
0.0
11
27.983647
21
143.338708
31
0.0
0
LINE
8
0
6
CONTINUOUS
10
27.356170
20
144.369210
30
0.0
11
27.983650
21
142.654970
31
0.0
0
LINE
8
0
6
CONTINUOUS
10
27.356170
20
144.369210
30
0.0
11
27.356166
21
144.971361
31
0.0
0
LINE
8
0
6
CONTINUOUS
10
25.287750
20
144.766570
30
0.0
11
27.356170
21
144.369210
31
0.0
0
LINE
8
0
6
CONTINUOUS
10
25.287750
20
144.766570
30
0.0
11
25.287748
21
145.189210
31
0.0
0
LINE
8
0
6
CONTINUOUS
10
23.846820
20
143.449680
30
0.0
11
25.287750
21
144.766570
31
0.0
0
LINE
8
0
6
CONTINUOUS
10
23.846819
20
143.774406
30
0.0
11
23.846820
21
143.449680
31
0.0
0
LINE
8
0
6
CONTINUOUS
10
27.983650
20
142.654970
30
0.0
11
27.356170
21
144.369210
31
0.0
0
LINE
8
0
6
CONTINUOUS
10
26.542720
20
141.338090
30
0.0
11
27.983650
21
142.654970
31
0.0
0
LINE
8
0
6
CONTINUOUS
10
24.474300
20
141.735450
30
0.0
11
26.542720
21
141.338090
31
0.0
0
LINE
8
0
6
CONTINUOUS
10
23.846820
20
143.449680
30
0.0
11
24.474300
21
141.735450
31
0.0
0
LINE
8
0
6
CONTINUOUS
10
25.287750
20
144.766570
30
0.0
11
23.846820
21
143.449680
31
0.0
0
LINE
8
0
6
CONTINUOUS
10
27.356170
20
144.369210
30
0.0
11
25.287750
21
144.766570
31
0.0
0
LINE
8
0
6
CONTINUOUS
10
27.983640
20
153.461190
30
0.0
11
27.983636
21
154.159021
31
0.0
0
LINE
8
0
6
CONTINUOUS
10
26.542700
20
154.778060
30
0.0
11
27.983640
21
153.461190
31
0.0
0
LINE
8
0
6
CONTINUOUS
10
26.542700
20
154.778060
30
0.0
11
26.542696
21
155.393388
31
0.0
0
LINE
8
0
6
CONTINUOUS
10
24.474290
20
154.380700
30
0.0
11
26.542700
21
154.778060
31
0.0
0
LINE
8
0
6
CONTINUOUS
10
24.474290
20
154.380700
30
0.0
11
24.474287
21
154.817725
31
0.0
0
LINE
8
0
6
CONTINUOUS
10
23.846810
20
152.666480
30
0.0
11
24.474290
21
154.380700
31
0.0
0
LINE
8
0
6
CONTINUOUS
10
23.846808
20
153.005603
30
0.0
11
23.846810
21
152.666480
31
0.0
0
LINE
8
0
6
CONTINUOUS
10
27.983640
20
153.461190
30
0.0
11
26.542700
21
154.778060
31
0.0
0
LINE
8
0
6
CONTINUOUS
10
27.356150
20
151.746950
30
0.0
11
27.983640
21
153.461190
31
0.0
0
LINE
8
0
6
CONTINUOUS
10
25.287750
20
151.349580
30
0.0
11
27.356150
21
151.746950
31
0.0
0
LINE
8
0
6
CONTINUOUS
10
23.846810
20
152.666480
30
0.0
11
25.287750
21
151.349580
31
0.0
0
LINE
8
0
6
CONTINUOUS
10
24.474290
20
154.380700
30
0.0
11
23.846810
21
152.666480
31
0.0
0
LINE
8
0
6
CONTINUOUS
10
26.542700
20
154.778060
30
0.0
11
24.474290
21
154.380700
31
0.0
0
LINE
8
0
6
CONTINUOUS
10
20.481450
20
163.863610
30
0.0
11
22.456280
21
163.208840
31
0.0
0
LINE
8
0
6
CONTINUOUS
10
20.481450
20
163.863610
30
0.0
11
20.481446
21
164.498109
31
0.0
0
LINE
8
0
6
CONTINUOUS
10
18.823800
20
162.744040
30
0.0
11
20.481450
21
163.863610
31
0.0
0
LINE
8
0
6
CONTINUOUS
10
18.823797
20
163.197758
30
0.0
11
18.823800
21
162.744040
31
0.0
0
LINE
8
0
6
CONTINUOUS
10
22.456280
20
163.208840
30
0.0
11
20.481450
21
163.863610
31
0.0
0
LINE
8
0
6
CONTINUOUS
10
22.773470
20
161.434480
30
0.0
11
22.456280
21
163.208840
31
0.0
0
LINE
8
0
6
CONTINUOUS
10
21.115830
20
160.314840
30
0.0
11
22.773470
21
161.434480
31
0.0
0
LINE
8
0
6
CONTINUOUS
10
19.141000
20
160.969650
30
0.0
11
21.115830
21
160.314840
31
0.0
0
LINE
8
0
6
CONTINUOUS
10
18.823800
20
162.744040
30
0.0
11
19.141000
21
160.969650
31
0.0
0
LINE
8
0
6
CONTINUOUS
10
20.481450
20
163.863610
30
0.0
11
18.823800
21
162.744040
31
0.0
0
LINE
8
0
6
CONTINUOUS
10
22.773470
20
161.434480
30
0.0
11
22.773466
21
162.062394
31
0.0
0
LINE
8
0
6
CONTINUOUS
10
22.456280
20
163.208840
30
0.0
11
22.773470
21
161.434480
31
0.0
0
LINE
8
0
6
CONTINUOUS
10
22.456275
20
163.924057
30
0.0
11
22.456280
21
163.208840
31
0.0
0
LINE
8
0
6
CONTINUOUS
10
10.334970
20
169.796250
30
0.0
11
12.450150
21
169.929730
31
0.0
0
LINE
8
0
6
CONTINUOUS
10
10.334970
20
169.796250
30
0.0
11
10.334966
21
170.438778
31
0.0
0
LINE
8
0
6
CONTINUOUS
10
9.414020
20
168.179650
30
0.0
11
10.334970
21
169.796250
31
0.0
0
LINE
8
0
6
CONTINUOUS
10
9.414017
20
168.639933
30
0.0
11
9.414020
21
168.179650
31
0.0
0
LINE
8
0
6
CONTINUOUS
10
12.450150
20
169.929730
30
0.0
11
10.334970
21
169.796250
31
0.0
0
LINE
8
0
6
CONTINUOUS
10
13.644390
20
168.446650
30
0.0
11
12.450150
21
169.929730
31
0.0
0
LINE
8
0
6
CONTINUOUS
10
12.723440
20
166.830080
30
0.0
11
13.644390
21
168.446650
31
0.0
0
LINE
8
0
6
CONTINUOUS
10
10.608260
20
166.696580
30
0.0
11
12.723440
21
166.830080
31
0.0
0
LINE
8
0
6
CONTINUOUS
10
9.414020
20
168.179650
30
0.0
11
10.608260
21
166.696580
31
0.0
0
LINE
8
0
6
CONTINUOUS
10
10.334970
20
169.796250
30
0.0
11
9.414020
21
168.179650
31
0.0
0
LINE
8
0
6
CONTINUOUS
10
13.644390
20
168.446650
30
0.0
11
13.644386
21
169.082183
31
0.0
0
LINE
8
0
6
CONTINUOUS
10
12.450150
20
169.929730
30
0.0
11
13.644390
21
168.446650
31
0.0
0
LINE
8
0
6
CONTINUOUS
10
12.450147
20
170.657898
30
0.0
11
12.450150
21
169.929730
31
0.0
0
LINE
8
0
6
CONTINUOUS
10
-13.047050
20
177.749170
30
0.0
11
-11.626940
21
179.082120
31
0.0
0
LINE
8
0
6
CONTINUOUS
10
-13.047052
20
178.498639
30
0.0
11
-13.047050
21
177.749170
31
0.0
0
LINE
8
0
6
CONTINUOUS
10
-11.626940
20
179.082120
30
0.0
11
-13.047050
21
177.749170
31
0.0
0
LINE
8
0
6
CONTINUOUS
10
-9.552470
20
178.708090
30
0.0
11
-11.626940
21
179.082120
31
0.0
0
LINE
8
0
6
CONTINUOUS
10
-8.898110
20
177.001050
30
0.0
11
-9.552470
21
178.708090
31
0.0
0
LINE
8
0
6
CONTINUOUS
10
-10.318220
20
175.668060
30
0.0
11
-8.898110
21
177.001050
31
0.0
0
LINE
8
0
6
CONTINUOUS
10
-12.392700
20
176.042130
30
0.0
11
-10.318220
21
175.668060
31
0.0
0
LINE
8
0
6
CONTINUOUS
10
-13.047050
20
177.749170
30
0.0
11
-12.392700
21
176.042130
31
0.0
0
LINE
8
0
6
CONTINUOUS
10
-11.626940
20
179.082120
30
0.0
11
-9.552470
21
178.708090
31
0.0
0
LINE
8
0
6
CONTINUOUS
10
-11.626940
20
179.933051
30
0.0
11
-11.626940
21
179.082120
31
0.0
0
LINE
8
0
6
CONTINUOUS
10
-8.898110
20
177.001050
30
0.0
11
-8.898110
21
177.545362
31
0.0
0
LINE
8
0
6
CONTINUOUS
10
-9.552470
20
178.708090
30
0.0
11
-8.898110
21
177.001050
31
0.0
0
LINE
8
0
6
CONTINUOUS
10
-9.552472
20
179.456280
30
0.0
11
-9.552470
21
178.708090
31
0.0
0
LINE
8
0
6
CONTINUOUS
10
-23.004990
20
172.925470
30
0.0
11
-22.143470
21
174.565350
31
0.0
0
LINE
8
0
6
CONTINUOUS
10
-23.004990
20
173.664132
30
0.0
11
-23.004990
21
172.925470
31
0.0
0
LINE
8
0
6
CONTINUOUS
10
-22.143470
20
174.565350
30
0.0
11
-23.004990
21
172.925470
31
0.0
0
LINE
8
0
6
CONTINUOUS
10
-20.034160
20
174.754020
30
0.0
11
-22.143470
21
174.565350
31
0.0
0
LINE
8
0
6
CONTINUOUS
10
-18.786380
20
173.302830
30
0.0
11
-20.034160
21
174.754020
31
0.0
0
LINE
8
0
6
CONTINUOUS
10
-19.647910
20
171.662950
30
0.0
11
-18.786380
21
173.302830
31
0.0
0
LINE
8
0
6
CONTINUOUS
10
-21.757220
20
171.474280
30
0.0
11
-19.647910
21
171.662950
31
0.0
0
LINE
8
0
6
CONTINUOUS
10
-23.004990
20
172.925470
30
0.0
11
-21.757220
21
171.474280
31
0.0
0
LINE
8
0
6
CONTINUOUS
10
-22.143470
20
174.565350
30
0.0
11
-20.034160
21
174.754020
31
0.0
0
LINE
8
0
6
CONTINUOUS
10
-22.143468
20
175.401407
30
0.0
11
-22.143470
21
174.565350
31
0.0
0
LINE
8
0
6
CONTINUOUS
10
-18.786380
20
173.302830
30
0.0
11
-18.786380
21
173.842609
31
0.0
0
LINE
8
0
6
CONTINUOUS
10
-20.034160
20
174.754020
30
0.0
11
-18.786380
21
173.302830
31
0.0
0
LINE
8
0
6
CONTINUOUS
10
-20.034158
20
175.497406
30
0.0
11
-20.034160
21
174.754020
31
0.0
0
LINE
8
0
6
CONTINUOUS
10
-30.688070
20
165.740030
30
0.0
11
-30.465080
21
167.524600
31
0.0
0
LINE
8
0
6
CONTINUOUS
10
-30.688068
20
166.467918
30
0.0
11
-30.688070
21
165.740030
31
0.0
0
LINE
8
0
6
CONTINUOUS
10
-30.465080
20
167.524600
30
0.0
11
-30.688070
21
165.740030
31
0.0
0
LINE
8
0
6
CONTINUOUS
10
-28.526860
20
168.253550
30
0.0
11
-30.465080
21
167.524600
31
0.0
0
LINE
8
0
6
CONTINUOUS
10
-26.811650
20
167.197850
30
0.0
11
-28.526860
21
168.253550
31
0.0
0
LINE
8
0
6
CONTINUOUS
10
-27.034650
20
165.413230
30
0.0
11
-26.811650
21
167.197850
31
0.0
0
LINE
8
0
6
CONTINUOUS
10
-28.972860
20
164.684320
30
0.0
11
-27.034650
21
165.413230
31
0.0
0
LINE
8
0
6
CONTINUOUS
10
-30.688070
20
165.740030
30
0.0
11
-28.972860
21
164.684320
31
0.0
0
LINE
8
0
6
CONTINUOUS
10
-30.465080
20
167.524600
30
0.0
11
-28.526860
21
168.253550
31
0.0
0
LINE
8
0
6
CONTINUOUS
10
-30.465078
20
168.348220
30
0.0
11
-30.465080
21
167.524600
31
0.0
0
LINE
8
0
6
CONTINUOUS
10
-26.811650
20
167.197850
30
0.0
11
-26.811649
21
167.724637
31
0.0
0
LINE
8
0
6
CONTINUOUS
10
-28.526860
20
168.253550
30
0.0
11
-26.811650
21
167.197850
31
0.0
0
LINE
8
0
6
CONTINUOUS
10
-28.526858
20
168.982439
30
0.0
11
-28.526860
21
168.253550
31
0.0
0
LINE
8
0
6
CONTINUOUS
10
-31.768020
20
157.519290
30
0.0
11
-31.768018
21
157.926032
31
0.0
0
LINE
8
0
6
CONTINUOUS
10
-32.210140
20
159.274420
30
0.0
11
-31.768020
21
157.519290
31
0.0
0
LINE
8
0
6
CONTINUOUS
10
-35.803230
20
158.626530
30
0.0
11
-35.361120
21
156.871370
31
0.0
0
LINE
8
0
6
CONTINUOUS
10
-34.227740
20
159.828050
30
0.0
11
-35.803230
21
158.626530
31
0.0
0
LINE
8
0
6
CONTINUOUS
10
-32.210140
20
159.274420
30
0.0
11
-34.227740
21
159.828050
31
0.0
0
LINE
8
0
6
CONTINUOUS
10
-31.768020
20
157.519290
30
0.0
11
-32.210140
21
159.274420
31
0.0
0
LINE
8
0
6
CONTINUOUS
10
-33.343510
20
156.317740
30
0.0
11
-31.768020
21
157.519290
31
0.0
0
LINE
8
0
6
CONTINUOUS
10
-35.361120
20
156.871370
30
0.0
11
-33.343510
21
156.317740
31
0.0
0
LINE
8
0
6
CONTINUOUS
10
-35.803230
20
158.626530
30
0.0
11
-34.227740
21
159.828050
31
0.0
0
LINE
8
0
6
CONTINUOUS
10
-35.803227
20
159.437368
30
0.0
11
-35.803230
21
158.626530
31
0.0
0
LINE
8
0
6
CONTINUOUS
10
-32.210140
20
159.274420
30
0.0
11
-32.210138
21
159.787677
31
0.0
0
LINE
8
0
6
CONTINUOUS
10
-34.227740
20
159.828050
30
0.0
11
-32.210140
21
159.274420
31
0.0
0
LINE
8
0
6
CONTINUOUS
10
-34.227737
20
160.543347
30
0.0
11
-34.227740
21
159.828050
31
0.0
0
LINE
8
0
6
CONTINUOUS
10
-33.462350
20
148.784780
30
0.0
11
-33.462347
21
149.208444
31
0.0
0
LINE
8
0
6
CONTINUOUS
10
-34.522880
20
150.338950
30
0.0
11
-33.462350
21
148.784780
31
0.0
0
LINE
8
0
6
CONTINUOUS
10
-37.704470
20
148.784780
30
0.0
11
-36.643940
21
147.230670
31
0.0
0
LINE
8
0
6
CONTINUOUS
10
-36.643950
20
150.338920
30
0.0
11
-37.704470
21
148.784780
31
0.0
0
LINE
8
0
6
CONTINUOUS
10
-34.522880
20
150.338950
30
0.0
11
-36.643950
21
150.338920
31
0.0
0
LINE
8
0
6
CONTINUOUS
10
-33.462350
20
148.784780
30
0.0
11
-34.522880
21
150.338950
31
0.0
0
LINE
8
0
6
CONTINUOUS
10
-34.522880
20
147.230670
30
0.0
11
-33.462350
21
148.784780
31
0.0
0
LINE
8
0
6
CONTINUOUS
10
-36.643940
20
147.230670
30
0.0
11
-34.522880
21
147.230670
31
0.0
0
LINE
8
0
6
CONTINUOUS
10
-37.704470
20
148.784780
30
0.0
11
-36.643950
21
150.338920
31
0.0
0
LINE
8
0
6
CONTINUOUS
10
-37.704465
20
149.633488
30
0.0
11
-37.704470
21
148.784780
31
0.0
0
LINE
8
0
6
CONTINUOUS
10
-34.522880
20
150.338950
30
0.0
11
-34.522878
21
150.879826
31
0.0
0
LINE
8
0
6
CONTINUOUS
10
-36.643950
20
150.338920
30
0.0
11
-34.522880
21
150.338950
31
0.0
0
LINE
8
0
6
CONTINUOUS
10
-36.643945
20
151.083675
30
0.0
11
-36.643950
21
150.338920
31
0.0
0
LINE
8
0
6
CONTINUOUS
10
-31.768000
20
140.060790
30
0.0
11
-31.767998
21
140.444967
31
0.0
0
LINE
8
0
6
CONTINUOUS
10
-33.343500
20
141.262300
30
0.0
11
-31.768000
21
140.060790
31
0.0
0
LINE
8
0
6
CONTINUOUS
10
-35.803200
20
138.953510
30
0.0
11
-34.227710
21
137.752010
31
0.0
0
LINE
8
0
6
CONTINUOUS
10
-35.361090
20
140.708670
30
0.0
11
-35.803200
21
138.953510
31
0.0
0
LINE
8
0
6
CONTINUOUS
10
-33.343500
20
141.262300
30
0.0
11
-35.361090
21
140.708670
31
0.0
0
LINE
8
0
6
CONTINUOUS
10
-31.768000
20
140.060790
30
0.0
11
-33.343500
21
141.262300
31
0.0
0
LINE
8
0
6
CONTINUOUS
10
-32.210110
20
138.305620
30
0.0
11
-31.768000
21
140.060790
31
0.0
0
LINE
8
0
6
CONTINUOUS
10
-34.227710
20
137.752010
30
0.0
11
-32.210110
21
138.305620
31
0.0
0
LINE
8
0
6
CONTINUOUS
10
-35.803200
20
138.953510
30
0.0
11
-35.361090
21
140.708670
31
0.0
0
LINE
8
0
6
CONTINUOUS
10
-35.803195
20
139.739399
30
0.0
11
-35.803200
21
138.953510
31
0.0
0
LINE
8
0
6
CONTINUOUS
10
-33.343500
20
141.262300
30
0.0
11
-33.343497
21
141.745661
31
0.0
0
LINE
8
0
6
CONTINUOUS
10
-35.361090
20
140.708670
30
0.0
11
-33.343500
21
141.262300
31
0.0
0
LINE
8
0
6
CONTINUOUS
10
-35.361087
20
141.392345
30
0.0
11
-35.361090
21
140.708670
31
0.0
0
LINE
8
0
6
CONTINUOUS
10
-26.811610
20
130.381580
30
0.0
11
-26.811607
21
130.862481
31
0.0
0
LINE
8
0
6
CONTINUOUS
10
-27.034610
20
132.166200
30
0.0
11
-26.811610
21
130.381580
31
0.0
0
LINE
8
0
6
CONTINUOUS
10
-27.034610
20
132.166200
30
0.0
11
-27.034608
21
132.542649
31
0.0
0
LINE
8
0
6
CONTINUOUS
10
-28.972830
20
132.895120
30
0.0
11
-27.034610
21
132.166200
31
0.0
0
LINE
8
0
6
CONTINUOUS
10
-30.465040
20
130.054790
30
0.0
11
-28.526820
21
129.325880
31
0.0
0
LINE
8
0
6
CONTINUOUS
10
-30.688040
20
131.839410
30
0.0
11
-30.465040
21
130.054790
31
0.0
0
LINE
8
0
6
CONTINUOUS
10
-28.972830
20
132.895120
30
0.0
11
-30.688040
21
131.839410
31
0.0
0
LINE
8
0
6
CONTINUOUS
10
-27.034610
20
132.166200
30
0.0
11
-28.972830
21
132.895120
31
0.0
0
LINE
8
0
6
CONTINUOUS
10
-26.811610
20
130.381580
30
0.0
11
-27.034610
21
132.166200
31
0.0
0
LINE
8
0
6
CONTINUOUS
10
-28.526820
20
129.325880
30
0.0
11
-26.811610
21
130.381580
31
0.0
0
LINE
8
0
6
CONTINUOUS
10
-28.972830
20
132.895120
30
0.0
11
-28.972826
21
133.380696
31
0.0
0
LINE
8
0
6
CONTINUOUS
10
-30.688040
20
131.839410
30
0.0
11
-28.972830
21
132.895120
31
0.0
0
LINE
8
0
6
CONTINUOUS
10
-30.688036
20
132.525488
30
0.0
11
-30.688040
21
131.839410
31
0.0
0
LINE
8
0
6
CONTINUOUS
10
-18.786310
20
124.276460
30
0.0
11
-18.786308
21
124.745525
31
0.0
0
LINE
8
0
6
CONTINUOUS
10
-19.647850
20
125.916300
30
0.0
11
-18.786310
21
124.276460
31
0.0
0
LINE
8
0
6
CONTINUOUS
10
-19.647850
20
125.916300
30
0.0
11
-19.647848
21
126.287537
31
0.0
0
LINE
8
0
6
CONTINUOUS
10
-21.757150
20
126.104980
30
0.0
11
-19.647850
21
125.916300
31
0.0
0
LINE
8
0
6
CONTINUOUS
10
-22.143390
20
123.013930
30
0.0
11
-20.034090
21
122.825250
31
0.0
0
LINE
8
0
6
CONTINUOUS
10
-23.004930
20
124.653790
30
0.0
11
-22.143390
21
123.013930
31
0.0
0
LINE
8
0
6
CONTINUOUS
10
-21.757150
20
126.104980
30
0.0
11
-23.004930
21
124.653790
31
0.0
0
LINE
8
0
6
CONTINUOUS
10
-19.647850
20
125.916300
30
0.0
11
-21.757150
21
126.104980
31
0.0
0
LINE
8
0
6
CONTINUOUS
10
-18.786310
20
124.276460
30
0.0
11
-19.647850
21
125.916300
31
0.0
0
LINE
8
0
6
CONTINUOUS
10
-20.034090
20
122.825250
30
0.0
11
-18.786310
21
124.276460
31
0.0
0
LINE
8
0
6
CONTINUOUS
10
-21.757150
20
126.104980
30
0.0
11
-21.757148
21
126.584856
31
0.0
0
LINE
8
0
6
CONTINUOUS
10
-23.004930
20
124.653790
30
0.0
11
-21.757150
21
126.104980
31
0.0
0
LINE
8
0
6
CONTINUOUS
10
-23.004926
20
125.332519
30
0.0
11
-23.004930
21
124.653790
31
0.0
0
LINE
8
0
6
CONTINUOUS
10
-8.898040
20
120.419900
30
0.0
11
-8.898039
21
120.623381
31
0.0
0
LINE
8
0
6
CONTINUOUS
10
-10.318150
20
121.752880
30
0.0
11
-8.898040
21
120.419900
31
0.0
0
LINE
8
0
6
CONTINUOUS
10
-10.318150
20
121.752880
30
0.0
11
-10.318149
21
121.994429
31
0.0
0
LINE
8
0
6
CONTINUOUS
10
-12.392630
20
121.378800
30
0.0
11
-10.318150
21
121.752880
31
0.0
0
LINE
8
0
6
CONTINUOUS
10
-11.626860
20
118.338810
30
0.0
11
-9.552390
21
118.712860
31
0.0
0
LINE
8
0
6
CONTINUOUS
10
-13.046980
20
119.671770
30
0.0
11
-11.626860
21
118.338810
31
0.0
0
LINE
8
0
6
CONTINUOUS
10
-12.392630
20
121.378800
30
0.0
11
-13.046980
21
119.671770
31
0.0
0
LINE
8
0
6
CONTINUOUS
10
-10.318150
20
121.752880
30
0.0
11
-12.392630
21
121.378800
31
0.0
0
LINE
8
0
6
CONTINUOUS
10
-8.898040
20
120.419900
30
0.0
11
-10.318150
21
121.752880
31
0.0
0
LINE
8
0
6
CONTINUOUS
10
-9.552390
20
118.712860
30
0.0
11
-8.898040
21
120.419900
31
0.0
0
LINE
8
0
6
CONTINUOUS
10
-12.392630
20
121.378800
30
0.0
11
-12.392628
21
121.781198
31
0.0
0
LINE
8
0
6
CONTINUOUS
10
-13.046980
20
119.671770
30
0.0
11
-12.392630
21
121.378800
31
0.0
0
LINE
8
0
6
CONTINUOUS
10
-13.046978
20
120.217437
30
0.0
11
-13.046980
21
119.671770
31
0.0
0
LINE
8
0
6
CONTINUOUS
10
1.836930
20
119.002950
30
0.0
11
1.836930
21
117.208370
31
0.0
0
LINE
8
0
6
CONTINUOUS
10
1.836930
20
119.002950
30
0.0
11
1.836931
21
119.370145
31
0.0
0
LINE
8
0
6
CONTINUOUS
10
0.000030
20
119.900210
30
0.0
11
1.836930
21
119.002950
31
0.0
0
LINE
8
0
6
CONTINUOUS
10
0.000030
20
119.900210
30
0.0
11
0.000031
21
120.288483
31
0.0
0
LINE
8
0
6
CONTINUOUS
10
-1.836860
20
119.002940
30
0.0
11
0.000030
21
119.900210
31
0.0
0
LINE
8
0
6
CONTINUOUS
10
-1.836859
20
119.370136
30
0.0
11
-1.836860
21
119.002940
31
0.0
0
LINE
8
0
6
CONTINUOUS
10
0.000040
20
116.311100
30
0.0
11
1.836930
21
117.208370
31
0.0
0
LINE
8
0
6
CONTINUOUS
10
-1.836850
20
117.208380
30
0.0
11
0.000040
21
116.311100
31
0.0
0
LINE
8
0
6
CONTINUOUS
10
-1.836860
20
119.002940
30
0.0
11
-1.836850
21
117.208380
31
0.0
0
LINE
8
0
6
CONTINUOUS
10
0.000030
20
119.900210
30
0.0
11
-1.836860
21
119.002940
31
0.0
0
LINE
8
0
6
CONTINUOUS
10
1.836930
20
119.002950
30
0.0
11
0.000030
21
119.900210
31
0.0
0
LINE
8
0
6
CONTINUOUS
10
1.836930
20
117.208370
30
0.0
11
1.836930
21
119.002950
31
0.0
0
LINE
8
0
6
CONTINUOUS
10
13.047070
20
119.673180
30
0.0
11
13.047071
21
120.217483
31
0.0
0
LINE
8
0
6
CONTINUOUS
10
12.392710
20
121.380220
30
0.0
11
13.047070
21
119.673180
31
0.0
0
LINE
8
0
6
CONTINUOUS
10
12.392710
20
121.380220
30
0.0
11
12.392710
21
121.781252
31
0.0
0
LINE
8
0
6
CONTINUOUS
10
10.318230
20
121.754260
30
0.0
11
12.392710
21
121.380220
31
0.0
0
LINE
8
0
6
CONTINUOUS
10
10.318230
20
121.754260
30
0.0
11
10.318230
21
121.994448
31
0.0
0
LINE
8
0
6
CONTINUOUS
10
8.898120
20
120.421300
30
0.0
11
10.318230
21
121.754260
31
0.0
0
LINE
8
0
6
CONTINUOUS
10
8.898120
20
120.623420
30
0.0
11
8.898120
21
120.421300
31
0.0
0
LINE
8
0
6
CONTINUOUS
10
11.626950
20
118.340200
30
0.0
11
13.047070
21
119.673180
31
0.0
0
LINE
8
0
6
CONTINUOUS
10
9.552480
20
118.714260
30
0.0
11
11.626950
21
118.340200
31
0.0
0
LINE
8
0
6
CONTINUOUS
10
8.898120
20
120.421300
30
0.0
11
9.552480
21
118.714260
31
0.0
0
LINE
8
0
6
CONTINUOUS
10
10.318230
20
121.754260
30
0.0
11
8.898120
21
120.421300
31
0.0
0
LINE
8
0
6
CONTINUOUS
10
12.392710
20
121.380220
30
0.0
11
10.318230
21
121.754260
31
0.0
0
LINE
8
0
6
CONTINUOUS
10
13.047070
20
119.673180
30
0.0
11
12.392710
21
121.380220
31
0.0
0
LINE
8
0
6
CONTINUOUS
10
23.005000
20
124.654030
30
0.0
11
23.005000
21
125.332605
31
0.0
0
LINE
8
0
6
CONTINUOUS
10
21.757230
20
126.105210
30
0.0
11
23.005000
21
124.654030
31
0.0
0
LINE
8
0
6
CONTINUOUS
10
21.757230
20
126.105210
30
0.0
11
21.757229
21
126.584935
31
0.0
0
LINE
8
0
6
CONTINUOUS
10
19.647920
20
125.916530
30
0.0
11
21.757230
21
126.105210
31
0.0
0
LINE
8
0
6
CONTINUOUS
10
19.647920
20
125.916530
30
0.0
11
19.647920
21
126.287608
31
0.0
0
LINE
8
0
6
CONTINUOUS
10
18.786390
20
124.276650
30
0.0
11
19.647920
21
125.916530
31
0.0
0
LINE
8
0
6
CONTINUOUS
10
18.786390
20
124.745570
30
0.0
11
18.786390
21
124.276650
31
0.0
0
LINE
8
0
6
CONTINUOUS
10
22.143470
20
123.014170
30
0.0
11
23.005000
21
124.654030
31
0.0
0
LINE
8
0
6
CONTINUOUS
10
20.034180
20
122.825480
30
0.0
11
22.143470
21
123.014170
31
0.0
0
LINE
8
0
6
CONTINUOUS
10
18.786390
20
124.276650
30
0.0
11
20.034180
21
122.825480
31
0.0
0
LINE
8
0
6
CONTINUOUS
10
19.647920
20
125.916530
30
0.0
11
18.786390
21
124.276650
31
0.0
0
LINE
8
0
6
CONTINUOUS
10
21.757230
20
126.105210
30
0.0
11
19.647920
21
125.916530
31
0.0
0
LINE
8
0
6
CONTINUOUS
10
23.005000
20
124.654030
30
0.0
11
21.757230
21
126.105210
31
0.0
0
LINE
8
0
6
CONTINUOUS
10
30.688080
20
131.839480
30
0.0
11
30.688077
21
132.525596
31
0.0
0
LINE
8
0
6
CONTINUOUS
10
28.972860
20
132.895170
30
0.0
11
30.688080
21
131.839480
31
0.0
0
LINE
8
0
6
CONTINUOUS
10
28.972860
20
132.895170
30
0.0
11
28.972858
21
133.380787
31
0.0
0
LINE
8
0
6
CONTINUOUS
10
27.034650
20
132.166260
30
0.0
11
28.972860
21
132.895170
31
0.0
0
LINE
8
0
6
CONTINUOUS
10
27.034650
20
132.166260
30
0.0
11
27.034649
21
132.542735
31
0.0
0
LINE
8
0
6
CONTINUOUS
10
26.811650
20
130.381630
30
0.0
11
27.034650
21
132.166260
31
0.0
0
LINE
8
0
6
CONTINUOUS
10
26.811649
20
130.862563
30
0.0
11
26.811650
21
130.381630
31
0.0
0
LINE
8
0
6
CONTINUOUS
10
30.465080
20
130.054860
30
0.0
11
30.688080
21
131.839480
31
0.0
0
LINE
8
0
6
CONTINUOUS
10
28.526860
20
129.325950
30
0.0
11
30.465080
21
130.054860
31
0.0
0
LINE
8
0
6
CONTINUOUS
10
26.811650
20
130.381630
30
0.0
11
28.526860
21
129.325950
31
0.0
0
LINE
8
0
6
CONTINUOUS
10
27.034650
20
132.166260
30
0.0
11
26.811650
21
130.381630
31
0.0
0
LINE
8
0
6
CONTINUOUS
10
28.972860
20
132.895170
30
0.0
11
27.034650
21
132.166260
31
0.0
0
LINE
8
0
6
CONTINUOUS
10
30.688080
20
131.839480
30
0.0
11
28.972860
21
132.895170
31
0.0
0
LINE
8
0
6
CONTINUOUS
10
35.803210
20
138.952400
30
0.0
11
35.803208
21
139.739501
31
0.0
0
LINE
8
0
6
CONTINUOUS
10
35.361100
20
140.707560
30
0.0
11
35.803210
21
138.952400
31
0.0
0
LINE
8
0
6
CONTINUOUS
10
35.361100
20
140.707560
30
0.0
11
35.361097
21
141.392452
31
0.0
0
LINE
8
0
6
CONTINUOUS
10
33.343500
20
141.261170
30
0.0
11
35.361100
21
140.707560
31
0.0
0
LINE
8
0
6
CONTINUOUS
10
33.343500
20
141.261170
30
0.0
11
33.343498
21
141.745746
31
0.0
0
LINE
8
0
6
CONTINUOUS
10
31.768010
20
140.059660
30
0.0
11
33.343500
21
141.261170
31
0.0
0
LINE
8
0
6
CONTINUOUS
10
31.768008
20
140.445054
30
0.0
11
31.768010
21
140.059660
31
0.0
0
LINE
8
0
6
CONTINUOUS
10
35.803210
20
138.952400
30
0.0
11
35.361100
21
140.707560
31
0.0
0
LINE
8
0
6
CONTINUOUS
10
34.227730
20
137.750870
30
0.0
11
35.803210
21
138.952400
31
0.0
0
LINE
8
0
6
CONTINUOUS
10
32.210130
20
138.304530
30
0.0
11
34.227730
21
137.750870
31
0.0
0
LINE
8
0
6
CONTINUOUS
10
31.768010
20
140.059660
30
0.0
11
32.210130
21
138.304530
31
0.0
0
LINE
8
0
6
CONTINUOUS
10
33.343500
20
141.261170
30
0.0
11
31.768010
21
140.059660
31
0.0
0
LINE
8
0
6
CONTINUOUS
10
35.361100
20
140.707560
30
0.0
11
33.343500
21
141.261170
31
0.0
0
LINE
8
0
6
CONTINUOUS
10
37.704460
20
148.784890
30
0.0
11
37.704456
21
149.633590
31
0.0
0
LINE
8
0
6
CONTINUOUS
10
36.643930
20
150.339020
30
0.0
11
37.704460
21
148.784890
31
0.0
0
LINE
8
0
6
CONTINUOUS
10
36.643930
20
150.339020
30
0.0
11
36.643924
21
151.083773
31
0.0
0
LINE
8
0
6
CONTINUOUS
10
34.522860
20
150.339020
30
0.0
11
36.643930
21
150.339020
31
0.0
0
LINE
8
0
6
CONTINUOUS
10
34.522860
20
150.339020
30
0.0
11
34.522858
21
150.879894
31
0.0
0
LINE
8
0
6
CONTINUOUS
10
33.462330
20
148.784880
30
0.0
11
34.522860
21
150.339020
31
0.0
0
LINE
8
0
6
CONTINUOUS
10
33.462328
20
149.208536
30
0.0
11
33.462330
21
148.784880
31
0.0
0
LINE
8
0
6
CONTINUOUS
10
37.704460
20
148.784890
30
0.0
11
36.643930
21
150.339020
31
0.0
0
LINE
8
0
6
CONTINUOUS
10
36.643930
20
147.230760
30
0.0
11
37.704460
21
148.784890
31
0.0
0
LINE
8
0
6
CONTINUOUS
10
34.522870
20
147.230750
30
0.0
11
36.643930
21
147.230760
31
0.0
0
LINE
8
0
6
CONTINUOUS
10
33.462330
20
148.784880
30
0.0
11
34.522870
21
147.230750
31
0.0
0
LINE
8
0
6
CONTINUOUS
10
34.522860
20
150.339020
30
0.0
11
33.462330
21
148.784880
31
0.0
0
LINE
8
0
6
CONTINUOUS
10
36.643930
20
150.339020
30
0.0
11
34.522860
21
150.339020
31
0.0
0
LINE
8
0
6
CONTINUOUS
10
35.803190
20
158.627870
30
0.0
11
35.803185
21
159.437481
31
0.0
0
LINE
8
0
6
CONTINUOUS
10
34.227690
20
159.829400
30
0.0
11
35.803190
21
158.627870
31
0.0
0
LINE
8
0
6
CONTINUOUS
10
34.227690
20
159.829400
30
0.0
11
34.227685
21
160.543454
31
0.0
0
LINE
8
0
6
CONTINUOUS
10
32.210090
20
159.275770
30
0.0
11
34.227690
21
159.829400
31
0.0
0
LINE
8
0
6
CONTINUOUS
10
32.210090
20
159.275770
30
0.0
11
32.210087
21
159.787786
31
0.0
0
LINE
8
0
6
CONTINUOUS
10
31.767990
20
157.520610
30
0.0
11
32.210090
21
159.275770
31
0.0
0
LINE
8
0
6
CONTINUOUS
10
31.767987
20
157.926117
30
0.0
11
31.767990
21
157.520610
31
0.0
0
LINE
8
0
6
CONTINUOUS
10
35.803190
20
158.627870
30
0.0
11
34.227690
21
159.829400
31
0.0
0
LINE
8
0
6
CONTINUOUS
10
35.361070
20
156.872720
30
0.0
11
35.803190
21
158.627870
31
0.0
0
LINE
8
0
6
CONTINUOUS
10
33.343470
20
156.319100
30
0.0
11
35.361070
21
156.872720
31
0.0
0
LINE
8
0
6
CONTINUOUS
10
31.767990
20
157.520610
30
0.0
11
33.343470
21
156.319100
31
0.0
0
LINE
8
0
6
CONTINUOUS
10
32.210090
20
159.275770
30
0.0
11
31.767990
21
157.520610
31
0.0
0
LINE
8
0
6
CONTINUOUS
10
34.227690
20
159.829400
30
0.0
11
32.210090
21
159.275770
31
0.0
0
LINE
8
0
6
CONTINUOUS
10
28.526800
20
168.253680
30
0.0
11
30.465010
21
167.524780
31
0.0
0
LINE
8
0
6
CONTINUOUS
10
28.526800
20
168.253680
30
0.0
11
28.526795
21
168.982514
31
0.0
0
LINE
8
0
6
CONTINUOUS
10
26.811590
20
167.197980
30
0.0
11
28.526800
21
168.253680
31
0.0
0
LINE
8
0
6
CONTINUOUS
10
26.811586
20
167.724722
30
0.0
11
26.811590
21
167.197980
31
0.0
0
LINE
8
0
6
CONTINUOUS
10
30.465010
20
167.524780
30
0.0
11
28.526800
21
168.253680
31
0.0
0
LINE
8
0
6
CONTINUOUS
10
30.688010
20
165.740150
30
0.0
11
30.465010
21
167.524780
31
0.0
0
LINE
8
0
6
CONTINUOUS
10
28.972800
20
164.684460
30
0.0
11
30.688010
21
165.740150
31
0.0
0
LINE
8
0
6
CONTINUOUS
10
27.034590
20
165.413360
30
0.0
11
28.972800
21
164.684460
31
0.0
0
LINE
8
0
6
CONTINUOUS
10
26.811590
20
167.197980
30
0.0
11
27.034590
21
165.413360
31
0.0
0
LINE
8
0
6
CONTINUOUS
10
28.526800
20
168.253680
30
0.0
11
26.811590
21
167.197980
31
0.0
0
LINE
8
0
6
CONTINUOUS
10
30.688010
20
165.740150
30
0.0
11
30.688005
21
166.467995
31
0.0
0
LINE
8
0
6
CONTINUOUS
10
30.465010
20
167.524780
30
0.0
11
30.688010
21
165.740150
31
0.0
0
LINE
8
0
6
CONTINUOUS
10
30.465003
20
168.348345
30
0.0
11
30.465010
21
167.524780
31
0.0
0
LINE
8
0
6
CONTINUOUS
10
20.034070
20
174.753890
30
0.0
11
22.143370
21
174.565230
31
0.0
0
LINE
8
0
6
CONTINUOUS
10
20.034070
20
174.753890
30
0.0
11
20.034065
21
175.497440
31
0.0
0
LINE
8
0
6
CONTINUOUS
10
18.786290
20
173.302700
30
0.0
11
20.034070
21
174.753890
31
0.0
0
LINE
8
0
6
CONTINUOUS
10
18.786288
20
173.842643
30
0.0
11
18.786290
21
173.302700
31
0.0
0
LINE
8
0
6
CONTINUOUS
10
22.143370
20
174.565230
30
0.0
11
20.034070
21
174.753890
31
0.0
0
LINE
8
0
6
CONTINUOUS
10
23.004900
20
172.925370
30
0.0
11
22.143370
21
174.565230
31
0.0
0
LINE
8
0
6
CONTINUOUS
10
21.757130
20
171.474160
30
0.0
11
23.004900
21
172.925370
31
0.0
0
LINE
8
0
6
CONTINUOUS
10
19.647830
20
171.662860
30
0.0
11
21.757130
21
171.474160
31
0.0
0
LINE
8
0
6
CONTINUOUS
10
18.786290
20
173.302700
30
0.0
11
19.647830
21
171.662860
31
0.0
0
LINE
8
0
6
CONTINUOUS
10
20.034070
20
174.753890
30
0.0
11
18.786290
21
173.302700
31
0.0
0
LINE
8
0
6
CONTINUOUS
10
23.004900
20
172.925370
30
0.0
11
23.004895
21
173.664197
31
0.0
0
LINE
8
0
6
CONTINUOUS
10
22.143370
20
174.565230
30
0.0
11
23.004900
21
172.925370
31
0.0
0
LINE
8
0
6
CONTINUOUS
10
22.143366
20
175.401446
30
0.0
11
22.143370
21
174.565230
31
0.0
0
LINE
8
0
6
CONTINUOUS
10
9.552370
20
178.706960
30
0.0
11
11.626840
21
179.081030
31
0.0
0
LINE
8
0
6
CONTINUOUS
10
9.552370
20
178.706960
30
0.0
11
9.552367
21
179.456276
31
0.0
0
LINE
8
0
6
CONTINUOUS
10
8.898010
20
176.999940
30
0.0
11
9.552370
21
178.706960
31
0.0
0
LINE
8
0
6
CONTINUOUS
10
8.898008
20
177.545373
30
0.0
11
8.898010
21
176.999940
31
0.0
0
LINE
8
0
6
CONTINUOUS
10
11.626840
20
179.081030
30
0.0
11
9.552370
21
178.706960
31
0.0
0
LINE
8
0
6
CONTINUOUS
10
13.046960
20
177.748060
30
0.0
11
11.626840
21
179.081030
31
0.0
0
LINE
8
0
6
CONTINUOUS
10
12.392610
20
176.041040
30
0.0
11
13.046960
21
177.748060
31
0.0
0
LINE
8
0
6
CONTINUOUS
10
10.318140
20
175.666970
30
0.0
11
12.392610
21
176.041040
31
0.0
0
LINE
8
0
6
CONTINUOUS
10
8.898010
20
176.999940
30
0.0
11
10.318140
21
175.666970
31
0.0
0
LINE
8
0
6
CONTINUOUS
10
9.552370
20
178.706960
30
0.0
11
8.898010
21
176.999940
31
0.0
0
LINE
8
0
6
CONTINUOUS
10
13.046960
20
177.748060
30
0.0
11
13.046957
21
178.498659
31
0.0
0
LINE
8
0
6
CONTINUOUS
10
11.626840
20
179.081030
30
0.0
11
13.046960
21
177.748060
31
0.0
0
LINE
8
0
6
CONTINUOUS
10
11.626836
20
179.933078
30
0.0
11
11.626840
21
179.081030
31
0.0
0
LINE
8
0
6
CONTINUOUS
10
-1.836920
20
171.487170
30
0.0
11
-0.000030
21
172.384450
31
0.0
0
LINE
8
0
6
CONTINUOUS
10
-1.836921
20
172.143699
30
0.0
11
-1.836920
21
171.487170
31
0.0
0
LINE
8
0
6
CONTINUOUS
10
-0.000030
20
172.384450
30
0.0
11
-1.836920
21
171.487170
31
0.0
0
LINE
8
0
6
CONTINUOUS
10
1.836860
20
171.487170
30
0.0
11
-0.000030
21
172.384450
31
0.0
0
LINE
8
0
6
CONTINUOUS
10
1.836860
20
169.692590
30
0.0
11
1.836860
21
171.487170
31
0.0
0
LINE
8
0
6
CONTINUOUS
10
-0.000030
20
168.795320
30
0.0
11
1.836860
21
169.692590
31
0.0
0
LINE
8
0
6
CONTINUOUS
10
-1.836920
20
169.692570
30
0.0
11
-0.000030
21
168.795320
31
0.0
0
LINE
8
0
6
CONTINUOUS
10
-1.836920
20
171.487170
30
0.0
11
-1.836920
21
169.692570
31
0.0
0
LINE
8
0
6
CONTINUOUS
10
1.836860
20
171.487170
30
0.0
11
1.836859
21
172.143698
31
0.0
0
LINE
8
0
6
CONTINUOUS
10
-0.000030
20
172.384450
30
0.0
11
1.836860
21
171.487170
31
0.0
0
LINE
8
0
6
CONTINUOUS
10
-0.000032
20
173.121529
30
0.0
11
-0.000030
21
172.384450
31
0.0
0
LINE
8
0
6
CONTINUOUS
10
10.877790
20
196.793700
30
0.0
11
12.482570
21
195.620240
31
0.0
0
LINE
8
0
6
CONTINUOUS
10
12.083840
20
193.857660
30
0.0
11
12.482570
21
195.620240
31
0.0
0
LINE
8
0
6
CONTINUOUS
10
10.080330
20
193.268540
30
0.0
11
12.083840
21
193.857660
31
0.0
0
LINE
8
0
6
CONTINUOUS
10
8.475550
20
194.441980
30
0.0
11
10.080330
21
193.268540
31
0.0
0
LINE
8
0
6
CONTINUOUS
10
8.874280
20
196.204560
30
0.0
11
8.475550
21
194.441980
31
0.0
0
LINE
8
0
6
CONTINUOUS
10
10.877790
20
196.793700
30
0.0
11
8.874280
21
196.204560
31
0.0
0
LINE
8
0
6
CONTINUOUS
10
12.482570
20
195.620240
30
0.0
11
10.877790
21
196.793700
31
0.0
0
LINE
8
0
6
CONTINUOUS
10
8.874280
20
196.204560
30
0.0
11
10.877790
21
196.793700
31
0.0
0
LINE
8
0
6
CONTINUOUS
10
8.475550
20
194.441980
30
0.0
11
8.874280
21
196.204560
31
0.0
0
LINE
8
0
6
CONTINUOUS
10
8.475551
20
194.998114
30
0.0
11
8.475550
21
194.441980
31
0.0
0
LINE
8
0
6
CONTINUOUS
10
-61.957500
20
160.299010
30
0.0
11
-60.282310
21
166.993470
31
0.0
0
LINE
8
0
6
CONTINUOUS
10
-44.789910
20
199.469940
30
0.0
11
-50.242890
21
194.127270
31
0.0
0
LINE
8
0
6
CONTINUOUS
10
-50.242890
20
194.127270
30
0.0
11
-54.904100
21
188.229820
31
0.0
0
LINE
8
0
6
CONTINUOUS
10
-54.904100
20
188.229820
30
0.0
11
-55.276990
21
187.686250
31
0.0
0
LINE
8
0
6
CONTINUOUS
10
-42.682100
20
189.544160
30
0.0
11
-36.702020
21
193.888620
31
0.0
0
LINE
8
0
6
CONTINUOUS
10
-36.702020
20
193.888620
30
0.0
11
-29.944500
21
197.562170
31
0.0
0
LINE
8
0
6
CONTINUOUS
10
-29.944500
20
197.562170
30
0.0
11
-22.947610
21
200.401150
31
0.0
0
LINE
8
0
6
CONTINUOUS
10
-22.947610
20
200.401150
30
0.0
11
-14.869150
21
202.691210
31
0.0
0
LINE
8
0
6
CONTINUOUS
10
-14.869150
20
202.691210
30
0.0
11
-7.922840
21
203.924730
31
0.0
0
LINE
8
0
6
CONTINUOUS
10
-7.922840
20
203.924730
30
0.0
11
-0.000060
21
204.397690
31
0.0
0
LINE
8
0
6
CONTINUOUS
10
-44.511910
20
191.878690
30
0.0
11
-50.069850
21
186.674320
31
0.0
0
LINE
8
0
6
CONTINUOUS
10
-49.041100
20
185.697660
30
0.0
11
-43.517040
21
190.774830
31
0.0
0
LINE
8
0
6
CONTINUOUS
10
-50.069850
20
186.674320
30
0.0
11
-54.744850
21
180.900530
31
0.0
0
LINE
8
0
6
CONTINUOUS
10
-53.617780
20
179.944590
30
0.0
11
-49.041100
21
185.697660
31
0.0
0
LINE
8
0
6
CONTINUOUS
10
-57.308500
20
173.918810
30
0.0
11
-53.617780
21
179.944590
31
0.0
0
LINE
8
0
6
CONTINUOUS
10
-60.282310
20
166.993470
30
0.0
11
-57.308500
21
173.918810
31
0.0
0
LINE
8
0
6
CONTINUOUS
10
-62.484950
20
153.530180
30
0.0
11
-61.957500
21
160.299010
31
0.0
0
LINE
8
0
6
CONTINUOUS
10
-58.551070
20
174.496570
30
0.0
11
-54.744850
21
180.900530
31
0.0
0
LINE
8
0
6
CONTINUOUS
10
-61.347220
20
167.563380
30
0.0
11
-58.551070
21
174.496570
31
0.0
0
LINE
8
0
6
CONTINUOUS
10
-63.041120
20
160.704960
30
0.0
11
-61.347220
21
167.563380
31
0.0
0
LINE
8
0
6
CONTINUOUS
10
-63.436990
20
161.248360
30
0.0
11
-64.054540
21
154.230830
31
0.0
0
LINE
8
0
6
CONTINUOUS
10
-63.740940
20
153.731060
30
0.0
11
-63.041120
21
160.704960
31
0.0
0
LINE
8
0
6
CONTINUOUS
10
-43.336880
20
116.039070
30
0.0
11
-48.623070
21
121.323170
31
0.0
0
LINE
8
0
6
CONTINUOUS
10
-48.623070
20
121.323170
30
0.0
11
-53.138470
21
126.908600
31
0.0
0
LINE
8
0
6
CONTINUOUS
10
-53.138470
20
126.908600
30
0.0
11
-56.729930
21
133.197510
31
0.0
0
LINE
8
0
6
CONTINUOUS
10
-56.729930
20
133.197510
30
0.0
11
-59.316450
21
140.161630
31
0.0
0
LINE
8
0
6
CONTINUOUS
10
-59.316450
20
140.161630
30
0.0
11
-60.751890
21
146.484420
31
0.0
0
LINE
8
0
6
CONTINUOUS
10
-60.751890
20
146.484420
30
0.0
11
-61.234040
21
153.300900
31
0.0
0
LINE
8
0
6
CONTINUOUS
10
-59.214970
20
133.389630
30
0.0
11
-59.026980
21
132.980030
31
0.0
0
LINE
8
0
6
CONTINUOUS
10
-61.924190
20
140.195000
30
0.0
11
-59.214970
21
133.389630
31
0.0
0
LINE
8
0
6
CONTINUOUS
10
-63.513240
20
147.050980
30
0.0
11
-61.924190
21
140.195000
31
0.0
0
LINE
8
0
6
CONTINUOUS
10
-64.054540
20
154.230830
30
0.0
11
-63.513240
21
147.050980
31
0.0
0
LINE
8
0
6
CONTINUOUS
10
-44.985400
20
115.171500
30
0.0
11
-38.852740
21
110.567660
31
0.0
0
LINE
8
0
6
CONTINUOUS
10
-38.187500
20
110.976110
30
0.0
11
-44.128500
21
115.535430
31
0.0
0
LINE
8
0
6
CONTINUOUS
10
-38.852740
20
110.567660
30
0.0
11
-32.053250
21
106.695640
31
0.0
0
LINE
8
0
6
CONTINUOUS
10
-31.214070
20
107.197060
30
0.0
11
-38.187500
21
110.976110
31
0.0
0
LINE
8
0
6
CONTINUOUS
10
-32.053250
20
106.695640
30
0.0
11
-28.408840
21
104.997540
31
0.0
0
LINE
8
0
6
CONTINUOUS
10
-27.678070
20
105.595300
30
0.0
11
-31.214070
21
107.197060
31
0.0
0
LINE
8
0
6
CONTINUOUS
10
-60.282310
20
166.993470
30
0.0
11
-61.957500
21
160.299010
31
0.0
0
LINE
8
0
6
CONTINUOUS
10
-43.517040
20
190.774830
30
0.0
11
-37.524630
21
195.024240
31
0.0
0
LINE
8
0
6
CONTINUOUS
10
-38.334350
20
196.105680
30
0.0
11
-44.511910
21
191.878690
31
0.0
0
LINE
8
0
6
CONTINUOUS
10
-37.524630
20
195.024240
30
0.0
11
-30.529200
21
199.008970
31
0.0
0
LINE
8
0
6
CONTINUOUS
10
-31.486330
20
200.048420
30
0.0
11
-38.334350
21
196.105680
31
0.0
0
LINE
8
0
6
CONTINUOUS
10
-30.529200
20
199.008970
30
0.0
11
-23.354660
21
201.755000
31
0.0
0
LINE
8
0
6
CONTINUOUS
10
-24.156300
20
203.022530
30
0.0
11
-31.486330
21
200.048420
31
0.0
0
LINE
8
0
6
CONTINUOUS
10
-23.354660
20
201.755000
30
0.0
11
-15.104920
21
203.893350
31
0.0
0
LINE
8
0
6
CONTINUOUS
10
-15.623090
20
205.355100
30
0.0
11
-24.156300
21
203.022530
31
0.0
0
LINE
8
0
6
CONTINUOUS
10
-15.104920
20
203.893350
30
0.0
11
-8.024810
21
205.169690
31
0.0
0
LINE
8
0
6
CONTINUOUS
10
-8.202230
20
206.538170
30
0.0
11
-15.623090
21
205.355100
31
0.0
0
LINE
8
0
6
CONTINUOUS
10
-8.024810
20
205.169690
30
0.0
11
-0.000060
21
205.660050
31
0.0
0
LINE
8
0
6
CONTINUOUS
10
-0.000060
20
207.086520
30
0.0
11
-8.202230
21
206.538170
31
0.0
0
LINE
8
0
6
CONTINUOUS
10
-43.517040
20
190.774830
30
0.0
11
-49.041100
21
185.697660
31
0.0
0
LINE
8
0
6
CONTINUOUS
10
-49.041100
20
185.697660
30
0.0
11
-53.617780
21
179.944590
31
0.0
0
LINE
8
0
6
CONTINUOUS
10
-53.617780
20
179.944590
30
0.0
11
-57.308500
21
173.918810
31
0.0
0
LINE
8
0
6
CONTINUOUS
10
-57.308500
20
173.918810
30
0.0
11
-60.282310
21
166.993470
31
0.0
0
LINE
8
0
6
CONTINUOUS
10
-61.957500
20
160.299010
30
0.0
11
-62.484950
21
153.530180
31
0.0
0
LINE
8
0
6
CONTINUOUS
10
-44.128500
20
115.535430
30
0.0
11
-49.672700
21
120.857730
31
0.0
0
LINE
8
0
6
CONTINUOUS
10
-50.603170
20
120.542670
30
0.0
11
-44.985400
21
115.171500
31
0.0
0
LINE
8
0
6
CONTINUOUS
10
-49.672700
20
120.857730
30
0.0
11
-54.093950
21
126.444650
31
0.0
0
LINE
8
0
6
CONTINUOUS
10
-55.262880
20
126.320920
30
0.0
11
-50.603170
21
120.542670
31
0.0
0
LINE
8
0
6
CONTINUOUS
10
-54.093950
20
126.444650
30
0.0
11
-57.994250
21
133.240510
31
0.0
0
LINE
8
0
6
CONTINUOUS
10
-59.026980
20
132.980030
30
0.0
11
-55.262880
21
126.320920
31
0.0
0
LINE
8
0
6
CONTINUOUS
10
-57.994250
20
133.240510
30
0.0
11
-60.471820
21
139.805590
31
0.0
0
LINE
8
0
6
CONTINUOUS
10
-61.701140
20
139.643730
30
0.0
11
-59.026980
21
132.980030
31
0.0
0
LINE
8
0
6
CONTINUOUS
10
-60.471820
20
139.805590
30
0.0
11
-61.891770
21
146.431930
31
0.0
0
LINE
8
0
6
CONTINUOUS
10
-63.225030
20
146.527690
30
0.0
11
-61.701140
21
139.643730
31
0.0
0
LINE
8
0
6
CONTINUOUS
10
-61.891770
20
146.431930
30
0.0
11
-62.484950
21
153.530180
31
0.0
0
LINE
8
0
6
CONTINUOUS
10
-63.740940
20
153.731060
30
0.0
11
-63.225030
21
146.527690
31
0.0
0
LINE
8
0
6
CONTINUOUS
10
-44.128500
20
115.535430
30
0.0
11
-38.187500
21
110.976110
31
0.0
0
LINE
8
0
6
CONTINUOUS
10
-38.187500
20
110.976110
30
0.0
11
-31.214070
21
107.197060
31
0.0
0
LINE
8
0
6
CONTINUOUS
10
-31.214070
20
107.197060
30
0.0
11
-27.678070
21
105.595300
31
0.0
0
LINE
8
0
6
CONTINUOUS
10
-16.173220
20
213.322860
30
0.0
11
-24.235850
21
211.067020
31
0.0
0
LINE
8
0
6
CONTINUOUS
10
-31.553980
20
208.059080
30
0.0
11
-38.497900
21
204.100720
31
0.0
0
LINE
8
0
6
CONTINUOUS
10
-38.497900
20
204.100720
30
0.0
11
-44.789910
21
199.469940
31
0.0
0
LINE
8
0
6
CONTINUOUS
10
-0.000060
20
215.270280
30
0.0
11
-8.132630
21
214.717480
31
0.0
0
LINE
8
0
6
CONTINUOUS
10
-16.010090
20
213.353280
30
0.0
11
-16.173220
21
213.322860
31
0.0
0
LINE
8
0
6
CONTINUOUS
10
-8.132630
20
214.717480
30
0.0
11
-16.010090
21
213.353280
31
0.0
0
LINE
8
0
6
CONTINUOUS
10
-24.235850
20
211.067020
30
0.0
11
-31.437450
21
208.115590
31
0.0
0
LINE
8
0
6
CONTINUOUS
10
-31.437450
20
208.115590
30
0.0
11
-31.553980
21
208.059080
31
0.0
0
LINE
8
0
6
CONTINUOUS
10
-14.788490
20
81.936690
30
0.0
11
-13.311180
21
9.643810
31
0.0
0
LINE
8
0
6
CONTINUOUS
10
-5.068620
20
6.141380
30
0.0
11
-2.574530
21
5.974450
31
0.0
0
LINE
8
0
6
CONTINUOUS
10
-2.574530
20
5.974450
30
0.0
11
0.000150
21
5.915440
31
0.0
0
LINE
8
0
6
CONTINUOUS
10
-13.311180
20
9.643810
30
0.0
11
-13.309230
21
9.107890
31
0.0
0
LINE
8
0
6
CONTINUOUS
10
-13.309230
20
9.107890
30
0.0
11
-13.054330
21
8.480200
31
0.0
0
LINE
8
0
6
CONTINUOUS
10
-7.359810
20
6.439000
30
0.0
11
-5.068620
21
6.141380
31
0.0
0
LINE
8
0
6
CONTINUOUS
10
-11.064190
20
7.322000
30
0.0
11
-9.399670
21
6.837530
31
0.0
0
LINE
8
0
6
CONTINUOUS
10
-12.674900
20
8.178490
30
0.0
11
-12.295480
21
7.876780
31
0.0
0
LINE
8
0
6
CONTINUOUS
10
-12.295480
20
7.876780
30
0.0
11
-11.064190
21
7.322000
31
0.0
0
LINE
8
0
6
CONTINUOUS
10
-9.399670
20
6.837530
30
0.0
11
-7.359810
21
6.439000
31
0.0
0
LINE
8
0
6
CONTINUOUS
10
-24.541610
20
105.231190
30
0.0
11
-27.261900
21
106.348220
31
0.0
0
LINE
8
0
6
CONTINUOUS
10
-8.367330
20
84.166810
30
0.0
11
-10.779620
21
86.900750
31
0.0
0
LINE
8
0
6
CONTINUOUS
10
-3.077560
20
81.344410
30
0.0
11
-5.835300
21
82.279480
31
0.0
0
LINE
8
0
6
CONTINUOUS
10
0.000080
20
81.092820
30
0.0
11
-3.077560
21
81.344410
31
0.0
0
LINE
8
0
6
CONTINUOUS
10
-5.835300
20
82.279480
30
0.0
11
-8.367330
21
84.166810
31
0.0
0
LINE
8
0
6
CONTINUOUS
10
-21.445960
20
102.229060
30
0.0
11
-19.621840
21
100.754270
31
0.0
0
LINE
8
0
6
CONTINUOUS
10
-17.876220
20
100.493370
30
0.0
11
-19.546730
21
102.054230
31
0.0
0
LINE
8
0
6
CONTINUOUS
10
-26.438190
20
104.217300
30
0.0
11
-23.734980
21
103.152700
31
0.0
0
LINE
8
0
6
CONTINUOUS
10
-22.139480
20
103.507480
30
0.0
11
-24.978810
21
104.562090
31
0.0
0
LINE
8
0
6
CONTINUOUS
10
-23.734980
20
103.152700
30
0.0
11
-21.445960
21
102.229060
31
0.0
0
LINE
8
0
6
CONTINUOUS
10
-19.546730
20
102.054230
30
0.0
11
-22.139480
21
103.507480
31
0.0
0
LINE
8
0
6
CONTINUOUS
10
-21.595920
20
104.023020
30
0.0
11
-24.541610
21
105.231190
31
0.0
0
LINE
8
0
6
CONTINUOUS
10
-28.408840
20
104.997540
30
0.0
11
-26.438190
21
104.217300
31
0.0
0
LINE
8
0
6
CONTINUOUS
10
-24.978810
20
104.562090
30
0.0
11
-27.678070
21
105.595300
31
0.0
0
LINE
8
0
6
CONTINUOUS
10
-61.521740
20
174.752230
30
0.0
11
-63.199760
21
167.733020
31
0.0
0
LINE
8
0
6
CONTINUOUS
10
-63.199760
20
167.733020
30
0.0
11
-63.234020
21
167.413890
31
0.0
0
LINE
8
0
6
CONTINUOUS
10
-58.911450
20
181.455640
30
0.0
11
-61.521740
21
174.752230
31
0.0
0
LINE
8
0
6
CONTINUOUS
10
-55.276990
20
187.686250
30
0.0
11
-58.911450
21
181.455640
31
0.0
0
LINE
8
0
6
CONTINUOUS
10
-63.234020
20
167.413890
30
0.0
11
-63.852320
21
160.792470
31
0.0
0
LINE
8
0
6
CONTINUOUS
10
-63.852320
20
160.792470
30
0.0
11
-63.852320
21
160.476150
31
0.0
0
LINE
8
0
6
CONTINUOUS
10
-63.852320
20
160.476150
30
0.0
11
-64.028760
21
154.497260
31
0.0
0
LINE
8
0
6
CONTINUOUS
10
-19.621840
20
100.754270
30
0.0
11
-17.797720
21
99.279480
31
0.0
0
LINE
8
0
6
CONTINUOUS
10
-16.779680
20
99.044360
30
0.0
11
-17.876220
21
100.493370
31
0.0
0
LINE
8
0
6
CONTINUOUS
10
-12.604050
20
88.682170
30
0.0
11
-13.418240
21
90.412160
31
0.0
0
LINE
8
0
6
CONTINUOUS
10
-8.259450
20
82.584090
30
0.0
11
-10.656290
21
85.132050
31
0.0
0
LINE
8
0
6
CONTINUOUS
10
-2.919290
20
80.031110
30
0.0
11
-5.644120
21
80.971830
31
0.0
0
LINE
8
0
6
CONTINUOUS
10
-16.122650
20
96.077630
30
0.0
11
-14.788490
21
81.936690
31
0.0
0
LINE
8
0
6
CONTINUOUS
10
0.000080
20
79.589470
30
0.0
11
-2.919290
21
80.031110
31
0.0
0
LINE
8
0
6
CONTINUOUS
10
-5.644120
20
80.971830
30
0.0
11
-8.259450
21
82.584090
31
0.0
0
LINE
8
0
6
CONTINUOUS
10
-10.656290
20
85.132050
30
0.0
11
-12.604050
21
88.682170
31
0.0
0
LINE
8
0
6
CONTINUOUS
10
-13.418240
20
90.412160
30
0.0
11
-14.358990
21
93.190540
31
0.0
0
LINE
8
0
6
CONTINUOUS
10
-14.358990
20
93.190540
30
0.0
11
-15.227430
21
95.766350
31
0.0
0
LINE
8
0
6
CONTINUOUS
10
-17.797720
20
99.279480
30
0.0
11
-16.960180
21
97.678560
31
0.0
0
LINE
8
0
6
CONTINUOUS
10
-16.045610
20
97.708210
30
0.0
11
-16.779680
21
99.044360
31
0.0
0
LINE
8
0
6
CONTINUOUS
10
-16.960180
20
97.678560
30
0.0
11
-16.122650
21
96.077630
31
0.0
0
LINE
8
0
6
CONTINUOUS
10
-15.227430
20
95.766350
30
0.0
11
-16.045610
21
97.708210
31
0.0
0
LINE
8
0
6
CONTINUOUS
10
-13.054330
20
8.480200
30
0.0
11
-12.674900
21
8.178490
31
0.0
0
LINE
8
0
6
CONTINUOUS
10
-43.099540
20
190.458880
30
0.0
11
-37.113290
21
194.755810
31
0.0
0
LINE
8
0
6
CONTINUOUS
10
-37.524630
20
195.024240
30
0.0
11
-43.517040
21
190.774830
31
0.0
0
LINE
8
0
6
CONTINUOUS
10
-37.113290
20
194.755810
30
0.0
11
-30.236810
21
198.584970
31
0.0
0
LINE
8
0
6
CONTINUOUS
10
-30.529200
20
199.008970
30
0.0
11
-37.524630
21
195.024240
31
0.0
0
LINE
8
0
6
CONTINUOUS
10
-30.236810
20
198.584970
30
0.0
11
-23.151100
21
201.377440
31
0.0
0
LINE
8
0
6
CONTINUOUS
10
-23.354660
20
201.755000
30
0.0
11
-30.529200
21
199.008970
31
0.0
0
LINE
8
0
6
CONTINUOUS
10
-23.151100
20
201.377440
30
0.0
11
-14.987000
21
203.591660
31
0.0
0
LINE
8
0
6
CONTINUOUS
10
-15.104920
20
203.893350
30
0.0
11
-23.354660
21
201.755000
31
0.0
0
LINE
8
0
6
CONTINUOUS
10
-14.987000
20
203.591660
30
0.0
11
-7.973790
21
204.846590
31
0.0
0
LINE
8
0
6
CONTINUOUS
10
-8.024810
20
205.169690
30
0.0
11
-15.104920
21
203.893350
31
0.0
0
LINE
8
0
6
CONTINUOUS
10
-7.973790
20
204.846590
30
0.0
11
-0.000060
21
205.328250
31
0.0
0
LINE
8
0
6
CONTINUOUS
10
-0.000060
20
205.660050
30
0.0
11
-8.024810
21
205.169690
31
0.0
0
LINE
8
0
6
CONTINUOUS
10
-43.732650
20
116.086620
30
0.0
11
-49.147850
21
121.389830
31
0.0
0
LINE
8
0
6
CONTINUOUS
10
-49.672700
20
120.857730
30
0.0
11
-44.128500
21
115.535430
31
0.0
0
LINE
8
0
6
CONTINUOUS
10
-49.147850
20
121.389830
30
0.0
11
-53.616180
21
126.976010
31
0.0
0
LINE
8
0
6
CONTINUOUS
10
-54.093950
20
126.444650
30
0.0
11
-49.672700
21
120.857730
31
0.0
0
LINE
8
0
6
CONTINUOUS
10
-53.616180
20
126.976010
30
0.0
11
-57.362050
21
133.518390
31
0.0
0
LINE
8
0
6
CONTINUOUS
10
-57.994250
20
133.240510
30
0.0
11
-54.093950
21
126.444650
31
0.0
0
LINE
8
0
6
CONTINUOUS
10
-57.362050
20
133.518390
30
0.0
11
-59.894100
21
140.282980
31
0.0
0
LINE
8
0
6
CONTINUOUS
10
-60.471820
20
139.805590
30
0.0
11
-57.994250
21
133.240510
31
0.0
0
LINE
8
0
6
CONTINUOUS
10
-59.894100
20
140.282980
30
0.0
11
-61.321790
21
146.757560
31
0.0
0
LINE
8
0
6
CONTINUOUS
10
-61.891770
20
146.431930
30
0.0
11
-60.471820
21
139.805590
31
0.0
0
LINE
8
0
6
CONTINUOUS
10
-61.321790
20
146.757560
30
0.0
11
-61.859460
21
153.714950
31
0.0
0
LINE
8
0
6
CONTINUOUS
10
-62.484950
20
153.530180
30
0.0
11
-61.891770
21
146.431930
31
0.0
0
LINE
8
0
6
CONTINUOUS
10
-59.633760
20
166.830200
30
0.0
11
-61.251200
21
160.452520
31
0.0
0
LINE
8
0
6
CONTINUOUS
10
-60.544970
20
160.007240
30
0.0
11
-58.985270
21
166.068140
31
0.0
0
LINE
8
0
6
CONTINUOUS
10
-43.099540
20
190.458880
30
0.0
11
-48.415630
21
185.544120
31
0.0
0
LINE
8
0
6
CONTINUOUS
10
-47.790230
20
184.791810
30
0.0
11
-42.682100
21
189.544160
31
0.0
0
LINE
8
0
6
CONTINUOUS
10
-48.415630
20
185.544120
30
0.0
11
-53.074300
21
179.784920
31
0.0
0
LINE
8
0
6
CONTINUOUS
10
-52.530890
20
179.026520
30
0.0
11
-47.790230
21
184.791810
31
0.0
0
LINE
8
0
6
CONTINUOUS
10
-53.074300
20
179.784920
30
0.0
11
-56.748920
21
173.824760
31
0.0
0
LINE
8
0
6
CONTINUOUS
10
-56.189410
20
173.131900
30
0.0
11
-52.530890
21
179.026520
31
0.0
0
LINE
8
0
6
CONTINUOUS
10
-56.748920
20
173.824760
30
0.0
11
-59.633760
21
166.830200
31
0.0
0
LINE
8
0
6
CONTINUOUS
10
-58.985270
20
166.068140
30
0.0
11
-56.189410
21
173.131900
31
0.0
0
LINE
8
0
6
CONTINUOUS
10
-61.251200
20
160.452520
30
0.0
11
-61.859460
21
153.714950
31
0.0
0
LINE
8
0
6
CONTINUOUS
10
-61.234040
20
153.300900
30
0.0
11
-60.544970
21
160.007240
31
0.0
0
LINE
8
0
6
CONTINUOUS
10
-43.732650
20
116.086620
30
0.0
11
-37.818110
21
111.693720
31
0.0
0
LINE
8
0
6
CONTINUOUS
10
-37.448780
20
111.812560
30
0.0
11
-43.336880
21
116.039070
31
0.0
0
LINE
8
0
6
CONTINUOUS
10
-37.818110
20
111.693720
30
0.0
11
-30.913600
21
107.853250
31
0.0
0
LINE
8
0
6
CONTINUOUS
10
-30.613190
20
107.910680
30
0.0
11
-37.448780
21
111.812560
31
0.0
0
LINE
8
0
6
CONTINUOUS
10
-30.913600
20
107.853250
30
0.0
11
-27.469950
21
106.271140
31
0.0
0
LINE
8
0
6
CONTINUOUS
10
-27.261900
20
106.348220
30
0.0
11
-30.613190
21
107.910680
31
0.0
0
LINE
8
0
6
CONTINUOUS
10
-27.678070
20
105.595300
30
0.0
11
-24.978810
21
104.562090
31
0.0
0
LINE
8
0
6
CONTINUOUS
10
-24.760180
20
105.196020
30
0.0
11
-27.469950
21
106.271140
31
0.0
0
LINE
8
0
6
CONTINUOUS
10
-13.418240
20
90.412160
30
0.0
11
-12.604050
21
88.682170
31
0.0
0
LINE
8
0
6
CONTINUOUS
10
-8.313360
20
83.674830
30
0.0
11
-10.575180
21
86.388070
31
0.0
0
LINE
8
0
6
CONTINUOUS
10
-10.656290
20
85.132050
30
0.0
11
-8.259450
21
82.584090
31
0.0
0
LINE
8
0
6
CONTINUOUS
10
-16.045610
20
97.708210
30
0.0
11
-15.227430
21
95.766350
31
0.0
0
LINE
8
0
6
CONTINUOUS
10
-15.227430
20
95.766350
30
0.0
11
-14.358990
21
93.190540
31
0.0
0
LINE
8
0
6
CONTINUOUS
10
-2.998390
20
80.987130
30
0.0
11
-5.739680
21
81.925030
31
0.0
0
LINE
8
0
6
CONTINUOUS
10
-5.644120
20
80.971830
30
0.0
11
-2.919290
21
80.031110
31
0.0
0
LINE
8
0
6
CONTINUOUS
10
0.000080
20
80.640520
30
0.0
11
-2.998390
21
80.987130
31
0.0
0
LINE
8
0
6
CONTINUOUS
10
-2.919290
20
80.031110
30
0.0
11
0.000080
21
79.589470
31
0.0
0
LINE
8
0
6
CONTINUOUS
10
-5.739680
20
81.925030
30
0.0
11
-8.313360
21
83.674830
31
0.0
0
LINE
8
0
6
CONTINUOUS
10
-8.259450
20
82.584090
30
0.0
11
-5.644120
21
80.971830
31
0.0
0
LINE
8
0
6
CONTINUOUS
10
-12.604050
20
88.682170
30
0.0
11
-10.656290
21
85.132050
31
0.0
0
LINE
8
0
6
CONTINUOUS
10
-14.358990
20
93.190540
30
0.0
11
-13.418240
21
90.412160
31
0.0
0
LINE
8
0
6
CONTINUOUS
10
-19.546730
20
102.054230
30
0.0
11
-17.876220
21
100.493370
31
0.0
0
LINE
8
0
6
CONTINUOUS
10
-24.978810
20
104.562090
30
0.0
11
-22.139480
21
103.507480
31
0.0
0
LINE
8
0
6
CONTINUOUS
10
-21.867660
20
104.064630
30
0.0
11
-24.760180
21
105.196020
31
0.0
0
LINE
8
0
6
CONTINUOUS
10
-22.139480
20
103.507480
30
0.0
11
-19.546730
21
102.054230
31
0.0
0
LINE
8
0
6
CONTINUOUS
10
-17.876220
20
100.493370
30
0.0
11
-16.779680
21
99.044360
31
0.0
0
LINE
8
0
6
CONTINUOUS
10
-16.779680
20
99.044360
30
0.0
11
-16.045610
21
97.708210
31
0.0
0
LINE
8
0
6
CONTINUOUS
10
60.282280
20
166.993580
30
0.0
11
61.957480
21
160.299120
31
0.0
0
LINE
8
0
6
CONTINUOUS
10
50.242800
20
194.127380
30
0.0
11
44.789820
21
199.470020
31
0.0
0
LINE
8
0
6
CONTINUOUS
10
55.276930
20
187.686340
30
0.0
11
54.904030
21
188.229940
31
0.0
0
LINE
8
0
6
CONTINUOUS
10
54.904030
20
188.229940
30
0.0
11
50.242800
21
194.127380
31
0.0
0
LINE
8
0
6
CONTINUOUS
10
36.701920
20
193.888680
30
0.0
11
42.682020
21
189.544230
31
0.0
0
LINE
8
0
6
CONTINUOUS
10
29.944390
20
197.562210
30
0.0
11
36.701920
21
193.888680
31
0.0
0
LINE
8
0
6
CONTINUOUS
10
22.947500
20
200.401190
30
0.0
11
29.944390
21
197.562210
31
0.0
0
LINE
8
0
6
CONTINUOUS
10
14.869030
20
202.691240
30
0.0
11
22.947500
21
200.401190
31
0.0
0
LINE
8
0
6
CONTINUOUS
10
7.922720
20
203.924740
30
0.0
11
14.869030
21
202.691240
31
0.0
0
LINE
8
0
6
CONTINUOUS
10
-0.000060
20
204.397690
30
0.0
11
7.922720
21
203.924740
31
0.0
0
LINE
8
0
6
CONTINUOUS
10
43.516960
20
190.774910
30
0.0
11
49.041020
21
185.697740
31
0.0
0
LINE
8
0
6
CONTINUOUS
10
50.069780
20
186.674400
30
0.0
11
44.511830
21
191.878770
31
0.0
0
LINE
8
0
6
CONTINUOUS
10
49.041020
20
185.697740
30
0.0
11
53.617720
21
179.944680
31
0.0
0
LINE
8
0
6
CONTINUOUS
10
54.744790
20
180.900640
30
0.0
11
50.069780
21
186.674400
31
0.0
0
LINE
8
0
6
CONTINUOUS
10
53.617720
20
179.944680
30
0.0
11
57.308460
21
173.918930
31
0.0
0
LINE
8
0
6
CONTINUOUS
10
57.308460
20
173.918930
30
0.0
11
60.282280
21
166.993580
31
0.0
0
LINE
8
0
6
CONTINUOUS
10
61.957480
20
160.299120
30
0.0
11
62.484950
21
153.530300
31
0.0
0
LINE
8
0
6
CONTINUOUS
10
54.744790
20
180.900640
30
0.0
11
58.551030
21
174.496680
31
0.0
0
LINE
8
0
6
CONTINUOUS
10
58.551030
20
174.496680
30
0.0
11
61.347190
21
167.563500
31
0.0
0
LINE
8
0
6
CONTINUOUS
10
61.347190
20
167.563500
30
0.0
11
63.041110
21
160.705070
31
0.0
0
LINE
8
0
6
CONTINUOUS
10
63.041110
20
160.705070
30
0.0
11
63.740950
21
153.731180
31
0.0
0
LINE
8
0
6
CONTINUOUS
10
64.054540
20
154.230940
30
0.0
11
63.436980
21
161.248480
31
0.0
0
LINE
8
0
6
CONTINUOUS
10
48.623130
20
121.323250
30
0.0
11
43.336960
21
116.039150
31
0.0
0
LINE
8
0
6
CONTINUOUS
10
53.138540
20
126.908700
30
0.0
11
48.623130
21
121.323250
31
0.0
0
LINE
8
0
6
CONTINUOUS
10
56.729970
20
133.197620
30
0.0
11
53.138540
21
126.908700
31
0.0
0
LINE
8
0
6
CONTINUOUS
10
59.316480
20
140.161750
30
0.0
11
56.729970
21
133.197620
31
0.0
0
LINE
8
0
6
CONTINUOUS
10
60.751900
20
146.484530
30
0.0
11
59.316480
21
140.161750
31
0.0
0
LINE
8
0
6
CONTINUOUS
10
61.234040
20
153.301010
30
0.0
11
60.751900
21
146.484530
31
0.0
0
LINE
8
0
6
CONTINUOUS
10
59.215020
20
133.389730
30
0.0
11
61.924230
21
140.195120
31
0.0
0
LINE
8
0
6
CONTINUOUS
10
59.027030
20
132.980130
30
0.0
11
59.215020
21
133.389730
31
0.0
0
LINE
8
0
6
CONTINUOUS
10
61.924230
20
140.195120
30
0.0
11
63.513260
21
147.051090
31
0.0
0
LINE
8
0
6
CONTINUOUS
10
63.513260
20
147.051090
30
0.0
11
64.054540
21
154.230940
31
0.0
0
LINE
8
0
6
CONTINUOUS
10
44.128600
20
115.535510
30
0.0
11
38.187600
21
110.976170
31
0.0
0
LINE
8
0
6
CONTINUOUS
10
38.852840
20
110.567730
30
0.0
11
44.985500
21
115.171590
31
0.0
0
LINE
8
0
6
CONTINUOUS
10
38.187600
20
110.976170
30
0.0
11
31.214180
21
107.197120
31
0.0
0
LINE
8
0
6
CONTINUOUS
10
32.053360
20
106.695690
30
0.0
11
38.852840
21
110.567730
31
0.0
0
LINE
8
0
6
CONTINUOUS
10
31.214180
20
107.197120
30
0.0
11
27.678190
21
105.595340
31
0.0
0
LINE
8
0
6
CONTINUOUS
10
28.408960
20
104.997600
30
0.0
11
32.053360
21
106.695690
31
0.0
0
LINE
8
0
6
CONTINUOUS
10
61.957480
20
160.299120
30
0.0
11
60.282280
21
166.993580
31
0.0
0
LINE
8
0
6
CONTINUOUS
10
44.511830
20
191.878770
30
0.0
11
38.334250
21
196.105760
31
0.0
0
LINE
8
0
6
CONTINUOUS
10
37.524530
20
195.024290
30
0.0
11
43.516960
21
190.774910
31
0.0
0
LINE
8
0
6
CONTINUOUS
10
38.334250
20
196.105760
30
0.0
11
31.486220
21
200.048480
31
0.0
0
LINE
8
0
6
CONTINUOUS
10
30.529090
20
199.009030
30
0.0
11
37.524530
21
195.024290
31
0.0
0
LINE
8
0
6
CONTINUOUS
10
31.486220
20
200.048480
30
0.0
11
24.156180
21
203.022570
31
0.0
0
LINE
8
0
6
CONTINUOUS
10
23.354550
20
201.755040
30
0.0
11
30.529090
21
199.009030
31
0.0
0
LINE
8
0
6
CONTINUOUS
10
24.156180
20
203.022570
30
0.0
11
15.622970
21
205.355120
31
0.0
0
LINE
8
0
6
CONTINUOUS
10
15.104800
20
203.893370
30
0.0
11
23.354550
21
201.755040
31
0.0
0
LINE
8
0
6
CONTINUOUS
10
15.622970
20
205.355120
30
0.0
11
8.202100
21
206.538190
31
0.0
0
LINE
8
0
6
CONTINUOUS
10
8.024690
20
205.169710
30
0.0
11
15.104800
21
203.893370
31
0.0
0
LINE
8
0
6
CONTINUOUS
10
8.202100
20
206.538190
30
0.0
11
-0.000060
21
207.086520
31
0.0
0
LINE
8
0
6
CONTINUOUS
10
-0.000060
20
205.660050
30
0.0
11
8.024690
21
205.169710
31
0.0
0
LINE
8
0
6
CONTINUOUS
10
49.041020
20
185.697740
30
0.0
11
43.516960
21
190.774910
31
0.0
0
LINE
8
0
6
CONTINUOUS
10
53.617720
20
179.944680
30
0.0
11
49.041020
21
185.697740
31
0.0
0
LINE
8
0
6
CONTINUOUS
10
57.308460
20
173.918930
30
0.0
11
53.617720
21
179.944680
31
0.0
0
LINE
8
0
6
CONTINUOUS
10
60.282280
20
166.993580
30
0.0
11
57.308460
21
173.918930
31
0.0
0
LINE
8
0
6
CONTINUOUS
10
62.484950
20
153.530300
30
0.0
11
61.957480
21
160.299120
31
0.0
0
LINE
8
0
6
CONTINUOUS
10
44.985500
20
115.171590
30
0.0
11
50.603250
21
120.542760
31
0.0
0
LINE
8
0
6
CONTINUOUS
10
49.672780
20
120.857810
30
0.0
11
44.128600
21
115.535510
31
0.0
0
LINE
8
0
6
CONTINUOUS
10
50.603250
20
120.542760
30
0.0
11
55.262950
21
126.321010
31
0.0
0
LINE
8
0
6
CONTINUOUS
10
54.094020
20
126.444740
30
0.0
11
49.672780
21
120.857810
31
0.0
0
LINE
8
0
6
CONTINUOUS
10
55.262950
20
126.321010
30
0.0
11
59.027030
21
132.980130
31
0.0
0
LINE
8
0
6
CONTINUOUS
10
57.994290
20
133.240620
30
0.0
11
54.094020
21
126.444740
31
0.0
0
LINE
8
0
6
CONTINUOUS
10
59.027030
20
132.980130
30
0.0
11
61.701180
21
139.643840
31
0.0
0
LINE
8
0
6
CONTINUOUS
10
60.471850
20
139.805690
30
0.0
11
57.994290
21
133.240620
31
0.0
0
LINE
8
0
6
CONTINUOUS
10
61.701180
20
139.643840
30
0.0
11
63.225040
21
146.527810
31
0.0
0
LINE
8
0
6
CONTINUOUS
10
61.891780
20
146.432040
30
0.0
11
60.471850
21
139.805690
31
0.0
0
LINE
8
0
6
CONTINUOUS
10
63.225040
20
146.527810
30
0.0
11
63.740950
21
153.731180
31
0.0
0
LINE
8
0
6
CONTINUOUS
10
62.484950
20
153.530300
30
0.0
11
61.891780
21
146.432040
31
0.0
0
LINE
8
0
6
CONTINUOUS
10
38.187600
20
110.976170
30
0.0
11
44.128600
21
115.535510
31
0.0
0
LINE
8
0
6
CONTINUOUS
10
31.214180
20
107.197120
30
0.0
11
38.187600
21
110.976170
31
0.0
0
LINE
8
0
6
CONTINUOUS
10
27.678190
20
105.595340
30
0.0
11
31.214180
21
107.197120
31
0.0
0
LINE
8
0
6
CONTINUOUS
10
24.235730
20
211.067080
30
0.0
11
16.173100
21
213.322900
31
0.0
0
LINE
8
0
6
CONTINUOUS
10
38.497800
20
204.100790
30
0.0
11
31.553870
21
208.059130
31
0.0
0
LINE
8
0
6
CONTINUOUS
10
44.789820
20
199.470020
30
0.0
11
38.497800
21
204.100790
31
0.0
0
LINE
8
0
6
CONTINUOUS
10
8.132500
20
214.717520
30
0.0
11
-0.000060
21
215.270280
31
0.0
0
LINE
8
0
6
CONTINUOUS
10
16.009960
20
213.353320
30
0.0
11
8.132500
21
214.717520
31
0.0
0
LINE
8
0
6
CONTINUOUS
10
16.173100
20
213.322900
30
0.0
11
16.009960
21
213.353320
31
0.0
0
LINE
8
0
6
CONTINUOUS
10
31.437340
20
208.115650
30
0.0
11
24.235730
21
211.067080
31
0.0
0
LINE
8
0
6
CONTINUOUS
10
31.553870
20
208.059130
30
0.0
11
31.437340
21
208.115650
31
0.0
0
LINE
8
0
6
CONTINUOUS
10
13.311500
20
9.643830
30
0.0
11
14.788660
21
81.936710
31
0.0
0
LINE
8
0
6
CONTINUOUS
10
2.574830
20
5.974460
30
0.0
11
5.068930
21
6.141390
31
0.0
0
LINE
8
0
6
CONTINUOUS
10
0.000150
20
5.915440
30
0.0
11
2.574830
21
5.974460
31
0.0
0
LINE
8
0
6
CONTINUOUS
10
13.054640
20
8.480220
30
0.0
11
13.309540
21
9.107910
31
0.0
0
LINE
8
0
6
CONTINUOUS
10
13.309540
20
9.107910
30
0.0
11
13.311500
21
9.643830
31
0.0
0
LINE
8
0
6
CONTINUOUS
10
5.068930
20
6.141390
30
0.0
11
7.360120
21
6.439020
31
0.0
0
LINE
8
0
6
CONTINUOUS
10
9.399980
20
6.837550
30
0.0
11
11.064510
21
7.322020
31
0.0
0
LINE
8
0
6
CONTINUOUS
10
12.295800
20
7.876800
30
0.0
11
12.675220
21
8.178510
31
0.0
0
LINE
8
0
6
CONTINUOUS
10
11.064510
20
7.322020
30
0.0
11
12.295800
21
7.876800
31
0.0
0
LINE
8
0
6
CONTINUOUS
10
7.360120
20
6.439020
30
0.0
11
9.399980
21
6.837550
31
0.0
0
LINE
8
0
6
CONTINUOUS
10
27.262010
20
106.348270
30
0.0
11
24.541720
21
105.231240
31
0.0
0
LINE
8
0
6
CONTINUOUS
10
10.779770
20
86.900770
30
0.0
11
8.367480
21
84.166820
31
0.0
0
LINE
8
0
6
CONTINUOUS
10
5.835450
20
82.279490
30
0.0
11
3.077710
21
81.344410
31
0.0
0
LINE
8
0
6
CONTINUOUS
10
3.077710
20
81.344410
30
0.0
11
0.000080
21
81.092820
31
0.0
0
LINE
8
0
6
CONTINUOUS
10
8.367480
20
84.166820
30
0.0
11
5.835450
21
82.279490
31
0.0
0
LINE
8
0
6
CONTINUOUS
10
19.546860
20
102.054260
30
0.0
11
17.876340
21
100.493400
31
0.0
0
LINE
8
0
6
CONTINUOUS
10
19.621970
20
100.754300
30
0.0
11
21.446090
21
102.229100
31
0.0
0
LINE
8
0
6
CONTINUOUS
10
24.978930
20
104.562130
30
0.0
11
22.139600
21
103.507520
31
0.0
0
LINE
8
0
6
CONTINUOUS
10
23.735110
20
103.152740
30
0.0
11
26.438310
21
104.217350
31
0.0
0
LINE
8
0
6
CONTINUOUS
10
22.139600
20
103.507520
30
0.0
11
19.546860
21
102.054260
31
0.0
0
LINE
8
0
6
CONTINUOUS
10
21.446090
20
102.229100
30
0.0
11
23.735110
21
103.152740
31
0.0
0
LINE
8
0
6
CONTINUOUS
10
24.541720
20
105.231240
30
0.0
11
21.596040
21
104.023060
31
0.0
0
LINE
8
0
6
CONTINUOUS
10
27.678190
20
105.595340
30
0.0
11
24.978930
21
104.562130
31
0.0
0
LINE
8
0
6
CONTINUOUS
10
26.438310
20
104.217350
30
0.0
11
28.408960
21
104.997600
31
0.0
0
LINE
8
0
6
CONTINUOUS
10
63.234000
20
167.414000
30
0.0
11
63.199740
21
167.733140
31
0.0
0
LINE
8
0
6
CONTINUOUS
10
63.199740
20
167.733140
30
0.0
11
61.521710
21
174.752340
31
0.0
0
LINE
8
0
6
CONTINUOUS
10
61.521710
20
174.752340
30
0.0
11
58.911410
21
181.455740
31
0.0
0
LINE
8
0
6
CONTINUOUS
10
58.911410
20
181.455740
30
0.0
11
55.276930
21
187.686340
31
0.0
0
LINE
8
0
6
CONTINUOUS
10
63.852320
20
160.792580
30
0.0
11
63.234000
21
167.414000
31
0.0
0
LINE
8
0
6
CONTINUOUS
10
63.852320
20
160.476270
30
0.0
11
63.852320
21
160.792580
31
0.0
0
LINE
8
0
6
CONTINUOUS
10
64.028760
20
154.497380
30
0.0
11
63.852320
21
160.476270
31
0.0
0
LINE
8
0
6
CONTINUOUS
10
17.876340
20
100.493400
30
0.0
11
16.779810
21
99.044390
31
0.0
0
LINE
8
0
6
CONTINUOUS
10
17.797850
20
99.279520
30
0.0
11
19.621970
21
100.754300
31
0.0
0
LINE
8
0
6
CONTINUOUS
10
13.418380
20
90.412190
30
0.0
11
12.604200
21
88.682200
31
0.0
0
LINE
8
0
6
CONTINUOUS
10
10.656440
20
85.132070
30
0.0
11
8.259600
21
82.584110
31
0.0
0
LINE
8
0
6
CONTINUOUS
10
5.644270
20
80.971840
30
0.0
11
2.919450
21
80.031110
31
0.0
0
LINE
8
0
6
CONTINUOUS
10
14.788660
20
81.936710
30
0.0
11
16.122780
21
96.077660
31
0.0
0
LINE
8
0
6
CONTINUOUS
10
2.919450
20
80.031110
30
0.0
11
0.000080
21
79.589470
31
0.0
0
LINE
8
0
6
CONTINUOUS
10
8.259600
20
82.584110
30
0.0
11
5.644270
21
80.971840
31
0.0
0
LINE
8
0
6
CONTINUOUS
10
12.604200
20
88.682200
30
0.0
11
10.656440
21
85.132070
31
0.0
0
LINE
8
0
6
CONTINUOUS
10
14.359130
20
93.190570
30
0.0
11
13.418380
21
90.412190
31
0.0
0
LINE
8
0
6
CONTINUOUS
10
15.227560
20
95.766380
30
0.0
11
14.359130
21
93.190570
31
0.0
0
LINE
8
0
6
CONTINUOUS
10
16.779810
20
99.044390
30
0.0
11
16.045740
21
97.708240
31
0.0
0
LINE
8
0
6
CONTINUOUS
10
16.960320
20
97.678590
30
0.0
11
17.797850
21
99.279520
31
0.0
0
LINE
8
0
6
CONTINUOUS
10
16.045740
20
97.708240
30
0.0
11
15.227560
21
95.766380
31
0.0
0
LINE
8
0
6
CONTINUOUS
10
16.122780
20
96.077660
30
0.0
11
16.960320
21
97.678590
31
0.0
0
LINE
8
0
6
CONTINUOUS
10
12.675220
20
8.178510
30
0.0
11
13.054640
21
8.480220
31
0.0
0
LINE
8
0
6
CONTINUOUS
10
43.516960
20
190.774910
30
0.0
11
37.524530
21
195.024290
31
0.0
0
LINE
8
0
6
CONTINUOUS
10
37.113190
20
194.755870
30
0.0
11
43.099450
21
190.458960
31
0.0
0
LINE
8
0
6
CONTINUOUS
10
37.524530
20
195.024290
30
0.0
11
30.529090
21
199.009030
31
0.0
0
LINE
8
0
6
CONTINUOUS
10
30.236710
20
198.585010
30
0.0
11
37.113190
21
194.755870
31
0.0
0
LINE
8
0
6
CONTINUOUS
10
30.529090
20
199.009030
30
0.0
11
23.354550
21
201.755040
31
0.0
0
LINE
8
0
6
CONTINUOUS
10
23.150990
20
201.377480
30
0.0
11
30.236710
21
198.585010
31
0.0
0
LINE
8
0
6
CONTINUOUS
10
23.354550
20
201.755040
30
0.0
11
15.104800
21
203.893370
31
0.0
0
LINE
8
0
6
CONTINUOUS
10
14.986880
20
203.591680
30
0.0
11
23.150990
21
201.377480
31
0.0
0
LINE
8
0
6
CONTINUOUS
10
15.104800
20
203.893370
30
0.0
11
8.024690
21
205.169710
31
0.0
0
LINE
8
0
6
CONTINUOUS
10
7.973670
20
204.846600
30
0.0
11
14.986880
21
203.591680
31
0.0
0
LINE
8
0
6
CONTINUOUS
10
8.024690
20
205.169710
30
0.0
11
-0.000060
21
205.660050
31
0.0
0
LINE
8
0
6
CONTINUOUS
10
-0.000060
20
205.328250
30
0.0
11
7.973670
21
204.846600
31
0.0
0
LINE
8
0
6
CONTINUOUS
10
44.128600
20
115.535510
30
0.0
11
49.672780
21
120.857810
31
0.0
0
LINE
8
0
6
CONTINUOUS
10
49.147930
20
121.389930
30
0.0
11
43.732750
21
116.086710
31
0.0
0
LINE
8
0
6
CONTINUOUS
10
49.672780
20
120.857810
30
0.0
11
54.094020
21
126.444740
31
0.0
0
LINE
8
0
6
CONTINUOUS
10
53.616250
20
126.976100
30
0.0
11
49.147930
21
121.389930
31
0.0
0
LINE
8
0
6
CONTINUOUS
10
54.094020
20
126.444740
30
0.0
11
57.994290
21
133.240620
31
0.0
0
LINE
8
0
6
CONTINUOUS
10
57.362100
20
133.518500
30
0.0
11
53.616250
21
126.976100
31
0.0
0
LINE
8
0
6
CONTINUOUS
10
57.994290
20
133.240620
30
0.0
11
60.471850
21
139.805690
31
0.0
0
LINE
8
0
6
CONTINUOUS
10
59.894130
20
140.283080
30
0.0
11
57.362100
21
133.518500
31
0.0
0
LINE
8
0
6
CONTINUOUS
10
60.471850
20
139.805690
30
0.0
11
61.891780
21
146.432040
31
0.0
0
LINE
8
0
6
CONTINUOUS
10
61.321800
20
146.757670
30
0.0
11
59.894130
21
140.283080
31
0.0
0
LINE
8
0
6
CONTINUOUS
10
61.891780
20
146.432040
30
0.0
11
62.484950
21
153.530300
31
0.0
0
LINE
8
0
6
CONTINUOUS
10
61.859460
20
153.715060
30
0.0
11
61.321800
21
146.757670
31
0.0
0
LINE
8
0
6
CONTINUOUS
10
58.985240
20
166.068250
30
0.0
11
60.544950
21
160.007350
31
0.0
0
LINE
8
0
6
CONTINUOUS
10
61.251180
20
160.452640
30
0.0
11
59.633730
21
166.830310
31
0.0
0
LINE
8
0
6
CONTINUOUS
10
42.682020
20
189.544230
30
0.0
11
47.790150
21
184.791900
31
0.0
0
LINE
8
0
6
CONTINUOUS
10
48.415550
20
185.544220
30
0.0
11
43.099450
21
190.458960
31
0.0
0
LINE
8
0
6
CONTINUOUS
10
47.790150
20
184.791900
30
0.0
11
52.530830
21
179.026600
31
0.0
0
LINE
8
0
6
CONTINUOUS
10
53.074240
20
179.785020
30
0.0
11
48.415550
21
185.544220
31
0.0
0
LINE
8
0
6
CONTINUOUS
10
52.530830
20
179.026600
30
0.0
11
56.189370
21
173.132010
31
0.0
0
LINE
8
0
6
CONTINUOUS
10
56.748880
20
173.824860
30
0.0
11
53.074240
21
179.785020
31
0.0
0
LINE
8
0
6
CONTINUOUS
10
56.189370
20
173.132010
30
0.0
11
58.985240
21
166.068250
31
0.0
0
LINE
8
0
6
CONTINUOUS
10
59.633730
20
166.830310
30
0.0
11
56.748880
21
173.824860
31
0.0
0
LINE
8
0
6
CONTINUOUS
10
60.544950
20
160.007350
30
0.0
11
61.234040
21
153.301010
31
0.0
0
LINE
8
0
6
CONTINUOUS
10
61.859460
20
153.715060
30
0.0
11
61.251180
21
160.452640
31
0.0
0
LINE
8
0
6
CONTINUOUS
10
43.336960
20
116.039150
30
0.0
11
37.448880
21
111.812620
31
0.0
0
LINE
8
0
6
CONTINUOUS
10
37.818210
20
111.693790
30
0.0
11
43.732750
21
116.086710
31
0.0
0
LINE
8
0
6
CONTINUOUS
10
37.448880
20
111.812620
30
0.0
11
30.613300
21
107.910740
31
0.0
0
LINE
8
0
6
CONTINUOUS
10
30.913710
20
107.853310
30
0.0
11
37.818210
21
111.693790
31
0.0
0
LINE
8
0
6
CONTINUOUS
10
30.613300
20
107.910740
30
0.0
11
27.262010
21
106.348270
31
0.0
0
LINE
8
0
6
CONTINUOUS
10
27.470060
20
106.271170
30
0.0
11
30.913710
21
107.853310
31
0.0
0
LINE
8
0
6
CONTINUOUS
10
27.470060
20
106.271170
30
0.0
11
24.760290
21
105.196060
31
0.0
0
LINE
8
0
6
CONTINUOUS
10
24.978930
20
104.562130
30
0.0
11
27.678190
21
105.595340
31
0.0
0
LINE
8
0
6
CONTINUOUS
10
12.604200
20
88.682200
30
0.0
11
13.418380
21
90.412190
31
0.0
0
LINE
8
0
6
CONTINUOUS
10
8.259600
20
82.584110
30
0.0
11
10.656440
21
85.132070
31
0.0
0
LINE
8
0
6
CONTINUOUS
10
10.575320
20
86.388090
30
0.0
11
8.313510
21
83.674840
31
0.0
0
LINE
8
0
6
CONTINUOUS
10
15.227560
20
95.766380
30
0.0
11
16.045740
21
97.708240
31
0.0
0
LINE
8
0
6
CONTINUOUS
10
14.359130
20
93.190570
30
0.0
11
15.227560
21
95.766380
31
0.0
0
LINE
8
0
6
CONTINUOUS
10
2.919450
20
80.031110
30
0.0
11
5.644270
21
80.971840
31
0.0
0
LINE
8
0
6
CONTINUOUS
10
5.739830
20
81.925040
30
0.0
11
2.998550
21
80.987140
31
0.0
0
LINE
8
0
6
CONTINUOUS
10
0.000080
20
79.589470
30
0.0
11
2.919450
21
80.031110
31
0.0
0
LINE
8
0
6
CONTINUOUS
10
2.998550
20
80.987140
30
0.0
11
0.000080
21
80.640520
31
0.0
0
LINE
8
0
6
CONTINUOUS
10
5.644270
20
80.971840
30
0.0
11
8.259600
21
82.584110
31
0.0
0
LINE
8
0
6
CONTINUOUS
10
8.313510
20
83.674840
30
0.0
11
5.739830
21
81.925040
31
0.0
0
LINE
8
0
6
CONTINUOUS
10
10.656440
20
85.132070
30
0.0
11
12.604200
21
88.682200
31
0.0
0
LINE
8
0
6
CONTINUOUS
10
13.418380
20
90.412190
30
0.0
11
14.359130
21
93.190570
31
0.0
0
LINE
8
0
6
CONTINUOUS
10
17.876340
20
100.493400
30
0.0
11
19.546860
21
102.054260
31
0.0
0
LINE
8
0
6
CONTINUOUS
10
24.760290
20
105.196060
30
0.0
11
21.867780
21
104.064670
31
0.0
0
LINE
8
0
6
CONTINUOUS
10
22.139600
20
103.507520
30
0.0
11
24.978930
21
104.562130
31
0.0
0
LINE
8
0
6
CONTINUOUS
10
19.546860
20
102.054260
30
0.0
11
22.139600
21
103.507520
31
0.0
0
LINE
8
0
6
CONTINUOUS
10
16.779810
20
99.044390
30
0.0
11
17.876340
21
100.493400
31
0.0
0
LINE
8
0
6
CONTINUOUS
10
16.045740
20
97.708240
30
0.0
11
16.779810
21
99.044390
31
0.0
0
LINE
8
0
6
CONTINUOUS
10
-8.486350
20
-45.008930
30
0.0
11
-7.012775
21
-44.773970
31
0.0
0
LINE
8
0
6
CONTINUOUS
10
-15.308800
20
9.353900
30
0.0
11
-15.308800
21
9.157970
31
0.0
0
LINE
8
0
6
CONTINUOUS
10
-14.749380
20
9.351800
30
0.0
11
-15.308800
21
9.353900
31
0.0
0
LINE
8
0
6
CONTINUOUS
10
-9.590160
20
-2.903570
30
0.0
11
-9.592230
21
-2.030720
31
0.0
0
LINE
8
0
6
CONTINUOUS
10
-14.515160
20
-47.678500
30
0.0
11
-13.861020
21
-48.032540
31
0.0
0
LINE
8
0
6
CONTINUOUS
10
-9.489040
20
-45.286338
30
0.0
11
-8.486350
21
-45.008930
31
0.0
0
LINE
8
0
6
CONTINUOUS
10
-15.315480
20
-0.365270
30
0.0
11
-15.315120
21
-1.241620
31
0.0
0
LINE
8
0
6
CONTINUOUS
10
-9.484010
20
-47.394460
30
0.0
11
-9.590160
21
-2.903570
31
0.0
0
LINE
8
0
6
CONTINUOUS
10
-15.308800
20
-0.820590
30
0.0
11
-15.308770
21
-45.531210
31
0.0
0
LINE
8
0
6
CONTINUOUS
10
-9.481580
20
-48.416180
30
0.0
11
-9.484010
21
-47.394460
31
0.0
0
LINE
8
0
6
CONTINUOUS
10
-9.725160
20
-48.440710
30
0.0
11
-9.481580
21
-48.416180
31
0.0
0
LINE
8
0
6
CONTINUOUS
10
-13.861020
20
-48.032540
30
0.0
11
-12.983440
21
-48.362970
31
0.0
0
LINE
8
0
6
CONTINUOUS
10
-12.983440
20
-48.362970
30
0.0
11
-11.977520
21
-48.610510
31
0.0
0
LINE
8
0
6
CONTINUOUS
10
-15.308770
20
-46.557970
30
0.0
11
-15.296210
21
-46.937420
31
0.0
0
LINE
8
0
6
CONTINUOUS
10
-15.308770
20
-45.531210
30
0.0
11
-15.308770
21
-46.557970
31
0.0
0
LINE
8
0
6
CONTINUOUS
10
-14.998010
20
-47.312100
30
0.0
11
-14.515160
21
-47.678500
31
0.0
0
LINE
8
0
6
CONTINUOUS
10
-15.296210
20
-46.937420
30
0.0
11
-14.998010
21
-47.312100
31
0.0
0
LINE
8
0
6
CONTINUOUS
10
-12.071230
20
-0.978780
30
0.0
11
-12.195600
21
-0.574200
31
0.0
0
LINE
8
0
6
CONTINUOUS
10
-15.308800
20
0.056560
30
0.0
11
-15.315480
21
-0.365270
31
0.0
0
LINE
8
0
6
CONTINUOUS
10
-11.622610
20
-1.367650
30
0.0
11
-12.071230
21
-0.978780
31
0.0
0
LINE
8
0
6
CONTINUOUS
10
-11.812790
20
-48.651060
30
0.0
11
-11.543500
21
-48.623890
31
0.0
0
LINE
8
0
6
CONTINUOUS
10
-10.821720
20
-1.731770
30
0.0
11
-11.622610
21
-1.367650
31
0.0
0
LINE
8
0
6
CONTINUOUS
10
-15.308800
20
0.478390
30
0.0
11
-15.308800
21
0.056560
31
0.0
0
LINE
8
0
6
CONTINUOUS
10
-11.977520
20
-48.610510
30
0.0
11
-11.812790
21
-48.651060
31
0.0
0
LINE
8
0
6
CONTINUOUS
10
-9.765240
20
-1.988650
30
0.0
11
-10.821720
21
-1.731770
31
0.0
0
LINE
8
0
6
CONTINUOUS
10
-9.592230
20
-2.030720
30
0.0
11
-9.765240
21
-1.988650
31
0.0
0
LINE
8
0
6
CONTINUOUS
10
-11.543500
20
-48.623890
30
0.0
11
-9.725160
21
-48.440710
31
0.0
0
LINE
8
0
6
CONTINUOUS
10
-12.808830
20
9.344630
30
0.0
11
-14.749380
21
9.351800
31
0.0
0
LINE
8
0
6
CONTINUOUS
10
-15.308800
20
9.157970
30
0.0
11
-15.308800
21
0.478390
31
0.0
0
LINE
8
0
6
CONTINUOUS
10
6.188881
20
-44.741068
30
0.0
11
7.868800
21
-45.008930
31
0.0
0
LINE
8
0
6
CONTINUOUS
10
14.691240
20
9.353900
30
0.0
11
14.131820
21
9.351800
31
0.0
0
LINE
8
0
6
CONTINUOUS
10
14.691240
20
9.157970
30
0.0
11
14.691240
21
9.353900
31
0.0
0
LINE
8
0
6
CONTINUOUS
10
8.974680
20
-2.030720
30
0.0
11
8.972600
21
-2.903570
31
0.0
0
LINE
8
0
6
CONTINUOUS
10
13.243490
20
-48.032540
30
0.0
11
13.897590
21
-47.678500
31
0.0
0
LINE
8
0
6
CONTINUOUS
10
7.868800
20
-45.008930
30
0.0
11
8.871489
21
-45.286337
31
0.0
0
LINE
8
0
6
CONTINUOUS
10
14.697570
20
-1.241620
30
0.0
11
14.697920
21
-0.365270
31
0.0
0
LINE
8
0
6
CONTINUOUS
10
8.972600
20
-2.903570
30
0.0
11
8.866460
21
-47.394460
31
0.0
0
LINE
8
0
6
CONTINUOUS
10
14.691200
20
-45.531210
30
0.0
11
14.691240
21
-0.820590
31
0.0
0
LINE
8
0
6
CONTINUOUS
10
8.864020
20
-48.416180
30
0.0
11
9.107600
21
-48.440710
31
0.0
0
LINE
8
0
6
CONTINUOUS
10
8.866460
20
-47.394460
30
0.0
11
8.864020
21
-48.416180
31
0.0
0
LINE
8
0
6
CONTINUOUS
10
12.365880
20
-48.362970
30
0.0
11
13.243490
21
-48.032540
31
0.0
0
LINE
8
0
6
CONTINUOUS
10
11.359940
20
-48.610510
30
0.0
11
12.365880
21
-48.362970
31
0.0
0
LINE
8
0
6
CONTINUOUS
10
14.691200
20
-46.557970
30
0.0
11
14.691200
21
-45.531210
31
0.0
0
LINE
8
0
6
CONTINUOUS
10
14.678650
20
-46.937420
30
0.0
11
14.691200
21
-46.557970
31
0.0
0
LINE
8
0
6
CONTINUOUS
10
13.897590
20
-47.678500
30
0.0
11
14.380460
21
-47.312100
31
0.0
0
LINE
8
0
6
CONTINUOUS
10
14.380460
20
-47.312100
30
0.0
11
14.678650
21
-46.937420
31
0.0
0
LINE
8
0
6
CONTINUOUS
10
14.691240
20
-39.738320
30
0.0
11
14.691200
21
-45.150650
31
0.0
0
LINE
8
0
6
CONTINUOUS
10
14.691240
20
-40.839470
30
0.0
11
14.691240
21
-39.738320
31
0.0
0
LINE
8
0
6
CONTINUOUS
10
14.691200
20
-46.178370
30
0.0
11
14.691240
21
-40.839470
31
0.0
0
LINE
8
0
6
CONTINUOUS
10
11.578030
20
-0.574200
30
0.0
11
11.453670
21
-0.978780
31
0.0
0
LINE
8
0
6
CONTINUOUS
10
14.697920
20
-0.365270
30
0.0
11
14.691240
21
0.056560
31
0.0
0
LINE
8
0
6
CONTINUOUS
10
11.453670
20
-0.978780
30
0.0
11
11.005060
21
-1.367650
31
0.0
0
LINE
8
0
6
CONTINUOUS
10
10.925940
20
-48.623890
30
0.0
11
11.195220
21
-48.651060
31
0.0
0
LINE
8
0
6
CONTINUOUS
10
11.005060
20
-1.367650
30
0.0
11
10.204170
21
-1.731770
31
0.0
0
LINE
8
0
6
CONTINUOUS
10
14.691240
20
0.056560
30
0.0
11
14.691240
21
0.478390
31
0.0
0
LINE
8
0
6
CONTINUOUS
10
11.195220
20
-48.651060
30
0.0
11
11.359940
21
-48.610510
31
0.0
0
LINE
8
0
6
CONTINUOUS
10
10.204170
20
-1.731770
30
0.0
11
9.147690
21
-1.988650
31
0.0
0
LINE
8
0
6
CONTINUOUS
10
9.147690
20
-1.988650
30
0.0
11
8.974680
21
-2.030720
31
0.0
0
LINE
8
0
6
CONTINUOUS
10
9.107600
20
-48.440710
30
0.0
11
10.925940
21
-48.623890
31
0.0
0
LINE
8
0
6
CONTINUOUS
10
14.691240
20
0.478390
30
0.0
11
14.691240
21
9.157970
31
0.0
0
LINE
8
0
6
CONTINUOUS
10
5.437140
20
141.827974
30
0.0
11
5.385397
21
141.940263
31
0.0
0
LINE
8
0
6
CONTINUOUS
10
5.795227
20
141.008983
30
0.0
11
5.437140
21
141.827974
31
0.0
0
LINE
8
0
6
CONTINUOUS
10
5.211547
20
142.801019
30
0.0
11
5.190044
21
142.920264
31
0.0
0
LINE
8
0
6
CONTINUOUS
10
5.385397
20
141.940263
30
0.0
11
5.211547
21
142.801019
31
0.0
0
LINE
8
0
6
CONTINUOUS
10
5.190044
20
142.920264
30
0.0
11
5.330858
21
143.891433
31
0.0
0
LINE
8
0
6
CONTINUOUS
10
5.739274
20
144.722198
30
0.0
11
5.792235
21
144.837665
31
0.0
0
LINE
8
0
6
CONTINUOUS
10
5.330858
20
143.891433
30
0.0
11
5.739274
21
144.722198
31
0.0
0
LINE
8
0
6
CONTINUOUS
10
14.043194
20
143.903210
30
0.0
11
13.991405
21
144.015222
31
0.0
0
LINE
8
0
6
CONTINUOUS
10
13.991405
20
144.015222
30
0.0
11
13.633889
21
144.833437
31
0.0
0
LINE
8
0
6
CONTINUOUS
10
14.239114
20
142.923871
30
0.0
11
14.217670
21
143.043251
31
0.0
0
LINE
8
0
6
CONTINUOUS
10
14.217670
20
143.043251
30
0.0
11
14.043194
21
143.903210
31
0.0
0
LINE
8
0
6
CONTINUOUS
10
14.098101
20
141.951939
30
0.0
11
14.239114
21
142.923871
31
0.0
0
LINE
8
0
6
CONTINUOUS
10
13.659440
20
141.056132
30
0.0
11
13.689758
21
141.121594
31
0.0
0
LINE
8
0
6
CONTINUOUS
10
13.689758
20
141.121594
30
0.0
11
14.098101
21
141.951939
31
0.0
0
LINE
8
0
6
CONTINUOUS
10
10.996426
20
146.586611
30
0.0
11
11.977877
21
146.239508
31
0.0
0
LINE
8
0
6
CONTINUOUS
10
8.695891
20
146.603748
30
0.0
11
9.712016
21
146.749064
31
0.0
0
LINE
8
0
6
CONTINUOUS
10
5.883763
20
144.934972
30
0.0
11
6.530481
21
145.650153
31
0.0
0
LINE
8
0
6
CONTINUOUS
10
7.301351
20
102.285536
30
0.0
11
8.676060
21
101.171237
31
0.0
0
LINE
8
0
6
CONTINUOUS
10
6.341861
20
103.011182
30
0.0
11
7.301351
21
102.285536
31
0.0
0
LINE
8
0
6
CONTINUOUS
10
0.423688
20
104.862564
30
0.0
11
2.516090
21
104.655426
31
0.0
0
LINE
8
0
6
CONTINUOUS
10
0.000041
20
104.900145
30
0.0
11
0.423688
21
104.862564
31
0.0
0
LINE
8
0
6
CONTINUOUS
10
3.269229
20
104.403033
30
0.0
11
5.695920
21
103.574009
31
0.0
0
LINE
8
0
6
CONTINUOUS
10
2.826096
20
104.533365
30
0.0
11
3.269229
21
104.403033
31
0.0
0
LINE
8
0
6
CONTINUOUS
10
-10.016206
20
98.117600
30
0.0
11
-9.398324
21
99.559800
31
0.0
0
LINE
8
0
6
CONTINUOUS
10
-9.398324
20
99.559800
30
0.0
11
-8.675970
21
101.171219
31
0.0
0
LINE
8
0
6
CONTINUOUS
10
-0.423604
20
104.862567
30
0.0
11
0.000040
21
104.900146
31
0.0
0
LINE
8
0
6
CONTINUOUS
10
-10.387888
20
95.302804
30
0.0
11
-10.345897
21
95.977126
31
0.0
0
LINE
8
0
6
CONTINUOUS
10
-10.345897
20
95.977126
30
0.0
11
-10.241910
21
97.614849
31
0.0
0
LINE
8
0
6
CONTINUOUS
10
3.553664
20
155.756399
30
0.0
11
4.006368
21
156.657603
31
0.0
0
LINE
8
0
6
CONTINUOUS
10
-6.040534
20
143.882639
30
0.0
11
-6.449129
21
144.713864
31
0.0
0
LINE
8
0
6
CONTINUOUS
10
-6.449129
20
144.713864
30
0.0
11
-6.501871
21
144.828625
31
0.0
0
LINE
8
0
6
CONTINUOUS
10
-5.899211
20
142.910910
30
0.0
11
-6.040534
21
143.882639
31
0.0
0
LINE
8
0
6
CONTINUOUS
10
-6.092812
20
141.932141
30
0.0
11
-5.899211
21
142.910910
31
0.0
0
LINE
8
0
6
CONTINUOUS
10
-6.504767
20
141.002072
30
0.0
11
-6.092812
21
141.932141
31
0.0
0
LINE
8
0
6
CONTINUOUS
10
-13.606573
20
140.187207
30
0.0
11
-14.252009
21
140.901434
31
0.0
0
LINE
8
0
6
CONTINUOUS
10
-11.703383
20
146.576909
30
0.0
11
-11.567683
21
146.621560
31
0.0
0
LINE
8
0
6
CONTINUOUS
10
-11.567683
20
146.621560
30
0.0
11
-10.420618
21
146.740301
31
0.0
0
LINE
8
0
6
CONTINUOUS
10
-8.163084
20
146.228045
30
0.0
11
-7.240240
21
145.640048
31
0.0
0
LINE
8
0
6
CONTINUOUS
10
-14.699601
20
144.006875
30
0.0
11
-14.341309
21
144.825553
31
0.0
0
LINE
8
0
6
CONTINUOUS
10
-10.420618
20
146.740301
30
0.0
11
-9.263623
21
146.576514
31
0.0
0
LINE
8
0
6
CONTINUOUS
10
-12.686081
20
146.230972
30
0.0
11
-11.703383
21
146.576909
31
0.0
0
LINE
8
0
6
CONTINUOUS
10
-9.263623
20
146.576514
30
0.0
11
-8.163084
21
146.228045
31
0.0
0
LINE
8
0
6
CONTINUOUS
10
-6.524902
20
144.853372
30
0.0
11
-6.593067
21
144.924294
31
0.0
0
LINE
8
0
6
CONTINUOUS
10
-6.593067
20
144.924294
30
0.0
11
-7.240240
21
145.640048
31
0.0
0
LINE
8
0
6
CONTINUOUS
10
-14.395681
20
141.112269
30
0.0
11
-14.805196
21
141.943843
31
0.0
0
LINE
8
0
6
CONTINUOUS
10
-49.259243
20
145.754643
30
0.0
11
-50.285027
21
151.135004
31
0.0
0
LINE
8
0
6
CONTINUOUS
10
-48.648231
20
141.724537
30
0.0
11
-49.259243
21
145.754643
31
0.0
0
LINE
8
0
6
CONTINUOUS
10
42.860366
20
130.304002
30
0.0
11
45.131017
21
135.283652
31
0.0
0
LINE
8
0
6
CONTINUOUS
10
45.131017
20
135.283652
30
0.0
11
47.553107
21
140.206617
31
0.0
0
LINE
8
0
6
CONTINUOUS
10
-48.460986
20
161.978972
30
0.0
11
-47.898445
21
163.116159
31
0.0
0
LINE
8
0
6
CONTINUOUS
10
-30.230258
20
184.745958
30
0.0
11
-25.239862
21
188.136967
31
0.0
0
LINE
8
0
6
CONTINUOUS
10
20.326726
20
113.186617
30
0.0
11
20.530114
21
113.247803
31
0.0
0
LINE
8
0
6
CONTINUOUS
10
20.530114
20
113.247803
30
0.0
11
21.841343
21
113.661600
31
0.0
0
LINE
8
0
6
CONTINUOUS
10
21.841343
20
113.661600
30
0.0
11
23.131242
21
114.085565
31
0.0
0
LINE
8
0
6
CONTINUOUS
10
23.131242
20
114.085565
30
0.0
11
24.303495
21
114.479666
31
0.0
0
LINE
8
0
6
CONTINUOUS
10
42.892372
20
172.243501
30
0.0
11
43.016590
21
172.122646
31
0.0
0
LINE
8
0
6
CONTINUOUS
10
42.892372
20
172.243501
30
0.0
11
42.468656
21
172.704053
31
0.0
0
LINE
8
0
6
CONTINUOUS
10
42.468656
20
172.704053
30
0.0
11
38.839211
21
176.528361
31
0.0
0
LINE
8
0
6
CONTINUOUS
10
38.839211
20
176.528361
30
0.0
11
38.623926
21
176.788734
31
0.0
0
LINE
8
0
6
CONTINUOUS
10
38.623926
20
176.788734
30
0.0
11
35.100454
21
181.140456
31
0.0
0
LINE
8
0
6
CONTINUOUS
10
35.100454
20
181.140456
30
0.0
11
35.071983
21
181.178694
31
0.0
0
LINE
8
0
6
CONTINUOUS
10
-43.639665
20
130.164749
30
0.0
11
-45.911885
21
135.149775
31
0.0
0
LINE
8
0
6
CONTINUOUS
10
-45.911885
20
135.149775
30
0.0
11
-48.443059
21
140.295158
31
0.0
0
LINE
8
0
6
CONTINUOUS
10
-50.285027
20
151.135004
30
0.0
11
-50.225673
21
151.367780
31
0.0
0
LINE
8
0
6
CONTINUOUS
10
-50.225673
20
151.367780
30
0.0
11
-49.209442
21
156.772296
31
0.0
0
LINE
8
0
6
CONTINUOUS
10
-49.209442
20
156.772296
30
0.0
11
-48.485144
21
161.944525
31
0.0
0
LINE
8
0
6
CONTINUOUS
10
3.728066
20
193.092191
30
0.0
11
6.444397
21
192.699219
31
0.0
0
LINE
8
0
6
CONTINUOUS
10
6.444397
20
192.699219
30
0.0
11
9.289227
21
192.397178
31
0.0
0
LINE
8
0
6
CONTINUOUS
10
-24.936163
20
188.207755
30
0.0
11
-18.903690
21
190.070221
31
0.0
0
LINE
8
0
6
CONTINUOUS
10
-25.239862
20
188.136967
30
0.0
11
-24.936163
21
188.207755
31
0.0
0
LINE
8
0
6
CONTINUOUS
10
-18.903690
20
190.070221
30
0.0
11
-17.946480
21
190.424467
31
0.0
0
LINE
8
0
6
CONTINUOUS
10
-35.662651
20
121.216662
30
0.0
11
-35.587000
21
121.170150
31
0.0
0
LINE
8
0
6
CONTINUOUS
10
-35.587000
20
121.170150
30
0.0
11
-31.185397
21
118.406279
31
0.0
0
LINE
8
0
6
CONTINUOUS
10
-39.458822
20
125.563137
30
0.0
11
-43.563676
21
130.084334
31
0.0
0
LINE
8
0
6
CONTINUOUS
10
-35.662651
20
121.216662
30
0.0
11
-39.458822
21
125.563137
31
0.0
0
LINE
8
0
6
CONTINUOUS
10
-43.563676
20
130.084334
30
0.0
11
-43.639665
21
130.164749
31
0.0
0
LINE
8
0
6
CONTINUOUS
10
47.609040
20
140.715218
30
0.0
11
47.688158
21
141.221512
31
0.0
0
LINE
8
0
6
CONTINUOUS
10
24.303495
20
114.479666
30
0.0
11
24.811624
21
114.819237
31
0.0
0
LINE
8
0
6
CONTINUOUS
10
29.958141
20
118.128639
30
0.0
11
30.474286
21
118.451937
31
0.0
0
LINE
8
0
6
CONTINUOUS
10
30.474286
20
118.451937
30
0.0
11
34.856948
21
121.203360
31
0.0
0
LINE
8
0
6
CONTINUOUS
10
24.811624
20
114.819237
30
0.0
11
25.508722
21
115.269174
31
0.0
0
LINE
8
0
6
CONTINUOUS
10
25.508722
20
115.269174
30
0.0
11
29.946899
21
118.121414
31
0.0
0
LINE
8
0
6
CONTINUOUS
10
-5.249456
20
192.990811
30
0.0
11
-0.355826
21
193.721571
31
0.0
0
LINE
8
0
6
CONTINUOUS
10
-13.190548
20
192.159755
30
0.0
11
-12.448629
21
192.194626
31
0.0
0
LINE
8
0
6
CONTINUOUS
10
-6.459887
20
192.815619
30
0.0
11
-5.249456
21
192.990811
31
0.0
0
LINE
8
0
6
CONTINUOUS
10
12.463787
20
192.072734
30
0.0
11
18.117218
21
190.010557
31
0.0
0
LINE
8
0
6
CONTINUOUS
10
18.117218
20
190.010557
30
0.0
11
18.783351
21
189.764086
31
0.0
0
LINE
8
0
6
CONTINUOUS
10
47.590906
20
161.772053
30
0.0
11
47.350752
21
162.257338
31
0.0
0
LINE
8
0
6
CONTINUOUS
10
-29.820489
20
173.410565
30
0.0
11
-29.049837
21
174.353197
31
0.0
0
LINE
8
0
6
CONTINUOUS
10
-32.048605
20
170.763609
30
0.0
11
-29.820489
21
173.410565
31
0.0
0
LINE
8
0
6
CONTINUOUS
10
-32.902861
20
169.856091
30
0.0
11
-32.048605
21
170.763609
31
0.0
0
LINE
8
0
6
CONTINUOUS
10
-35.317265
20
167.239915
30
0.0
11
-32.902861
21
169.856091
31
0.0
0
LINE
8
0
6
CONTINUOUS
10
34.575550
20
133.005161
30
0.0
11
36.422309
21
137.018766
31
0.0
0
LINE
8
0
6
CONTINUOUS
10
36.422309
20
137.018766
30
0.0
11
38.423806
21
141.156411
31
0.0
0
LINE
8
0
6
CONTINUOUS
10
-39.284773
20
158.791116
30
0.0
11
-37.783107
21
161.877782
31
0.0
0
LINE
8
0
6
CONTINUOUS
10
-29.049837
20
174.353197
30
0.0
11
-28.872578
21
174.454060
31
0.0
0
LINE
8
0
6
CONTINUOUS
10
-28.872578
20
174.454060
30
0.0
11
-24.585880
21
177.050766
31
0.0
0
LINE
8
0
6
CONTINUOUS
10
39.138754
20
154.161859
30
0.0
11
38.480123
21
158.518430
31
0.0
0
LINE
8
0
6
CONTINUOUS
10
38.480123
20
158.518430
30
0.0
11
38.467865
21
158.625026
31
0.0
0
LINE
8
0
6
CONTINUOUS
10
39.261059
20
153.488111
30
0.0
11
39.138754
21
154.161859
31
0.0
0
LINE
8
0
6
CONTINUOUS
10
20.119077
20
179.427240
30
0.0
11
24.276027
21
176.630508
31
0.0
0
LINE
8
0
6
CONTINUOUS
10
19.708221
20
179.728926
30
0.0
11
20.119077
21
179.427240
31
0.0
0
LINE
8
0
6
CONTINUOUS
10
24.276027
20
176.630508
30
0.0
11
28.264744
21
174.219996
31
0.0
0
LINE
8
0
6
CONTINUOUS
10
-40.830321
20
150.042304
30
0.0
11
-40.173194
21
153.246838
31
0.0
0
LINE
8
0
6
CONTINUOUS
10
5.235854
20
183.545613
30
0.0
11
10.004378
21
183.044244
31
0.0
0
LINE
8
0
6
CONTINUOUS
10
-24.449309
20
122.963120
30
0.0
11
-23.474112
21
122.337934
31
0.0
0
LINE
8
0
6
CONTINUOUS
10
-23.474112
20
122.337934
30
0.0
11
-20.334112
21
120.331715
31
0.0
0
LINE
8
0
6
CONTINUOUS
10
-28.709208
20
125.648479
30
0.0
11
-24.449309
21
122.963120
31
0.0
0
LINE
8
0
6
CONTINUOUS
10
-28.929823
20
125.784380
30
0.0
11
-28.709208
21
125.648479
31
0.0
0
LINE
8
0
6
CONTINUOUS
10
-31.878927
20
129.147430
30
0.0
11
-35.185183
21
132.805328
31
0.0
0
LINE
8
0
6
CONTINUOUS
10
-28.929823
20
125.784380
30
0.0
11
-31.878927
21
129.147430
31
0.0
0
LINE
8
0
6
CONTINUOUS
10
28.145676
20
125.774080
30
0.0
11
28.278743
21
125.930412
31
0.0
0
LINE
8
0
6
CONTINUOUS
10
28.278743
20
125.930412
30
0.0
11
31.330314
21
129.409175
31
0.0
0
LINE
8
0
6
CONTINUOUS
10
38.426013
20
141.165631
30
0.0
11
39.095784
21
145.432502
31
0.0
0
LINE
8
0
6
CONTINUOUS
10
39.095784
20
145.432502
30
0.0
11
39.218954
21
146.100338
31
0.0
0
LINE
8
0
6
CONTINUOUS
10
39.218954
20
146.100338
30
0.0
11
39.974890
21
149.891048
31
0.0
0
LINE
8
0
6
CONTINUOUS
10
39.974890
20
149.891048
30
0.0
11
39.986327
21
149.950505
31
0.0
0
LINE
8
0
6
CONTINUOUS
10
-20.334112
20
120.331715
30
0.0
11
-20.169623
21
120.277795
31
0.0
0
LINE
8
0
6
CONTINUOUS
10
-17.675135
20
119.467046
30
0.0
11
-17.065696
21
119.278521
31
0.0
0
LINE
8
0
6
CONTINUOUS
10
-20.169623
20
120.277795
30
0.0
11
-19.428240
21
120.035066
31
0.0
0
LINE
8
0
6
CONTINUOUS
10
-19.428240
20
120.035066
30
0.0
11
-17.675135
21
119.467046
31
0.0
0
LINE
8
0
6
CONTINUOUS
10
-5.251350
20
183.662189
30
0.0
11
-0.356116
21
184.366703
31
0.0
0
LINE
8
0
6
CONTINUOUS
10
19.275893
20
138.821474
30
0.0
11
20.316088
21
141.028523
31
0.0
0
LINE
8
0
6
CONTINUOUS
10
-8.309326
20
123.096828
30
0.0
11
-7.830386
21
123.048419
31
0.0
0
LINE
8
0
6
CONTINUOUS
10
-8.421380
20
123.108816
30
0.0
11
-8.309326
21
123.096828
31
0.0
0
LINE
8
0
6
CONTINUOUS
10
-1.458230
20
122.305859
30
0.0
11
-0.357407
21
122.176801
31
0.0
0
LINE
8
0
6
CONTINUOUS
10
14.260652
20
181.490258
30
0.0
11
15.293615
21
181.109494
31
0.0
0
LINE
8
0
6
CONTINUOUS
10
10.359756
20
182.903569
30
0.0
11
14.260652
21
181.490258
31
0.0
0
LINE
8
0
6
CONTINUOUS
10
15.293615
20
181.109494
30
0.0
11
19.708221
21
179.728926
31
0.0
0
LINE
8
0
6
CONTINUOUS
10
10.004378
20
183.044244
30
0.0
11
10.359756
21
182.903569
31
0.0
0
LINE
8
0
6
CONTINUOUS
10
4.646266
20
122.781614
30
0.0
11
6.217514
21
122.955419
31
0.0
0
LINE
8
0
6
CONTINUOUS
10
4.102664
20
122.716646
30
0.0
11
4.206155
21
122.729339
31
0.0
0
LINE
8
0
6
CONTINUOUS
10
6.217514
20
122.955419
30
0.0
11
7.688996
21
123.117516
31
0.0
0
LINE
8
0
6
CONTINUOUS
10
1.696599
20
122.421151
30
0.0
11
4.102664
21
122.716646
31
0.0
0
LINE
8
0
6
CONTINUOUS
10
-0.357407
20
122.176801
30
0.0
11
0.009691
21
122.223700
31
0.0
0
LINE
8
0
6
CONTINUOUS
10
34.702178
20
166.836173
30
0.0
11
34.677932
21
166.897899
31
0.0
0
LINE
8
0
6
CONTINUOUS
10
42.347889
20
154.979267
30
0.0
11
42.916945
21
156.195143
31
0.0
0
LINE
8
0
6
CONTINUOUS
10
45.779994
20
155.853468
30
0.0
11
45.022903
21
156.646867
31
0.0
0
LINE
8
0
6
CONTINUOUS
10
0.000021
20
127.505774
30
0.0
11
1.836921
21
126.682520
31
0.0
0
LINE
8
0
6
CONTINUOUS
10
20.686299
20
126.431723
30
0.0
11
21.757229
21
126.584935
31
0.0
0
LINE
8
0
6
CONTINUOUS
10
26.811649
20
130.862563
30
0.0
11
26.924638
21
131.707688
31
0.0
0
LINE
8
0
6
CONTINUOUS
10
31.768008
20
140.445054
30
0.0
11
33.319357
21
141.725006
31
0.0
0
LINE
8
0
6
CONTINUOUS
10
23.004895
20
173.664197
30
0.0
11
22.612827
21
174.447959
31
0.0
0
LINE
8
0
6
CONTINUOUS
10
13.047071
20
120.217483
30
0.0
11
12.392710
21
121.781252
31
0.0
0
LINE
8
0
6
CONTINUOUS
10
18.786390
20
124.745570
30
0.0
11
19.647920
21
126.287608
31
0.0
0
LINE
8
0
6
CONTINUOUS
10
19.647920
20
126.287608
30
0.0
11
20.686299
21
126.431723
31
0.0
0
LINE
8
0
6
CONTINUOUS
10
32.210087
20
159.787786
30
0.0
11
34.227685
21
160.543454
31
0.0
0
LINE
8
0
6
CONTINUOUS
10
34.227685
20
160.543454
30
0.0
11
35.803185
21
159.437481
31
0.0
0
LINE
8
0
6
CONTINUOUS
10
30.688005
20
166.467995
30
0.0
11
30.465003
21
168.348345
31
0.0
0
LINE
8
0
6
CONTINUOUS
10
28.526795
20
168.982514
30
0.0
11
29.480928
21
168.663869
31
0.0
0
LINE
8
0
6
CONTINUOUS
10
34.522858
20
150.879894
30
0.0
11
36.643924
21
151.083773
31
0.0
0
LINE
8
0
6
CONTINUOUS
10
50.127500
20
143.223550
30
0.0
11
51.436132
21
144.780599
31
0.0
0
LINE
8
0
6
CONTINUOUS
10
47.131384
20
168.138324
30
0.0
11
47.287658
21
169.650734
31
0.0
0
LINE
8
0
6
CONTINUOUS
10
31.432551
20
116.897372
30
0.0
11
32.833497
21
117.183785
31
0.0
0
LINE
8
0
6
CONTINUOUS
10
29.946917
20
115.269746
30
0.0
11
30.734169
21
116.766059
31
0.0
0
LINE
8
0
6
CONTINUOUS
10
9.706130
20
128.652813
30
0.0
11
10.245596
21
129.299970
31
0.0
0
LINE
8
0
6
CONTINUOUS
10
10.245596
20
129.299970
30
0.0
11
10.608310
21
129.724186
31
0.0
0
LINE
8
0
6
CONTINUOUS
10
10.608310
20
129.724186
30
0.0
11
10.861385
21
129.718293
31
0.0
0
LINE
8
0
6
CONTINUOUS
10
13.046957
20
178.498659
30
0.0
11
11.626836
21
179.933078
31
0.0
0
LINE
8
0
6
CONTINUOUS
10
9.148887
20
178.277729
30
0.0
11
9.552367
21
179.456276
31
0.0
0
LINE
8
0
6
CONTINUOUS
10
9.552367
20
179.456276
30
0.0
11
11.626836
21
179.933078
31
0.0
0
LINE
8
0
6
CONTINUOUS
10
8.898008
20
177.545373
30
0.0
11
9.148887
21
178.277729
31
0.0
0
LINE
8
0
6
CONTINUOUS
10
-0.000044
20
181.545010
30
0.0
11
1.836848
21
180.558156
31
0.0
0
LINE
8
0
6
CONTINUOUS
10
22.549259
20
163.372355
30
0.0
11
22.456275
21
163.924057
31
0.0
0
LINE
8
0
6
CONTINUOUS
10
18.823797
20
163.197758
30
0.0
11
20.481446
21
164.498109
31
0.0
0
LINE
8
0
6
CONTINUOUS
10
22.773466
20
162.062394
30
0.0
11
22.549259
21
163.372355
31
0.0
0
LINE
8
0
6
CONTINUOUS
10
24.474287
20
154.817725
30
0.0
11
26.542696
21
155.393388
31
0.0
0
LINE
8
0
6
CONTINUOUS
10
23.846808
20
153.005603
30
0.0
11
24.152665
21
153.883449
31
0.0
0
LINE
8
0
6
CONTINUOUS
10
27.189833
20
154.833206
30
0.0
11
27.983636
21
154.159021
31
0.0
0
LINE
8
0
6
CONTINUOUS
10
33.343498
20
141.745746
30
0.0
11
33.897063
21
141.648098
31
0.0
0
LINE
8
0
6
CONTINUOUS
10
10.861385
20
129.718293
30
0.0
11
11.871858
21
129.706386
31
0.0
0
LINE
8
0
6
CONTINUOUS
10
13.644450
20
128.248166
30
0.0
11
12.723500
21
129.688184
31
0.0
0
LINE
8
0
6
CONTINUOUS
10
11.871858
20
129.706386
30
0.0
11
12.723500
21
129.688184
31
0.0
0
LINE
8
0
6
CONTINUOUS
10
9.414080
20
128.313551
30
0.0
11
9.706130
21
128.652813
31
0.0
0
LINE
8
0
6
CONTINUOUS
10
26.924638
20
131.707688
30
0.0
11
27.034649
21
132.542735
31
0.0
0
LINE
8
0
6
CONTINUOUS
10
27.034649
20
132.542735
30
0.0
11
28.972858
21
133.380787
31
0.0
0
LINE
8
0
6
CONTINUOUS
10
24.384799
20
119.846026
30
0.0
11
25.371450
21
118.493736
31
0.0
0
LINE
8
0
6
CONTINUOUS
10
39.874837
20
164.339852
30
0.0
11
39.952676
21
164.779395
31
0.0
0
LINE
8
0
6
CONTINUOUS
10
41.936024
20
165.674989
30
0.0
11
42.178033
21
165.523611
31
0.0
0
LINE
8
0
6
CONTINUOUS
10
22.797656
20
183.980850
30
0.0
11
22.702488
21
184.117238
31
0.0
0
LINE
8
0
6
CONTINUOUS
10
11.638116
20
188.588380
30
0.0
11
12.668594
21
187.676018
31
0.0
0
LINE
8
0
6
CONTINUOUS
10
28.087059
20
123.269255
30
0.0
11
30.165130
21
123.747847
31
0.0
0
LINE
8
0
6
CONTINUOUS
10
27.415939
20
121.685532
30
0.0
11
28.087059
21
123.269255
31
0.0
0
LINE
8
0
6
CONTINUOUS
10
10.673732
20
170.469885
30
0.0
11
12.450147
21
170.657898
31
0.0
0
LINE
8
0
6
CONTINUOUS
10
9.414017
20
168.639933
30
0.0
11
10.334966
21
170.438778
31
0.0
0
LINE
8
0
6
CONTINUOUS
10
10.334966
20
170.438778
30
0.0
11
10.673732
21
170.469885
31
0.0
0
LINE
8
0
6
CONTINUOUS
10
22.702488
20
184.117238
30
0.0
11
21.664923
21
185.634184
31
0.0
0
LINE
8
0
6
CONTINUOUS
10
19.545534
20
185.439490
30
0.0
11
21.664923
21
185.634184
31
0.0
0
LINE
8
0
6
CONTINUOUS
10
42.082748
20
145.796465
30
0.0
11
43.354517
21
147.365617
31
0.0
0
LINE
8
0
6
CONTINUOUS
10
46.294674
20
145.843004
30
0.0
11
45.460475
21
147.388916
31
0.0
0
LINE
8
0
6
CONTINUOUS
10
39.612126
20
162.855865
30
0.0
11
39.874837
21
164.339852
31
0.0
0
LINE
8
0
6
CONTINUOUS
10
42.178033
20
165.523611
30
0.0
11
43.578794
21
164.646928
31
0.0
0
LINE
8
0
6
CONTINUOUS
10
34.676575
20
172.446256
30
0.0
11
36.421406
21
173.723072
31
0.0
0
LINE
8
0
6
CONTINUOUS
10
36.765508
20
130.618675
30
0.0
11
38.510347
21
129.836313
31
0.0
0
LINE
8
0
6
CONTINUOUS
10
21.115859
20
136.215601
30
0.0
11
22.773500
21
135.274985
31
0.0
0
LINE
8
0
6
CONTINUOUS
10
19.653244
20
135.653145
30
0.0
11
21.115859
21
136.215601
31
0.0
0
LINE
8
0
6
CONTINUOUS
10
25.287748
20
145.189210
30
0.0
11
27.356166
21
144.971361
31
0.0
0
LINE
8
0
6
CONTINUOUS
10
11.137333
20
189.041209
30
0.0
11
11.638116
21
188.588380
31
0.0
0
LINE
8
0
6
CONTINUOUS
10
9.100636
20
188.422067
30
0.0
11
11.137333
21
189.041209
31
0.0
0
LINE
8
0
6
CONTINUOUS
10
31.571974
20
178.386220
30
0.0
11
30.900843
21
180.223189
31
0.0
0
LINE
8
0
6
CONTINUOUS
10
27.415816
20
178.849851
30
0.0
11
28.822764
21
180.455008
31
0.0
0
LINE
8
0
6
CONTINUOUS
10
42.082739
20
154.419390
30
0.0
11
42.347889
21
154.979267
31
0.0
0
LINE
8
0
6
CONTINUOUS
10
46.294674
20
155.323582
30
0.0
11
45.779994
21
155.853468
31
0.0
0
LINE
8
0
6
CONTINUOUS
10
39.612168
20
137.382061
30
0.0
11
41.254938
21
138.645737
31
0.0
0
LINE
8
0
6
CONTINUOUS
10
43.578848
20
136.586799
30
0.0
11
43.238277
21
138.248111
31
0.0
0
LINE
8
0
6
CONTINUOUS
10
-45.333205
20
157.040356
30
0.0
11
-43.227247
21
156.588667
31
0.0
0
LINE
8
0
6
CONTINUOUS
10
-23.004926
20
125.332519
30
0.0
11
-21.757148
21
126.584856
31
0.0
0
LINE
8
0
6
CONTINUOUS
10
-35.361087
20
141.392345
30
0.0
11
-33.896709
21
141.648072
31
0.0
0
LINE
8
0
6
CONTINUOUS
10
-35.803195
20
139.739399
30
0.0
11
-35.361087
21
141.392345
31
0.0
0
LINE
8
0
6
CONTINUOUS
10
-9.338265
20
121.056876
30
0.0
11
-8.898039
21
120.623381
31
0.0
0
LINE
8
0
6
CONTINUOUS
10
-12.392628
20
121.781198
30
0.0
11
-12.326764
21
121.785860
31
0.0
0
LINE
8
0
6
CONTINUOUS
10
-12.326764
20
121.785860
30
0.0
11
-11.215079
21
121.924937
31
0.0
0
LINE
8
0
6
CONTINUOUS
10
-35.803227
20
159.437368
30
0.0
11
-34.227737
21
160.543347
31
0.0
0
LINE
8
0
6
CONTINUOUS
10
-31.768018
20
157.926032
30
0.0
11
-32.210138
21
159.787677
31
0.0
0
LINE
8
0
6
CONTINUOUS
10
-30.465078
20
168.348220
30
0.0
11
-29.480962
21
168.663774
31
0.0
0
LINE
8
0
6
CONTINUOUS
10
-29.480962
20
168.663774
30
0.0
11
-28.526858
21
168.982439
31
0.0
0
LINE
8
0
6
CONTINUOUS
10
-28.526858
20
168.982439
30
0.0
11
-26.811649
21
167.724637
31
0.0
0
LINE
8
0
6
CONTINUOUS
10
-37.588397
20
149.793373
30
0.0
11
-36.643945
21
151.083675
31
0.0
0
LINE
8
0
6
CONTINUOUS
10
-34.416789
20
150.714497
30
0.0
11
-34.522878
21
150.879826
31
0.0
0
LINE
8
0
6
CONTINUOUS
10
-37.704465
20
149.633488
30
0.0
11
-37.588397
21
149.793373
31
0.0
0
LINE
8
0
6
CONTINUOUS
10
-33.462347
20
149.208444
30
0.0
11
-34.416789
21
150.714497
31
0.0
0
LINE
8
0
6
CONTINUOUS
10
-22.143468
20
175.401407
30
0.0
11
-20.034158
21
175.497406
31
0.0
0
LINE
8
0
6
CONTINUOUS
10
-18.786380
20
173.842609
30
0.0
11
-20.034158
21
175.497406
31
0.0
0
LINE
8
0
6
CONTINUOUS
10
-22.612918
20
174.447926
30
0.0
11
-22.143468
21
175.401407
31
0.0
0
LINE
8
0
6
CONTINUOUS
10
-55.153766
20
151.755805
30
0.0
11
-54.783052
21
152.184498
31
0.0
0
LINE
8
0
6
CONTINUOUS
10
-53.536072
20
144.841913
30
0.0
11
-51.436150
21
144.780502
31
0.0
0
LINE
8
0
6
CONTINUOUS
10
-45.311792
20
129.538620
30
0.0
11
-43.642058
21
128.598347
31
0.0
0
LINE
8
0
6
CONTINUOUS
10
-39.803599
20
122.900225
30
0.0
11
-37.798988
21
122.159086
31
0.0
0
LINE
8
0
6
CONTINUOUS
10
-37.396896
20
120.553683
30
0.0
11
-37.798988
21
122.159086
31
0.0
0
LINE
8
0
6
CONTINUOUS
10
-54.783052
20
152.184498
30
0.0
11
-54.008057
21
153.107870
31
0.0
0
LINE
8
0
6
CONTINUOUS
10
-51.249511
20
151.551260
30
0.0
11
-51.889347
21
152.709917
31
0.0
0
LINE
8
0
6
CONTINUOUS
10
-54.094180
20
161.004984
30
0.0
11
-52.632113
21
162.141294
31
0.0
0
LINE
8
0
6
CONTINUOUS
10
-49.970587
20
159.534901
30
0.0
11
-50.570326
21
161.406239
31
0.0
0
LINE
8
0
6
CONTINUOUS
10
-49.216868
20
170.688080
30
0.0
11
-47.287728
21
169.650591
31
0.0
0
LINE
8
0
6
CONTINUOUS
10
-43.973667
20
178.482852
30
0.0
11
-42.246660
21
177.137932
31
0.0
0
LINE
8
0
6
CONTINUOUS
10
-12.482692
20
196.467557
30
0.0
11
-10.877914
21
197.791989
31
0.0
0
LINE
8
0
6
CONTINUOUS
10
-10.877914
20
197.791989
30
0.0
11
-8.874404
21
197.057235
31
0.0
0
LINE
8
0
6
CONTINUOUS
10
-21.257430
20
195.122308
30
0.0
11
-20.855820
21
195.041889
31
0.0
0
LINE
8
0
6
CONTINUOUS
10
-22.568592
20
193.582092
30
0.0
11
-21.257430
21
195.122308
31
0.0
0
LINE
8
0
6
CONTINUOUS
10
-30.743960
20
190.802938
30
0.0
11
-28.625362
21
190.741787
31
0.0
0
LINE
8
0
6
CONTINUOUS
10
-31.714650
20
189.060348
30
0.0
11
-30.743960
21
190.802938
31
0.0
0
LINE
8
0
6
CONTINUOUS
10
-20.855820
20
195.041889
30
0.0
11
-19.157952
21
194.731204
31
0.0
0
LINE
8
0
6
CONTINUOUS
10
-18.369652
20
192.771307
30
0.0
11
-19.157952
21
194.731204
31
0.0
0
LINE
8
0
6
CONTINUOUS
10
-45.479677
20
129.637365
30
0.0
11
-45.311792
21
129.538620
31
0.0
0
LINE
8
0
6
CONTINUOUS
10
-48.963966
20
136.931189
30
0.0
11
-47.361478
21
135.592985
31
0.0
0
LINE
8
0
6
CONTINUOUS
10
-51.370854
20
135.044550
30
0.0
11
-50.968632
21
136.656972
31
0.0
0
LINE
8
0
6
CONTINUOUS
10
-32.833417
20
117.183709
30
0.0
11
-34.145447
21
116.082043
31
0.0
0
LINE
8
0
6
CONTINUOUS
10
-13.047052
20
178.498639
30
0.0
11
-11.626940
21
179.933051
31
0.0
0
LINE
8
0
6
CONTINUOUS
10
-22.456317
20
163.924014
30
0.0
11
-20.481479
21
164.498083
31
0.0
0
LINE
8
0
6
CONTINUOUS
10
-22.773507
20
162.062332
30
0.0
11
-22.549301
21
163.372294
31
0.0
0
LINE
8
0
6
CONTINUOUS
10
-27.189852
20
154.833136
30
0.0
11
-26.542727
21
155.393316
31
0.0
0
LINE
8
0
6
CONTINUOUS
10
-24.152699
20
153.883395
30
0.0
11
-24.474318
21
154.817659
31
0.0
0
LINE
8
0
6
CONTINUOUS
10
-23.846838
20
153.005532
30
0.0
11
-24.152699
21
153.883395
31
0.0
0
LINE
8
0
6
CONTINUOUS
10
-11.215079
20
121.924937
30
0.0
11
-10.318149
21
121.994429
31
0.0
0
LINE
8
0
6
CONTINUOUS
10
-10.166504
20
121.841670
30
0.0
11
-10.318149
21
121.994429
31
0.0
0
LINE
8
0
6
CONTINUOUS
10
-10.166504
20
121.841670
30
0.0
11
-9.338265
21
121.056876
31
0.0
0
LINE
8
0
6
CONTINUOUS
10
-33.896709
20
141.648072
30
0.0
11
-33.343497
21
141.745661
31
0.0
0
LINE
8
0
6
CONTINUOUS
10
-30.688036
20
132.525488
30
0.0
11
-28.972826
21
133.380696
31
0.0
0
LINE
8
0
6
CONTINUOUS
10
-26.924600
20
131.707631
30
0.0
11
-27.034608
21
132.542649
31
0.0
0
LINE
8
0
6
CONTINUOUS
10
-24.384688
20
119.845951
30
0.0
11
-23.746535
21
119.823943
31
0.0
0
LINE
8
0
6
CONTINUOUS
10
-21.458583
20
118.750297
30
0.0
11
-22.265298
21
119.768258
31
0.0
0
LINE
8
0
6
CONTINUOUS
10
-23.746535
20
119.823943
30
0.0
11
-22.265298
21
119.768258
31
0.0
0
LINE
8
0
6
CONTINUOUS
10
-41.936104
20
165.674867
30
0.0
11
-39.952756
21
164.779253
31
0.0
0
LINE
8
0
6
CONTINUOUS
10
-12.450220
20
170.657856
30
0.0
11
-10.673795
21
170.469840
31
0.0
0
LINE
8
0
6
CONTINUOUS
10
-13.644450
20
169.082141
30
0.0
11
-12.450220
21
170.657856
31
0.0
0
LINE
8
0
6
CONTINUOUS
10
-10.673795
20
170.469840
30
0.0
11
-10.335031
21
170.438737
31
0.0
0
LINE
8
0
6
CONTINUOUS
10
-1.836921
20
172.143699
30
0.0
11
-0.000039
21
173.121562
31
0.0
0
LINE
8
0
6
CONTINUOUS
10
-18.559040
20
183.588641
30
0.0
11
-19.545690
21
185.439454
31
0.0
0
LINE
8
0
6
CONTINUOUS
10
-45.460495
20
147.388769
30
0.0
11
-43.354527
21
147.365487
31
0.0
0
LINE
8
0
6
CONTINUOUS
10
-38.510346
20
171.183627
30
0.0
11
-38.338338
21
173.091699
31
0.0
0
LINE
8
0
6
CONTINUOUS
10
-34.676597
20
128.051235
30
0.0
11
-34.848607
21
129.726080
31
0.0
0
LINE
8
0
6
CONTINUOUS
10
-36.765447
20
130.618571
30
0.0
11
-34.848607
21
129.726080
31
0.0
0
LINE
8
0
6
CONTINUOUS
10
-18.823817
20
133.783226
30
0.0
11
-19.141008
21
135.460677
31
0.0
0
LINE
8
0
6
CONTINUOUS
10
-19.653238
20
135.653092
30
0.0
11
-19.141008
21
135.460677
31
0.0
0
LINE
8
0
6
CONTINUOUS
10
-21.115846
20
136.215551
30
0.0
11
-19.653238
21
135.653092
31
0.0
0
LINE
8
0
6
CONTINUOUS
10
-27.983646
20
143.338634
30
0.0
11
-27.356167
21
144.971294
31
0.0
0
LINE
8
0
6
CONTINUOUS
10
-25.287757
20
145.189146
30
0.0
11
-23.846828
21
143.774330
31
0.0
0
LINE
8
0
6
CONTINUOUS
10
-8.595340
20
186.415539
30
0.0
11
-9.100782
21
188.422031
31
0.0
0
LINE
8
0
6
CONTINUOUS
10
-30.900968
20
180.223062
30
0.0
11
-28.822888
21
180.454924
31
0.0
0
LINE
8
0
6
CONTINUOUS
10
-43.238274
20
138.247970
30
0.0
11
-41.254928
21
138.645622
31
0.0
0
LINE
8
0
6
CONTINUOUS
10
-31.505458
20
125.091804
30
0.0
11
-30.087132
21
124.746329
31
0.0
0
LINE
8
0
6
CONTINUOUS
10
-21.132567
20
118.339641
30
0.0
11
-21.458583
21
118.750297
31
0.0
0
ENDSEC
0
EOF
