999
Erzeugt mit innoplus bad 
0
SECTION
2
HEADER
9
$ACADVER
1
AC1009
9
$DWGCODEPAGE
3
ISO8859-1
0
ENDSEC
0
SECTION
2
TABLES
0
TABLE
2
LAYER
70
1
0
LAYER
2
0
70
0
62
7
6
CONTINUOUS
0
ENDTAB
0
ENDSEC
0
SECTION
2
ENTITIES
0
LINE
8
0
6
CONTINUOUS
10
12.398875
20
-3.090155
30
0.0
11
20.630805
21
-29.906595
31
0.0
0
LINE
8
0
6
CONTINUOUS
10
36.631968
20
-5.172953
30
0.0
11
35.148195
21
2.565025
31
0.0
0
LINE
8
0
6
CONTINUOUS
10
11.892745
20
-1.054135
30
0.0
11
11.915235
21
-1.144615
31
0.0
0
LINE
8
0
6
CONTINUOUS
10
34.664555
20
4.510515
30
0.0
11
34.642055
21
4.601045
31
0.0
0
LINE
8
0
6
CONTINUOUS
10
35.148195
20
2.565025
30
0.0
11
34.664555
21
4.510515
31
0.0
0
LINE
8
0
6
CONTINUOUS
10
11.915235
20
-1.144615
30
0.0
11
12.398875
21
-3.090155
31
0.0
0
LINE
8
0
6
CONTINUOUS
10
20.630805
20
-29.906595
30
0.0
11
20.774945
21
-30.376105
31
0.0
0
LINE
8
0
6
CONTINUOUS
10
46.855585
20
-222.552965
30
0.0
11
48.784795
21
-222.430895
31
0.0
0
LINE
8
0
6
CONTINUOUS
10
45.917935
20
-200.947895
30
0.0
11
46.855585
21
-222.552965
31
0.0
0
LINE
8
0
6
CONTINUOUS
10
48.784795
20
-222.430895
30
0.0
11
53.442375
21
-222.136175
31
0.0
0
LINE
8
0
6
CONTINUOUS
10
53.442375
20
-222.136175
30
0.0
11
58.099975
21
-221.841485
31
0.0
0
LINE
8
0
6
CONTINUOUS
10
58.099975
20
-221.841485
30
0.0
11
60.029245
21
-221.719415
31
0.0
0
LINE
8
0
6
CONTINUOUS
10
60.029245
20
-221.719415
30
0.0
11
59.111195
21
-200.526365
31
0.0
0
LINE
8
0
6
CONTINUOUS
10
45.456665
20
-178.524835
30
0.0
11
45.917935
21
-200.947895
31
0.0
0
LINE
8
0
6
CONTINUOUS
10
59.111195
20
-200.526365
30
0.0
11
58.653915
21
-178.254715
31
0.0
0
LINE
8
0
6
CONTINUOUS
10
44.984365
20
-155.330755
30
0.0
11
45.456665
21
-178.524835
31
0.0
0
LINE
8
0
6
CONTINUOUS
10
58.653915
20
-178.254715
30
0.0
11
58.178295
21
-154.930705
31
0.0
0
LINE
8
0
6
CONTINUOUS
10
44.020995
20
-131.386775
30
0.0
11
44.984365
21
-155.330755
31
0.0
0
LINE
8
0
6
CONTINUOUS
10
58.178295
20
-154.930705
30
0.0
11
57.197905
21
-130.606515
31
0.0
0
LINE
8
0
6
CONTINUOUS
10
42.092675
20
-106.715525
30
0.0
11
44.020995
21
-131.386775
31
0.0
0
LINE
8
0
6
CONTINUOUS
10
57.197905
20
-130.606515
30
0.0
11
55.220085
21
-105.332925
31
0.0
0
LINE
8
0
6
CONTINUOUS
10
38.729235
20
-81.338285
30
0.0
11
42.092675
21
-106.715525
31
0.0
0
LINE
8
0
6
CONTINUOUS
10
55.220085
20
-105.332925
30
0.0
11
51.748575
21
-79.161815
31
0.0
0
LINE
8
0
6
CONTINUOUS
10
33.502205
20
-55.475373
30
0.0
11
38.729235
21
-81.338285
31
0.0
0
LINE
8
0
6
CONTINUOUS
10
51.748575
20
-79.161815
30
0.0
11
46.388537
21
-52.654709
31
0.0
0
LINE
8
0
6
CONTINUOUS
10
-64.221585
20
197.109475
30
0.0
11
-63.516555
21
196.072795
31
0.0
0
LINE
8
0
6
CONTINUOUS
10
-23.117415
20
121.141985
30
0.0
11
-23.417065
21
120.726875
31
0.0
0
LINE
8
0
6
CONTINUOUS
10
-64.965795
20
198.354745
30
0.0
11
-64.696335
21
197.904305
31
0.0
0
LINE
8
0
6
CONTINUOUS
10
-37.275395
20
153.492375
30
0.0
11
-32.845185
21
146.303505
31
0.0
0
LINE
8
0
6
CONTINUOUS
10
-55.589085
20
183.393955
30
0.0
11
-51.188975
21
176.077365
31
0.0
0
LINE
8
0
6
CONTINUOUS
10
-64.696335
20
197.904305
30
0.0
11
-64.221585
21
197.109475
31
0.0
0
LINE
8
0
6
CONTINUOUS
10
-22.687935
20
122.243135
30
0.0
11
-23.117415
21
121.141985
31
0.0
0
LINE
8
0
6
CONTINUOUS
10
-22.762315
20
123.690665
30
0.0
11
-22.687935
21
122.243135
31
0.0
0
LINE
8
0
6
CONTINUOUS
10
-22.989425
20
127.186835
30
0.0
11
-22.863365
21
125.721535
31
0.0
0
LINE
8
0
6
CONTINUOUS
10
-32.845185
20
146.303505
30
0.0
11
-28.736075
21
139.879325
31
0.0
0
LINE
8
0
6
CONTINUOUS
10
-51.188975
20
176.077365
30
0.0
11
-46.499535
21
168.489785
31
0.0
0
LINE
8
0
6
CONTINUOUS
10
-63.516555
20
196.072795
30
0.0
11
-62.515035
21
194.538365
31
0.0
0
LINE
8
0
6
CONTINUOUS
10
-61.204335
20
192.438685
30
0.0
11
-59.388635
21
189.534475
31
0.0
0
LINE
8
0
6
CONTINUOUS
10
-62.515035
20
194.538365
30
0.0
11
-61.204335
21
192.438685
31
0.0
0
LINE
8
0
6
CONTINUOUS
10
-22.863365
20
125.721535
30
0.0
11
-22.762315
21
123.690665
31
0.0
0
LINE
8
0
6
CONTINUOUS
10
-28.736075
20
139.879325
30
0.0
11
-26.349195
21
134.599705
31
0.0
0
LINE
8
0
6
CONTINUOUS
10
-24.255345
20
130.646235
30
0.0
11
-22.989425
21
127.186835
31
0.0
0
LINE
8
0
6
CONTINUOUS
10
-59.388635
20
189.534475
30
0.0
11
-55.589085
21
183.393955
31
0.0
0
LINE
8
0
6
CONTINUOUS
10
-26.349195
20
134.599705
30
0.0
11
-24.255345
21
130.646235
31
0.0
0
LINE
8
0
6
CONTINUOUS
10
-46.499535
20
168.489785
30
0.0
11
-41.626725
21
160.784935
31
0.0
0
LINE
8
0
6
CONTINUOUS
10
-41.626725
20
160.784935
30
0.0
11
-37.275395
21
153.492375
31
0.0
0
LINE
8
0
6
CONTINUOUS
10
-60.756455
20
185.576805
30
0.0
11
-60.231225
21
184.833625
31
0.0
0
LINE
8
0
6
CONTINUOUS
10
-30.553835
20
130.543535
30
0.0
11
-30.800135
21
130.214335
31
0.0
0
LINE
8
0
6
CONTINUOUS
10
-61.306795
20
186.475015
30
0.0
11
-61.107525
21
186.150155
31
0.0
0
LINE
8
0
6
CONTINUOUS
10
-40.346125
20
154.362585
30
0.0
11
-37.204145
21
149.098605
31
0.0
0
LINE
8
0
6
CONTINUOUS
10
-53.538035
20
176.376665
30
0.0
11
-50.285155
21
171.016715
31
0.0
0
LINE
8
0
6
CONTINUOUS
10
-61.107525
20
186.150155
30
0.0
11
-60.756455
21
185.576805
31
0.0
0
LINE
8
0
6
CONTINUOUS
10
-30.187165
20
131.397115
30
0.0
11
-30.553835
21
130.543535
31
0.0
0
LINE
8
0
6
CONTINUOUS
10
-30.206485
20
132.484385
30
0.0
11
-30.187165
21
131.397115
31
0.0
0
LINE
8
0
6
CONTINUOUS
10
-30.290395
20
135.107825
30
0.0
11
-30.231005
21
134.009955
31
0.0
0
LINE
8
0
6
CONTINUOUS
10
-37.204145
20
149.098605
30
0.0
11
-34.471371
21
144.388383
31
0.0
0
LINE
8
0
6
CONTINUOUS
10
-50.285155
20
171.016715
30
0.0
11
-46.583235
21
165.614495
31
0.0
0
LINE
8
0
6
CONTINUOUS
10
-60.231225
20
184.833625
30
0.0
11
-59.208895
21
184.007665
31
0.0
0
LINE
8
0
6
CONTINUOUS
10
-58.030435
20
182.684955
30
0.0
11
-56.468475
21
180.769065
31
0.0
0
LINE
8
0
6
CONTINUOUS
10
-59.208895
20
184.007665
30
0.0
11
-58.030435
21
182.684955
31
0.0
0
LINE
8
0
6
CONTINUOUS
10
-30.231005
20
134.009955
30
0.0
11
-30.206485
21
132.484385
31
0.0
0
LINE
8
0
6
CONTINUOUS
10
-34.457065
20
144.363725
30
0.0
11
-32.766555
21
140.605945
31
0.0
0
LINE
8
0
6
CONTINUOUS
10
-31.190385
20
137.646965
30
0.0
11
-30.290395
21
135.107825
31
0.0
0
LINE
8
0
6
CONTINUOUS
10
-56.468475
20
180.769065
30
0.0
11
-53.538035
21
176.376665
31
0.0
0
LINE
8
0
6
CONTINUOUS
10
-32.766555
20
140.605945
30
0.0
11
-31.190385
21
137.646965
31
0.0
0
LINE
8
0
6
CONTINUOUS
10
-46.583235
20
165.614495
30
0.0
11
-43.283435
21
159.924945
31
0.0
0
LINE
8
0
6
CONTINUOUS
10
-43.283435
20
159.924945
30
0.0
11
-40.346125
21
154.362585
31
0.0
0
LINE
8
0
6
CONTINUOUS
10
-56.288705
20
175.649965
30
0.0
11
-55.938545
21
175.176715
31
0.0
0
LINE
8
0
6
CONTINUOUS
10
-37.039955
20
139.702015
30
0.0
11
-37.253055
21
139.442615
31
0.0
0
LINE
8
0
6
CONTINUOUS
10
-56.646985
20
176.230715
30
0.0
11
-56.517225
21
176.020755
31
0.0
0
LINE
8
0
6
CONTINUOUS
10
-42.894855
20
155.586495
30
0.0
11
-41.055885
21
152.075595
31
0.0
0
LINE
8
0
6
CONTINUOUS
10
-51.885655
20
169.455585
30
0.0
11
-49.481115
21
166.239875
31
0.0
0
LINE
8
0
6
CONTINUOUS
10
-56.517225
20
176.020755
30
0.0
11
-56.288705
21
175.649965
31
0.0
0
LINE
8
0
6
CONTINUOUS
10
-37.109435
20
140.066095
30
0.0
11
-37.039955
21
139.702015
31
0.0
0
LINE
8
0
6
CONTINUOUS
10
-37.045875
20
140.836275
30
0.0
11
-37.109435
21
140.066095
31
0.0
0
LINE
8
0
6
CONTINUOUS
10
-36.921165
20
142.690675
30
0.0
11
-36.954685
21
141.917215
31
0.0
0
LINE
8
0
6
CONTINUOUS
10
-41.055885
20
152.075595
30
0.0
11
-39.456675
21
148.831505
31
0.0
0
LINE
8
0
6
CONTINUOUS
10
-49.481115
20
166.239875
30
0.0
11
-47.255475
21
162.658025
31
0.0
0
LINE
8
0
6
CONTINUOUS
10
-55.938545
20
175.176715
30
0.0
11
-55.191105
21
174.694005
31
0.0
0
LINE
8
0
6
CONTINUOUS
10
-54.556355
20
173.713935
30
0.0
11
-53.699375
21
172.340185
31
0.0
0
LINE
8
0
6
CONTINUOUS
10
-55.191105
20
174.694005
30
0.0
11
-54.556355
21
173.713935
31
0.0
0
LINE
8
0
6
CONTINUOUS
10
-36.954685
20
141.917215
30
0.0
11
-37.045875
21
140.836275
31
0.0
0
LINE
8
0
6
CONTINUOUS
10
-39.456675
20
148.831505
30
0.0
11
-38.378455
21
146.318605
31
0.0
0
LINE
8
0
6
CONTINUOUS
10
-37.429885
20
144.400505
30
0.0
11
-36.921165
21
142.690675
31
0.0
0
LINE
8
0
6
CONTINUOUS
10
-53.699375
20
172.340185
30
0.0
11
-51.885655
21
169.455585
31
0.0
0
LINE
8
0
6
CONTINUOUS
10
-38.378455
20
146.318605
30
0.0
11
-37.429885
21
144.400505
31
0.0
0
LINE
8
0
6
CONTINUOUS
10
-47.255475
20
162.658025
30
0.0
11
-44.999045
21
159.027045
31
0.0
0
LINE
8
0
6
CONTINUOUS
10
-44.999045
20
159.027045
30
0.0
11
-42.894855
21
155.586495
31
0.0
0
LINE
8
0
6
CONTINUOUS
10
-51.312765
20
165.797365
30
0.0
11
-51.180635
21
165.567345
31
0.0
0
LINE
8
0
6
CONTINUOUS
10
-42.793075
20
149.536915
30
0.0
11
-42.771735
21
149.499765
31
0.0
0
LINE
8
0
6
CONTINUOUS
10
-52.056205
20
165.663475
30
0.0
11
-52.000795
21
165.567035
31
0.0
0
LINE
8
0
6
CONTINUOUS
10
-45.900755
20
156.375375
30
0.0
11
-45.009355
21
154.823555
31
0.0
0
LINE
8
0
6
CONTINUOUS
10
-49.602315
20
162.819615
30
0.0
11
-48.700975
21
161.250405
31
0.0
0
LINE
8
0
6
CONTINUOUS
10
-52.000795
20
165.567035
30
0.0
11
-51.312765
21
165.797365
31
0.0
0
LINE
8
0
6
CONTINUOUS
10
-42.765035
20
149.740925
30
0.0
11
-42.793075
21
149.536915
31
0.0
0
LINE
8
0
6
CONTINUOUS
10
-42.657285
20
150.141015
30
0.0
11
-42.765035
21
149.740925
31
0.0
0
LINE
8
0
6
CONTINUOUS
10
-42.743355
20
150.878545
30
0.0
11
-42.603805
21
150.635625
31
0.0
0
LINE
8
0
6
CONTINUOUS
10
-45.009355
20
154.823555
30
0.0
11
-44.204635
21
153.422565
31
0.0
0
LINE
8
0
6
CONTINUOUS
10
-48.700975
20
161.250405
30
0.0
11
-47.759405
21
159.611225
31
0.0
0
LINE
8
0
6
CONTINUOUS
10
-51.180635
20
165.567345
30
0.0
11
-50.987335
21
165.230815
31
0.0
0
LINE
8
0
6
CONTINUOUS
10
-50.726075
20
164.776025
30
0.0
11
-50.364555
21
164.146595
31
0.0
0
LINE
8
0
6
CONTINUOUS
10
-50.987335
20
165.230815
30
0.0
11
-50.726075
21
164.776025
31
0.0
0
LINE
8
0
6
CONTINUOUS
10
-42.603805
20
150.635625
30
0.0
11
-42.657285
21
150.141015
31
0.0
0
LINE
8
0
6
CONTINUOUS
10
-44.204635
20
153.422565
30
0.0
11
-43.601535
21
152.372615
31
0.0
0
LINE
8
0
6
CONTINUOUS
10
-43.125345
20
151.543605
30
0.0
11
-42.743355
21
150.878545
31
0.0
0
LINE
8
0
6
CONTINUOUS
10
-42.740375
20
149.445135
30
0.0
11
-42.456666
21
149.517480
31
0.0
0
LINE
8
0
6
CONTINUOUS
10
-42.771735
20
149.499765
30
0.0
11
-42.740375
21
149.445135
31
0.0
0
LINE
8
0
6
CONTINUOUS
10
-50.364555
20
164.146595
30
0.0
11
-49.602315
21
162.819615
31
0.0
0
LINE
8
0
6
CONTINUOUS
10
-52.080355
20
165.705585
30
0.0
11
-52.056205
21
165.663475
31
0.0
0
LINE
8
0
6
CONTINUOUS
10
-51.635907
20
166.175200
30
0.0
11
-52.080355
21
165.705585
31
0.0
0
LINE
8
0
6
CONTINUOUS
10
-43.601535
20
152.372615
30
0.0
11
-43.125345
21
151.543605
31
0.0
0
LINE
8
0
6
CONTINUOUS
10
-47.759405
20
159.611225
30
0.0
11
-46.797275
21
157.936195
31
0.0
0
LINE
8
0
6
CONTINUOUS
10
-46.797275
20
157.936195
30
0.0
11
-45.900755
21
156.375375
31
0.0
0
LINE
8
0
6
CONTINUOUS
10
-46.507465
20
155.074715
30
0.0
11
-45.268835
21
153.063525
31
0.0
0
LINE
8
0
6
CONTINUOUS
10
-45.268835
20
153.063525
30
0.0
11
-44.151033
21
153.751944
31
0.0
0
LINE
8
0
6
CONTINUOUS
10
-43.870915
20
161.339285
30
0.0
11
-43.632855
21
160.957735
31
0.0
0
LINE
8
0
6
CONTINUOUS
10
-42.513210
20
162.186638
30
0.0
11
-43.870915
21
161.339285
31
0.0
0
LINE
8
0
6
CONTINUOUS
10
-20.588905
20
114.670965
30
0.0
11
-20.032675
21
113.779475
31
0.0
0
LINE
8
0
6
CONTINUOUS
10
-19.794635
20
113.397925
30
0.0
11
-19.046888
21
113.864600
31
0.0
0
LINE
8
0
6
CONTINUOUS
10
-20.032675
20
113.779475
30
0.0
11
-19.794635
21
113.397925
31
0.0
0
LINE
8
0
6
CONTINUOUS
10
-64.332315
20
193.832575
30
0.0
11
-63.775875
21
192.942065
31
0.0
0
LINE
8
0
6
CONTINUOUS
10
-43.632855
20
160.957735
30
0.0
11
-43.076445
21
160.067235
31
0.0
0
LINE
8
0
6
CONTINUOUS
10
-46.673345
20
159.219915
30
0.0
11
-46.435285
21
158.838365
31
0.0
0
LINE
8
0
6
CONTINUOUS
10
-45.553205
20
159.918782
30
0.0
11
-46.673345
21
159.219915
31
0.0
0
LINE
8
0
6
CONTINUOUS
10
-35.616375
20
143.143715
30
0.0
11
-35.059955
21
142.253215
31
0.0
0
LINE
8
0
6
CONTINUOUS
10
-35.854425
20
143.525185
30
0.0
11
-35.616375
21
143.143715
31
0.0
0
LINE
8
0
6
CONTINUOUS
10
-34.471371
20
144.388383
30
0.0
11
-35.854425
21
143.525185
31
0.0
0
LINE
8
0
6
CONTINUOUS
10
-28.956215
20
135.792485
30
0.0
11
-28.400995
21
134.901225
31
0.0
0
LINE
8
0
6
CONTINUOUS
10
-29.511675
20
136.682765
30
0.0
11
-28.956215
21
135.792485
31
0.0
0
LINE
8
0
6
CONTINUOUS
10
-27.470075
20
126.249025
30
0.0
11
-26.913885
21
125.357615
31
0.0
0
LINE
8
0
6
CONTINUOUS
10
-39.697665
20
146.684825
30
0.0
11
-39.459575
21
146.303275
31
0.0
0
LINE
8
0
6
CONTINUOUS
10
-39.459575
20
146.303275
30
0.0
11
-38.337376
21
147.003428
31
0.0
0
LINE
8
0
6
CONTINUOUS
10
-22.103405
20
131.936895
30
0.0
11
-21.548185
21
131.045625
31
0.0
0
LINE
8
0
6
CONTINUOUS
10
-53.055575
20
169.769845
30
0.0
11
-52.817315
21
169.389285
31
0.0
0
LINE
8
0
6
CONTINUOUS
10
-52.357274
20
170.205664
30
0.0
11
-53.055575
21
169.769845
31
0.0
0
LINE
8
0
6
CONTINUOUS
10
-58.635865
20
181.571215
30
0.0
11
-58.080415
21
180.680945
31
0.0
0
LINE
8
0
6
CONTINUOUS
10
-60.432885
20
182.884465
30
0.0
11
-60.194835
21
182.502925
31
0.0
0
LINE
8
0
6
CONTINUOUS
10
-59.597593
20
183.405615
30
0.0
11
-60.432885
21
182.884465
31
0.0
0
LINE
8
0
6
CONTINUOUS
10
-23.448285
20
120.362035
30
0.0
11
-23.251864
21
120.317126
31
0.0
0
LINE
8
0
6
CONTINUOUS
10
-23.417065
20
120.726875
30
0.0
11
-23.448285
21
120.362035
31
0.0
0
LINE
8
0
6
CONTINUOUS
10
-65.041885
20
198.575995
30
0.0
11
-64.965795
21
198.354745
31
0.0
0
LINE
8
0
6
CONTINUOUS
10
-64.888767
20
198.889639
30
0.0
11
-65.041885
21
198.575995
31
0.0
0
LINE
8
0
6
CONTINUOUS
10
-30.834475
20
129.937535
30
0.0
11
-29.745086
21
130.114068
31
0.0
0
LINE
8
0
6
CONTINUOUS
10
-30.800135
20
130.214335
30
0.0
11
-30.834475
21
129.937535
31
0.0
0
LINE
8
0
6
CONTINUOUS
10
-61.360535
20
186.637745
30
0.0
11
-61.306795
21
186.475015
31
0.0
0
LINE
8
0
6
CONTINUOUS
10
-60.928023
20
187.097344
30
0.0
11
-61.360535
21
186.637745
31
0.0
0
LINE
8
0
6
CONTINUOUS
10
-37.299395
20
139.242495
30
0.0
11
-36.153585
21
139.666442
31
0.0
0
LINE
8
0
6
CONTINUOUS
10
-37.253055
20
139.442615
30
0.0
11
-37.299395
21
139.242495
31
0.0
0
LINE
8
0
6
CONTINUOUS
10
-56.676575
20
176.340735
30
0.0
11
-56.646985
21
176.230715
31
0.0
0
LINE
8
0
6
CONTINUOUS
10
-56.522829
20
176.480719
30
0.0
11
-56.676575
21
176.340735
31
0.0
0
LINE
8
0
6
CONTINUOUS
10
-48.609695
20
158.488105
30
0.0
11
-46.507465
21
155.074715
31
0.0
0
LINE
8
0
6
CONTINUOUS
10
-50.694515
20
161.873265
30
0.0
11
-50.344015
21
161.304195
31
0.0
0
LINE
8
0
6
CONTINUOUS
10
-49.486190
20
162.617444
30
0.0
11
-50.694515
21
161.873265
31
0.0
0
LINE
8
0
6
CONTINUOUS
10
-50.344015
20
161.304195
30
0.0
11
-48.609695
21
158.488105
31
0.0
0
LINE
8
0
6
CONTINUOUS
10
-28.429405
20
140.939355
30
0.0
11
-27.874175
21
140.048085
31
0.0
0
LINE
8
0
6
CONTINUOUS
10
-38.900665
20
142.245425
30
0.0
11
-38.154641
21
142.710892
31
0.0
0
LINE
8
0
6
CONTINUOUS
10
-39.138745
20
142.627055
30
0.0
11
-38.900665
21
142.245425
31
0.0
0
LINE
8
0
6
CONTINUOUS
10
-55.155945
20
171.160605
30
0.0
11
-54.600495
21
170.270335
31
0.0
0
LINE
8
0
6
CONTINUOUS
10
-66.376341
20
206.686689
30
0.0
11
-67.913955
21
205.727335
31
0.0
0
LINE
8
0
6
CONTINUOUS
10
-67.913955
20
205.727335
30
0.0
11
-67.675895
21
205.345785
31
0.0
0
LINE
8
0
6
CONTINUOUS
10
-67.675895
20
205.345785
30
0.0
11
-67.119685
21
204.454295
31
0.0
0
LINE
8
0
6
CONTINUOUS
10
-63.625207
20
194.804462
30
0.0
11
-64.570125
21
194.215105
31
0.0
0
LINE
8
0
6
CONTINUOUS
10
-64.570125
20
194.215105
30
0.0
11
-64.332315
21
193.832575
31
0.0
0
LINE
8
0
6
CONTINUOUS
10
-42.521205
20
159.175975
30
0.0
11
-42.283355
21
158.793435
31
0.0
0
LINE
8
0
6
CONTINUOUS
10
-42.283355
20
158.793435
30
0.0
11
-41.040759
21
159.568955
31
0.0
0
LINE
8
0
6
CONTINUOUS
10
-43.076445
20
160.067235
30
0.0
11
-42.521205
21
159.175975
31
0.0
0
LINE
8
0
6
CONTINUOUS
10
-35.474385
20
148.827235
30
0.0
11
-35.236335
21
148.445685
31
0.0
0
LINE
8
0
6
CONTINUOUS
10
-34.698701
20
149.311192
30
0.0
11
-35.474385
21
148.827235
31
0.0
0
LINE
8
0
6
CONTINUOUS
10
-26.192575
20
129.225635
30
0.0
11
-25.637115
21
128.335365
31
0.0
0
LINE
8
0
6
CONTINUOUS
10
-41.622565
20
153.996675
30
0.0
11
-41.067335
21
153.105415
31
0.0
0
LINE
8
0
6
CONTINUOUS
10
-21.197865
20
116.518045
30
0.0
11
-20.642415
21
115.627695
31
0.0
0
LINE
8
0
6
CONTINUOUS
10
-40.254695
20
143.694325
30
0.0
11
-39.698275
21
142.803825
31
0.0
0
LINE
8
0
6
CONTINUOUS
10
-40.809925
20
144.585595
30
0.0
11
-40.254695
21
143.694325
31
0.0
0
LINE
8
0
6
CONTINUOUS
10
-33.798975
20
136.812385
30
0.0
11
-33.243745
21
135.921115
31
0.0
0
LINE
8
0
6
CONTINUOUS
10
-34.146285
20
135.206325
30
0.0
11
-33.907235
21
134.824545
31
0.0
0
LINE
8
0
6
CONTINUOUS
10
-33.464850
20
135.631479
30
0.0
11
-34.146285
21
135.206325
31
0.0
0
LINE
8
0
6
CONTINUOUS
10
-40.253855
20
147.576235
30
0.0
11
-39.697665
21
146.684825
31
0.0
0
LINE
8
0
6
CONTINUOUS
10
-40.809315
20
148.466515
30
0.0
11
-40.253855
21
147.576235
31
0.0
0
LINE
8
0
6
CONTINUOUS
10
-41.047125
20
148.849055
30
0.0
11
-40.809315
21
148.466515
31
0.0
0
LINE
8
0
6
CONTINUOUS
10
-39.837494
20
149.604018
30
0.0
11
-41.047125
21
148.849055
31
0.0
0
LINE
8
0
6
CONTINUOUS
10
-21.548185
20
131.045625
30
0.0
11
-21.310145
21
130.664085
31
0.0
0
LINE
8
0
6
CONTINUOUS
10
-21.310145
20
130.664085
30
0.0
11
-20.533986
21
131.148340
31
0.0
0
LINE
8
0
6
CONTINUOUS
10
-22.659865
20
132.827395
30
0.0
11
-22.103405
21
131.936895
31
0.0
0
LINE
8
0
6
CONTINUOUS
10
-22.897915
20
133.209025
30
0.0
11
-22.659865
21
132.827395
31
0.0
0
LINE
8
0
6
CONTINUOUS
10
-34.809795
20
151.045475
30
0.0
11
-34.254335
21
150.155205
31
0.0
0
LINE
8
0
6
CONTINUOUS
10
-35.365975
20
151.936975
30
0.0
11
-34.809795
21
151.045475
31
0.0
0
LINE
8
0
6
CONTINUOUS
10
-54.050785
20
174.811425
30
0.0
11
-53.812735
21
174.429875
31
0.0
0
LINE
8
0
6
CONTINUOUS
10
-53.812735
20
174.429875
30
0.0
11
-52.667007
21
175.144481
31
0.0
0
LINE
8
0
6
CONTINUOUS
10
-58.080415
20
180.680945
30
0.0
11
-57.524175
21
179.789375
31
0.0
0
LINE
8
0
6
CONTINUOUS
10
-60.194835
20
182.502925
30
0.0
11
-59.638385
21
181.612415
31
0.0
0
LINE
8
0
6
CONTINUOUS
10
-61.597405
20
191.245825
30
0.0
11
-61.040985
21
190.355325
31
0.0
0
LINE
8
0
6
CONTINUOUS
10
-61.835475
20
191.627375
30
0.0
11
-61.597405
21
191.245825
31
0.0
0
LINE
8
0
6
CONTINUOUS
10
-61.016617
20
192.138431
30
0.0
11
-61.835475
21
191.627375
31
0.0
0
LINE
8
0
6
CONTINUOUS
10
-54.594075
20
170.931955
30
0.0
11
-54.037885
21
170.040455
31
0.0
0
LINE
8
0
6
CONTINUOUS
10
-46.241025
20
170.704515
30
0.0
11
-46.001785
21
170.323735
31
0.0
0
LINE
8
0
6
CONTINUOUS
10
-46.001785
20
170.323735
30
0.0
11
-45.068234
21
170.906186
31
0.0
0
LINE
8
0
6
CONTINUOUS
10
-57.580075
20
190.668585
30
0.0
11
-57.342025
21
190.287035
31
0.0
0
LINE
8
0
6
CONTINUOUS
10
-57.342025
20
190.287035
30
0.0
11
-56.854899
21
190.590959
31
0.0
0
LINE
8
0
6
CONTINUOUS
10
-63.089515
20
198.245945
30
0.0
11
-62.533095
21
197.355445
31
0.0
0
LINE
8
0
6
CONTINUOUS
10
-63.644765
20
199.137215
30
0.0
11
-63.089515
21
198.245945
31
0.0
0
LINE
8
0
6
CONTINUOUS
10
-67.335375
20
204.387305
30
0.0
11
-66.780155
21
203.496035
31
0.0
0
LINE
8
0
6
CONTINUOUS
10
-27.553845
20
125.124915
30
0.0
11
-26.998615
21
124.233725
31
0.0
0
LINE
8
0
6
CONTINUOUS
10
-41.077205
20
161.395365
30
0.0
11
-40.520785
21
160.504935
31
0.0
0
LINE
8
0
6
CONTINUOUS
10
-45.878875
20
157.947865
30
0.0
11
-45.323605
21
157.056525
31
0.0
0
LINE
8
0
6
CONTINUOUS
10
-46.435285
20
158.838365
30
0.0
11
-45.878875
21
157.947865
31
0.0
0
LINE
8
0
6
CONTINUOUS
10
-34.679915
20
147.555185
30
0.0
11
-34.124695
21
146.663915
31
0.0
0
LINE
8
0
6
CONTINUOUS
10
-35.236335
20
148.445685
30
0.0
11
-34.679915
21
147.555185
31
0.0
0
LINE
8
0
6
CONTINUOUS
10
-26.748805
20
130.117055
30
0.0
11
-26.192575
21
129.225635
31
0.0
0
LINE
8
0
6
CONTINUOUS
10
-34.504695
20
141.361865
30
0.0
11
-34.266635
21
140.980325
31
0.0
0
LINE
8
0
6
CONTINUOUS
10
-34.266635
20
140.980325
30
0.0
11
-33.117700
21
141.697179
31
0.0
0
LINE
8
0
6
CONTINUOUS
10
-35.059955
20
142.253215
30
0.0
11
-34.504695
21
141.361865
31
0.0
0
LINE
8
0
6
CONTINUOUS
10
-29.750725
20
137.064535
30
0.0
11
-29.511675
21
136.682765
31
0.0
0
LINE
8
0
6
CONTINUOUS
10
-27.966733
20
138.177591
30
0.0
11
-29.750725
21
137.064535
31
0.0
0
LINE
8
0
6
CONTINUOUS
10
-19.278045
20
117.667485
30
0.0
11
-19.039215
21
117.284795
31
0.0
0
LINE
8
0
6
CONTINUOUS
10
-19.039215
20
117.284795
30
0.0
11
-17.882165
21
118.006926
31
0.0
0
LINE
8
0
6
CONTINUOUS
10
-20.642415
20
115.627695
30
0.0
11
-20.086215
21
114.736275
31
0.0
0
LINE
8
0
6
CONTINUOUS
10
-39.698275
20
142.803825
30
0.0
11
-39.460225
21
142.422275
31
0.0
0
LINE
8
0
6
CONTINUOUS
10
-39.460225
20
142.422275
30
0.0
11
-37.839365
21
143.433571
31
0.0
0
LINE
8
0
6
CONTINUOUS
10
-32.688285
20
135.030845
30
0.0
11
-32.449245
21
134.649065
31
0.0
0
LINE
8
0
6
CONTINUOUS
10
-32.449245
20
134.649065
30
0.0
11
-31.421773
21
135.290117
31
0.0
0
LINE
8
0
6
CONTINUOUS
10
-33.351775
20
133.934275
30
0.0
11
-32.795585
21
133.042775
31
0.0
0
LINE
8
0
6
CONTINUOUS
10
-33.907235
20
134.824545
30
0.0
11
-33.351775
21
133.934275
31
0.0
0
LINE
8
0
6
CONTINUOUS
10
-56.146865
20
183.316675
30
0.0
11
-55.908815
21
182.935125
31
0.0
0
LINE
8
0
6
CONTINUOUS
10
-55.908815
20
182.935125
30
0.0
11
-55.310137
21
183.308646
31
0.0
0
LINE
8
0
6
CONTINUOUS
10
-57.496595
20
185.479915
30
0.0
11
-57.258555
21
185.098365
31
0.0
0
LINE
8
0
6
CONTINUOUS
10
-57.051604
20
185.757557
30
0.0
11
-57.496595
21
185.479915
31
0.0
0
LINE
8
0
6
CONTINUOUS
10
-47.330835
20
163.995385
30
0.0
11
-47.092785
21
163.613835
31
0.0
0
LINE
8
0
6
CONTINUOUS
10
-47.092785
20
163.613835
30
0.0
11
-45.949065
21
164.327417
31
0.0
0
LINE
8
0
6
CONTINUOUS
10
-50.339435
20
173.068105
30
0.0
11
-49.783985
21
172.177835
31
0.0
0
LINE
8
0
6
CONTINUOUS
10
-52.817315
20
169.389285
30
0.0
11
-52.261115
21
168.497795
31
0.0
0
LINE
8
0
6
CONTINUOUS
10
-58.874875
20
181.952915
30
0.0
11
-58.635865
21
181.571215
31
0.0
0
LINE
8
0
6
CONTINUOUS
10
-57.919565
20
182.548963
30
0.0
11
-58.874875
21
181.952915
31
0.0
0
LINE
8
0
6
CONTINUOUS
10
-60.485755
20
189.464055
30
0.0
11
-60.247715
21
189.082585
31
0.0
0
LINE
8
0
6
CONTINUOUS
10
-60.247715
20
189.082585
30
0.0
11
-59.767729
21
189.382045
31
0.0
0
LINE
8
0
6
CONTINUOUS
10
-61.040985
20
190.355325
30
0.0
11
-60.485755
21
189.464055
31
0.0
0
LINE
8
0
6
CONTINUOUS
10
-54.037885
20
170.040455
30
0.0
11
-53.799835
21
169.658915
31
0.0
0
LINE
8
0
6
CONTINUOUS
10
-53.799835
20
169.658915
30
0.0
11
-53.113106
21
170.087506
31
0.0
0
LINE
8
0
6
CONTINUOUS
10
-53.891505
20
183.011955
30
0.0
11
-53.652675
21
182.629185
31
0.0
0
LINE
8
0
6
CONTINUOUS
10
-51.807021
20
184.312061
30
0.0
11
-53.891505
21
183.011955
31
0.0
0
LINE
8
0
6
CONTINUOUS
10
-58.691765
20
192.450355
30
0.0
11
-58.136315
21
191.560075
31
0.0
0
LINE
8
0
6
CONTINUOUS
10
-58.929805
20
192.831905
30
0.0
11
-58.691765
21
192.450355
31
0.0
0
LINE
8
0
6
CONTINUOUS
10
-57.564620
20
193.683926
30
0.0
11
-58.929805
21
192.831905
31
0.0
0
LINE
8
0
6
CONTINUOUS
10
-62.533095
20
197.355445
30
0.0
11
-62.295035
21
196.973975
31
0.0
0
LINE
8
0
6
CONTINUOUS
10
-62.295035
20
196.973975
30
0.0
11
-61.252295
21
197.624549
31
0.0
0
LINE
8
0
6
CONTINUOUS
10
-26.748805
20
130.117055
30
0.0
11
-26.986855
21
130.498605
31
0.0
0
LINE
8
0
6
CONTINUOUS
10
-26.192575
20
129.225635
30
0.0
11
-26.748805
21
130.117055
31
0.0
0
LINE
8
0
6
CONTINUOUS
10
-25.637115
20
128.335365
30
0.0
11
-26.192575
21
129.225635
31
0.0
0
LINE
8
0
6
CONTINUOUS
10
-25.398105
20
127.953515
30
0.0
11
-25.637115
21
128.335365
31
0.0
0
LINE
8
0
6
CONTINUOUS
10
-27.004068
20
125.998851
30
0.0
11
-27.791655
21
125.507455
31
0.0
0
LINE
8
0
6
CONTINUOUS
10
-27.791655
20
125.507455
30
0.0
11
-27.553845
21
125.124915
31
0.0
0
LINE
8
0
6
CONTINUOUS
10
-26.998615
20
124.233725
30
0.0
11
-26.442195
21
123.343225
31
0.0
0
LINE
8
0
6
CONTINUOUS
10
-26.204145
20
122.961675
30
0.0
11
-25.350774
21
123.494101
31
0.0
0
LINE
8
0
6
CONTINUOUS
10
-26.442195
20
123.343225
30
0.0
11
-26.204145
21
122.961675
31
0.0
0
LINE
8
0
6
CONTINUOUS
10
-20.681901
20
116.379982
30
0.0
11
-21.382415
21
115.942785
31
0.0
0
LINE
8
0
6
CONTINUOUS
10
-21.382415
20
115.942785
30
0.0
11
-21.144365
21
115.561235
31
0.0
0
LINE
8
0
6
CONTINUOUS
10
-21.144365
20
115.561235
30
0.0
11
-20.588905
21
114.670965
31
0.0
0
LINE
8
0
6
CONTINUOUS
10
-54.991378
20
173.031628
30
0.0
11
-55.950225
21
172.433565
31
0.0
0
LINE
8
0
6
CONTINUOUS
10
-55.950225
20
172.433565
30
0.0
11
-55.712175
21
172.052095
31
0.0
0
LINE
8
0
6
CONTINUOUS
10
-55.712175
20
172.052095
30
0.0
11
-55.155945
21
171.160605
31
0.0
0
LINE
8
0
6
CONTINUOUS
10
-54.600495
20
170.270335
30
0.0
11
-54.361485
21
169.888555
31
0.0
0
LINE
8
0
6
CONTINUOUS
10
-57.524175
20
179.789375
30
0.0
11
-58.080415
21
180.680945
31
0.0
0
LINE
8
0
6
CONTINUOUS
10
-57.286135
20
179.407905
30
0.0
11
-57.524175
21
179.789375
31
0.0
0
LINE
8
0
6
CONTINUOUS
10
-58.635865
20
181.571215
30
0.0
11
-58.874875
21
181.952915
31
0.0
0
LINE
8
0
6
CONTINUOUS
10
-58.080415
20
180.680945
30
0.0
11
-58.635865
21
181.571215
31
0.0
0
LINE
8
0
6
CONTINUOUS
10
-64.332315
20
193.832575
30
0.0
11
-64.570125
21
194.215105
31
0.0
0
LINE
8
0
6
CONTINUOUS
10
-63.775875
20
192.942065
30
0.0
11
-64.332315
21
193.832575
31
0.0
0
LINE
8
0
6
CONTINUOUS
10
-20.388955
20
119.448035
30
0.0
11
-20.627745
21
119.830805
31
0.0
0
LINE
8
0
6
CONTINUOUS
10
-19.833725
20
118.556845
30
0.0
11
-20.388955
21
119.448035
31
0.0
0
LINE
8
0
6
CONTINUOUS
10
-19.278045
20
117.667485
30
0.0
11
-19.833725
21
118.556845
31
0.0
0
LINE
8
0
6
CONTINUOUS
10
-19.039215
20
117.284795
30
0.0
11
-19.278045
21
117.667485
31
0.0
0
LINE
8
0
6
CONTINUOUS
10
-66.116345
20
202.874245
30
0.0
11
-66.354155
21
203.256785
31
0.0
0
LINE
8
0
6
CONTINUOUS
10
-65.561095
20
201.982975
30
0.0
11
-66.116345
21
202.874245
31
0.0
0
LINE
8
0
6
CONTINUOUS
10
-65.004445
20
201.093465
30
0.0
11
-65.561095
21
201.982975
31
0.0
0
LINE
8
0
6
CONTINUOUS
10
-64.766605
20
200.710925
30
0.0
11
-65.004445
21
201.093465
31
0.0
0
LINE
8
0
6
CONTINUOUS
10
-41.632655
20
162.285715
30
0.0
11
-41.870525
21
162.668175
31
0.0
0
LINE
8
0
6
CONTINUOUS
10
-41.077205
20
161.395365
30
0.0
11
-41.632655
21
162.285715
31
0.0
0
LINE
8
0
6
CONTINUOUS
10
-40.520785
20
160.504935
30
0.0
11
-41.077205
21
161.395365
31
0.0
0
LINE
8
0
6
CONTINUOUS
10
-40.282965
20
160.122325
30
0.0
11
-40.520785
21
160.504935
31
0.0
0
LINE
8
0
6
CONTINUOUS
10
-40.520785
20
160.504935
30
0.0
11
-40.282965
21
160.122325
31
0.0
0
LINE
8
0
6
CONTINUOUS
10
-40.282965
20
160.122325
30
0.0
11
-39.015737
21
160.913486
31
0.0
0
LINE
8
0
6
CONTINUOUS
10
-41.632655
20
162.285715
30
0.0
11
-41.077205
21
161.395365
31
0.0
0
LINE
8
0
6
CONTINUOUS
10
-41.870525
20
162.668175
30
0.0
11
-41.632655
21
162.285715
31
0.0
0
LINE
8
0
6
CONTINUOUS
10
-41.340319
20
162.999089
30
0.0
11
-41.870525
21
162.668175
31
0.0
0
LINE
8
0
6
CONTINUOUS
10
-45.323605
20
157.056525
30
0.0
11
-45.084595
21
156.674825
31
0.0
0
LINE
8
0
6
CONTINUOUS
10
-45.084595
20
156.674825
30
0.0
11
-43.982764
21
157.362487
31
0.0
0
LINE
8
0
6
CONTINUOUS
10
-34.124695
20
146.663915
30
0.0
11
-33.885645
21
146.282145
31
0.0
0
LINE
8
0
6
CONTINUOUS
10
-33.885645
20
146.282145
30
0.0
11
-33.181983
21
146.721304
31
0.0
0
LINE
8
0
6
CONTINUOUS
10
-18.919715
20
123.004245
30
0.0
11
-18.680705
21
122.622475
31
0.0
0
LINE
8
0
6
CONTINUOUS
10
-18.680705
20
122.622475
30
0.0
11
-17.579785
21
123.309567
31
0.0
0
LINE
8
0
6
CONTINUOUS
10
-19.474935
20
123.895515
30
0.0
11
-18.919715
21
123.004245
31
0.0
0
LINE
8
0
6
CONTINUOUS
10
-20.030395
20
124.785785
30
0.0
11
-19.474935
21
123.895515
31
0.0
0
LINE
8
0
6
CONTINUOUS
10
-20.269435
20
125.167635
30
0.0
11
-20.030395
21
124.785785
31
0.0
0
LINE
8
0
6
CONTINUOUS
10
-25.637115
20
128.335365
30
0.0
11
-25.398105
21
127.953515
31
0.0
0
LINE
8
0
6
CONTINUOUS
10
-25.398105
20
127.953515
30
0.0
11
-24.810253
21
128.320291
31
0.0
0
LINE
8
0
6
CONTINUOUS
10
-26.986855
20
130.498605
30
0.0
11
-26.748805
21
130.117055
31
0.0
0
LINE
8
0
6
CONTINUOUS
10
-40.510915
20
152.214915
30
0.0
11
-40.272865
21
151.833365
31
0.0
0
LINE
8
0
6
CONTINUOUS
10
-40.272865
20
151.833365
30
0.0
11
-39.032534
21
152.607219
31
0.0
0
LINE
8
0
6
CONTINUOUS
10
-41.067335
20
153.105415
30
0.0
11
-40.510915
21
152.214915
31
0.0
0
LINE
8
0
6
CONTINUOUS
10
-41.860425
20
154.379215
30
0.0
11
-41.622565
21
153.996675
31
0.0
0
LINE
8
0
6
CONTINUOUS
10
-40.728003
20
155.085744
30
0.0
11
-41.860425
21
154.379215
31
0.0
0
LINE
8
0
6
CONTINUOUS
10
-28.400995
20
134.901225
30
0.0
11
-28.161975
21
134.519445
31
0.0
0
LINE
8
0
6
CONTINUOUS
10
-28.161975
20
134.519445
30
0.0
11
-26.732487
21
135.411602
31
0.0
0
LINE
8
0
6
CONTINUOUS
10
-19.833725
20
118.556845
30
0.0
11
-19.278045
21
117.667485
31
0.0
0
LINE
8
0
6
CONTINUOUS
10
-20.388955
20
119.448035
30
0.0
11
-19.833725
21
118.556845
31
0.0
0
LINE
8
0
6
CONTINUOUS
10
-20.627745
20
119.830805
30
0.0
11
-20.388955
21
119.448035
31
0.0
0
LINE
8
0
6
CONTINUOUS
10
-26.358425
20
124.467335
30
0.0
11
-26.120385
21
124.085795
31
0.0
0
LINE
8
0
6
CONTINUOUS
10
-26.120385
20
124.085795
30
0.0
11
-25.139331
21
124.697683
31
0.0
0
LINE
8
0
6
CONTINUOUS
10
-26.913885
20
125.357615
30
0.0
11
-26.358425
21
124.467335
31
0.0
0
LINE
8
0
6
CONTINUOUS
10
-27.708125
20
126.630575
30
0.0
11
-27.470075
21
126.249025
31
0.0
0
LINE
8
0
6
CONTINUOUS
10
-27.506172
20
126.756579
30
0.0
11
-27.708125
21
126.630575
31
0.0
0
LINE
8
0
6
CONTINUOUS
10
-20.086215
20
114.736275
30
0.0
11
-19.848175
21
114.354655
31
0.0
0
LINE
8
0
6
CONTINUOUS
10
-19.848175
20
114.354655
30
0.0
11
-18.785628
21
115.017817
31
0.0
0
LINE
8
0
6
CONTINUOUS
10
-21.435925
20
116.899515
30
0.0
11
-21.197865
21
116.518045
31
0.0
0
LINE
8
0
6
CONTINUOUS
10
-21.139751
20
117.084360
30
0.0
11
-21.435925
21
116.899515
31
0.0
0
LINE
8
0
6
CONTINUOUS
10
-41.047775
20
144.968135
30
0.0
11
-40.809925
21
144.585595
31
0.0
0
LINE
8
0
6
CONTINUOUS
10
-40.048193
20
145.591781
30
0.0
11
-41.047775
21
144.968135
31
0.0
0
LINE
8
0
6
CONTINUOUS
10
-33.243745
20
135.921115
30
0.0
11
-32.688285
21
135.030845
31
0.0
0
LINE
8
0
6
CONTINUOUS
10
-34.037975
20
137.194155
30
0.0
11
-33.798975
21
136.812385
31
0.0
0
LINE
8
0
6
CONTINUOUS
10
-32.795585
20
133.042775
30
0.0
11
-32.557765
21
132.660235
31
0.0
0
LINE
8
0
6
CONTINUOUS
10
-32.557765
20
132.660235
30
0.0
11
-31.636554
21
133.235356
31
0.0
0
LINE
8
0
6
CONTINUOUS
10
-27.874175
20
140.048085
30
0.0
11
-27.636135
21
139.666545
31
0.0
0
LINE
8
0
6
CONTINUOUS
10
-27.636135
20
139.666545
30
0.0
11
-26.264996
21
140.522011
31
0.0
0
LINE
8
0
6
CONTINUOUS
10
-28.985825
20
141.829855
30
0.0
11
-28.429405
21
140.939355
31
0.0
0
LINE
8
0
6
CONTINUOUS
10
-29.223915
20
142.211405
30
0.0
11
-28.985825
21
141.829855
31
0.0
0
LINE
8
0
6
CONTINUOUS
10
-28.451454
20
142.693347
30
0.0
11
-29.223915
21
142.211405
31
0.0
0
LINE
8
0
6
CONTINUOUS
10
-34.254335
20
150.155205
30
0.0
11
-34.016255
21
149.773655
31
0.0
0
LINE
8
0
6
CONTINUOUS
10
-34.016255
20
149.773655
30
0.0
11
-32.753805
21
150.561059
31
0.0
0
LINE
8
0
6
CONTINUOUS
10
-35.604025
20
152.318515
30
0.0
11
-35.365975
21
151.936975
31
0.0
0
LINE
8
0
6
CONTINUOUS
10
-34.939502
20
152.733117
30
0.0
11
-35.582412
21
152.332000
31
0.0
0
LINE
8
0
6
CONTINUOUS
10
-56.703325
20
184.207175
30
0.0
11
-56.146865
21
183.316675
31
0.0
0
LINE
8
0
6
CONTINUOUS
10
-57.258555
20
185.098365
30
0.0
11
-56.703325
21
184.207175
31
0.0
0
LINE
8
0
6
CONTINUOUS
10
-47.886065
20
164.886645
30
0.0
11
-47.330835
21
163.995385
31
0.0
0
LINE
8
0
6
CONTINUOUS
10
-48.442525
20
165.777155
30
0.0
11
-47.886065
21
164.886645
31
0.0
0
LINE
8
0
6
CONTINUOUS
10
-48.680565
20
166.158695
30
0.0
11
-48.442525
21
165.777155
31
0.0
0
LINE
8
0
6
CONTINUOUS
10
-47.472605
20
166.912355
30
0.0
11
-48.680565
21
166.158695
31
0.0
0
LINE
8
0
6
CONTINUOUS
10
-49.783985
20
172.177835
30
0.0
11
-49.545905
21
171.796285
31
0.0
0
LINE
8
0
6
CONTINUOUS
10
-49.545905
20
171.796285
30
0.0
11
-48.676793
21
172.338375
31
0.0
0
LINE
8
0
6
CONTINUOUS
10
-50.895635
20
173.959605
30
0.0
11
-50.339435
21
173.068105
31
0.0
0
LINE
8
0
6
CONTINUOUS
10
-51.133455
20
174.342135
30
0.0
11
-50.895635
21
173.959605
31
0.0
0
LINE
8
0
6
CONTINUOUS
10
-50.399468
20
174.799932
30
0.0
11
-51.133455
21
174.342135
31
0.0
0
LINE
8
0
6
CONTINUOUS
10
-51.705885
20
167.606605
30
0.0
11
-51.467845
21
167.225055
31
0.0
0
LINE
8
0
6
CONTINUOUS
10
-51.467845
20
167.225055
30
0.0
11
-50.538334
21
167.804989
31
0.0
0
LINE
8
0
6
CONTINUOUS
10
-52.261115
20
168.497795
30
0.0
11
-51.705885
21
167.606605
31
0.0
0
LINE
8
0
6
CONTINUOUS
10
-54.606235
20
175.701695
30
0.0
11
-54.050785
21
174.811425
31
0.0
0
LINE
8
0
6
CONTINUOUS
10
-55.162475
20
176.593195
30
0.0
11
-54.606235
21
175.701695
31
0.0
0
LINE
8
0
6
CONTINUOUS
10
-55.400515
20
176.974735
30
0.0
11
-55.162475
21
176.593195
31
0.0
0
LINE
8
0
6
CONTINUOUS
10
-54.367171
20
177.619447
30
0.0
11
-55.400515
21
176.974735
31
0.0
0
LINE
8
0
6
CONTINUOUS
10
-67.675895
20
205.345785
30
0.0
11
-67.913955
21
205.727335
31
0.0
0
LINE
8
0
6
CONTINUOUS
10
-67.119685
20
204.454295
30
0.0
11
-67.675895
21
205.345785
31
0.0
0
LINE
8
0
6
CONTINUOUS
10
-57.524175
20
179.789375
30
0.0
11
-57.286135
21
179.407905
31
0.0
0
LINE
8
0
6
CONTINUOUS
10
-57.286135
20
179.407905
30
0.0
11
-56.814556
21
179.702221
31
0.0
0
LINE
8
0
6
CONTINUOUS
10
-59.083155
20
180.721225
30
0.0
11
-58.845115
21
180.339605
31
0.0
0
LINE
8
0
6
CONTINUOUS
10
-58.845115
20
180.339605
30
0.0
11
-58.270097
21
180.698251
31
0.0
0
LINE
8
0
6
CONTINUOUS
10
-59.638385
20
181.612415
30
0.0
11
-59.083155
21
180.721225
31
0.0
0
LINE
8
0
6
CONTINUOUS
10
-62.651155
20
191.092625
30
0.0
11
-62.412125
21
190.710855
31
0.0
0
LINE
8
0
6
CONTINUOUS
10
-62.412125
20
190.710855
30
0.0
11
-61.832917
21
191.072343
31
0.0
0
LINE
8
0
6
CONTINUOUS
10
-63.206375
20
191.983895
30
0.0
11
-62.651155
21
191.092625
31
0.0
0
LINE
8
0
6
CONTINUOUS
10
-63.762815
20
192.874395
30
0.0
11
-63.206375
21
191.983895
31
0.0
0
LINE
8
0
6
CONTINUOUS
10
-64.000855
20
193.255945
30
0.0
11
-63.762815
21
192.874395
31
0.0
0
LINE
8
0
6
CONTINUOUS
10
-63.247663
20
193.726010
30
0.0
11
-64.000855
21
193.255945
31
0.0
0
LINE
8
0
6
CONTINUOUS
10
-55.149535
20
171.822225
30
0.0
11
-54.594075
21
170.931955
31
0.0
0
LINE
8
0
6
CONTINUOUS
10
-55.388545
20
172.204005
30
0.0
11
-55.149535
21
171.822225
31
0.0
0
LINE
8
0
6
CONTINUOUS
10
-54.789775
20
172.577583
30
0.0
11
-55.388545
21
172.204005
31
0.0
0
LINE
8
0
6
CONTINUOUS
10
-46.796255
20
171.595705
30
0.0
11
-46.241025
21
170.704515
31
0.0
0
LINE
8
0
6
CONTINUOUS
10
-47.351485
20
172.486975
30
0.0
11
-46.796255
21
171.595705
31
0.0
0
LINE
8
0
6
CONTINUOUS
10
-47.590755
20
172.867835
30
0.0
11
-47.351485
21
172.486975
31
0.0
0
LINE
8
0
6
CONTINUOUS
10
-45.606688
20
174.105683
30
0.0
11
-47.590755
21
172.867835
31
0.0
0
LINE
8
0
6
CONTINUOUS
10
-52.540805
20
180.848415
30
0.0
11
-52.302985
21
180.465875
31
0.0
0
LINE
8
0
6
CONTINUOUS
10
-52.302985
20
180.465875
30
0.0
11
-51.149510
21
181.185766
31
0.0
0
LINE
8
0
6
CONTINUOUS
10
-53.097225
20
181.738915
30
0.0
11
-52.540805
21
180.848415
31
0.0
0
LINE
8
0
6
CONTINUOUS
10
-53.652675
20
182.629185
30
0.0
11
-53.097225
21
181.738915
31
0.0
0
LINE
8
0
6
CONTINUOUS
10
-58.691765
20
192.450355
30
0.0
11
-58.929805
21
192.831905
31
0.0
0
LINE
8
0
6
CONTINUOUS
10
-58.136315
20
191.560075
30
0.0
11
-58.691765
21
192.450355
31
0.0
0
LINE
8
0
6
CONTINUOUS
10
-57.580075
20
190.668585
30
0.0
11
-58.136315
21
191.560075
31
0.0
0
LINE
8
0
6
CONTINUOUS
10
-57.342025
20
190.287035
30
0.0
11
-57.580075
21
190.668585
31
0.0
0
LINE
8
0
6
CONTINUOUS
10
-58.136315
20
191.560075
30
0.0
11
-57.580075
21
190.668585
31
0.0
0
LINE
8
0
6
CONTINUOUS
10
-63.883765
20
199.518985
30
0.0
11
-63.644765
21
199.137215
31
0.0
0
LINE
8
0
6
CONTINUOUS
10
-65.004445
20
201.093465
30
0.0
11
-64.766605
21
200.710925
31
0.0
0
LINE
8
0
6
CONTINUOUS
10
-64.766605
20
200.710925
30
0.0
11
-64.026899
21
201.172302
31
0.0
0
LINE
8
0
6
CONTINUOUS
10
-65.561095
20
201.982975
30
0.0
11
-65.004445
21
201.093465
31
0.0
0
LINE
8
0
6
CONTINUOUS
10
-66.116345
20
202.874245
30
0.0
11
-65.561095
21
201.982975
31
0.0
0
LINE
8
0
6
CONTINUOUS
10
-66.354155
20
203.256785
30
0.0
11
-66.116345
21
202.874245
31
0.0
0
LINE
8
0
6
CONTINUOUS
10
-65.789370
20
203.609158
30
0.0
11
-66.354155
21
203.256785
31
0.0
0
LINE
8
0
6
CONTINUOUS
10
-66.223715
20
202.605535
30
0.0
11
-65.985665
21
202.223985
31
0.0
0
LINE
8
0
6
CONTINUOUS
10
-66.780155
20
203.496035
30
0.0
11
-66.223715
21
202.605535
31
0.0
0
LINE
8
0
6
CONTINUOUS
10
-67.574405
20
204.769075
30
0.0
11
-67.335375
21
204.387305
31
0.0
0
LINE
8
0
6
CONTINUOUS
10
-66.177075
20
205.640885
30
0.0
11
-67.574405
21
204.769075
31
0.0
0
LINE
8
0
6
CONTINUOUS
10
-64.857425
20
217.959465
30
0.0
11
-65.133715
21
217.761705
31
0.0
0
LINE
8
0
6
CONTINUOUS
10
-66.987965
20
215.633795
30
0.0
11
-67.653085
21
213.375725
31
0.0
0
LINE
8
0
6
CONTINUOUS
10
-65.133715
20
217.761705
30
0.0
11
-66.987965
21
215.633795
31
0.0
0
LINE
8
0
6
CONTINUOUS
10
12.553025
20
106.546885
30
0.0
11
11.728965
21
111.237125
31
0.0
0
LINE
8
0
6
CONTINUOUS
10
17.092335
20
88.040255
30
0.0
11
15.914895
21
92.656235
31
0.0
0
LINE
8
0
6
CONTINUOUS
10
15.914895
20
92.656235
30
0.0
11
14.756195
21
97.276865
31
0.0
0
LINE
8
0
6
CONTINUOUS
10
5.017515
20
20.907575
30
0.0
11
10.374115
21
-0.983215
31
0.0
0
LINE
8
0
6
CONTINUOUS
10
0.481275
20
39.559465
30
0.0
11
5.017515
21
20.907575
31
0.0
0
LINE
8
0
6
CONTINUOUS
10
-3.863495
20
58.259485
30
0.0
11
0.481275
21
39.559465
31
0.0
0
LINE
8
0
6
CONTINUOUS
10
38.031135
20
5.882015
30
0.0
11
32.305905
21
27.559335
31
0.0
0
LINE
8
0
6
CONTINUOUS
10
32.305905
20
27.559335
30
0.0
11
27.743115
21
45.934775
31
0.0
0
LINE
8
0
6
CONTINUOUS
10
27.743115
20
45.934775
30
0.0
11
23.069825
21
64.511855
31
0.0
0
LINE
8
0
6
CONTINUOUS
10
23.069825
20
64.511855
30
0.0
11
19.439785
21
78.806555
31
0.0
0
LINE
8
0
6
CONTINUOUS
10
13.641955
20
101.908435
30
0.0
11
12.553025
21
106.546885
31
0.0
0
LINE
8
0
6
CONTINUOUS
10
19.439785
20
78.806555
30
0.0
11
18.266045
21
83.423405
31
0.0
0
LINE
8
0
6
CONTINUOUS
10
-16.523615
20
109.982705
30
0.0
11
-14.396205
21
106.158015
31
0.0
0
LINE
8
0
6
CONTINUOUS
10
-57.661845
20
222.438145
30
0.0
11
-58.098745
21
222.552965
31
0.0
0
LINE
8
0
6
CONTINUOUS
10
10.748265
20
121.019845
30
0.0
11
10.805695
21
121.672235
31
0.0
0
LINE
8
0
6
CONTINUOUS
10
10.805695
20
121.672235
30
0.0
11
10.653525
21
122.222695
31
0.0
0
LINE
8
0
6
CONTINUOUS
10
-46.967665
20
211.559245
30
0.0
11
-57.146785
21
221.914235
31
0.0
0
LINE
8
0
6
CONTINUOUS
10
10.320235
20
122.877065
30
0.0
11
5.268725
21
132.795205
31
0.0
0
LINE
8
0
6
CONTINUOUS
10
15.068955
20
-0.263455
30
0.0
11
17.394615
21
0.314695
31
0.0
0
LINE
8
0
6
CONTINUOUS
10
-64.689165
20
197.843645
30
0.0
11
-63.609700
21
194.760164
31
0.0
0
LINE
8
0
6
CONTINUOUS
10
-62.231566
20
190.823543
30
0.0
11
-60.928989
21
187.102745
31
0.0
0
LINE
8
0
6
CONTINUOUS
10
19.063655
20
0.729625
30
0.0
11
20.732675
21
1.144545
31
0.0
0
LINE
8
0
6
CONTINUOUS
10
38.155685
20
5.475945
30
0.0
11
38.031135
21
5.882015
31
0.0
0
LINE
8
0
6
CONTINUOUS
10
37.684005
20
5.358675
30
0.0
11
38.155685
21
5.475945
31
0.0
0
LINE
8
0
6
CONTINUOUS
10
10.374115
20
-0.983215
30
0.0
11
10.474605
21
-1.405585
31
0.0
0
LINE
8
0
6
CONTINUOUS
10
10.474605
20
-1.405585
30
0.0
11
10.778465
21
-1.330085
31
0.0
0
LINE
8
0
6
CONTINUOUS
10
20.732675
20
1.144545
30
0.0
11
24.314855
21
2.035085
31
0.0
0
LINE
8
0
6
CONTINUOUS
10
10.778465
20
-1.330085
30
0.0
11
11.691895
21
-1.102995
31
0.0
0
LINE
8
0
6
CONTINUOUS
10
-14.396205
20
106.158015
30
0.0
11
-13.498625
21
104.156825
31
0.0
0
LINE
8
0
6
CONTINUOUS
10
-67.555505
20
212.864405
30
0.0
11
-66.376609
21
206.686522
31
0.0
0
LINE
8
0
6
CONTINUOUS
10
-65.574050
20
202.480795
30
0.0
11
-64.888767
21
198.889639
31
0.0
0
LINE
8
0
6
CONTINUOUS
10
-22.582625
20
119.304145
30
0.0
11
-21.139751
21
117.084360
31
0.0
0
LINE
8
0
6
CONTINUOUS
10
-19.046888
20
113.864600
30
0.0
11
-16.807145
21
110.418875
31
0.0
0
LINE
8
0
6
CONTINUOUS
10
-41.032505
20
147.089335
30
0.0
11
-40.048193
21
145.591781
31
0.0
0
LINE
8
0
6
CONTINUOUS
10
-38.154641
20
142.710892
30
0.0
11
-34.925715
21
137.798335
31
0.0
0
LINE
8
0
6
CONTINUOUS
10
-44.730837
20
153.394861
30
0.0
11
-41.032505
21
147.089335
31
0.0
0
LINE
8
0
6
CONTINUOUS
10
-53.545623
20
169.817570
30
0.0
11
-51.635907
21
166.175200
31
0.0
0
LINE
8
0
6
CONTINUOUS
10
-51.419136
20
165.761756
30
0.0
11
-49.701144
21
162.485059
31
0.0
0
LINE
8
0
6
CONTINUOUS
10
-59.772975
20
183.800605
30
0.0
11
-59.597593
21
183.405615
31
0.0
0
LINE
8
0
6
CONTINUOUS
10
-58.368288
20
180.637008
30
0.0
11
-54.991378
21
173.031628
31
0.0
0
LINE
8
0
6
CONTINUOUS
10
-34.925715
20
137.798335
30
0.0
11
-33.464850
21
135.631479
31
0.0
0
LINE
8
0
6
CONTINUOUS
10
-31.786362
20
133.141829
30
0.0
11
-28.710815
21
128.579965
31
0.0
0
LINE
8
0
6
CONTINUOUS
10
-28.710815
20
128.579965
30
0.0
11
-27.506172
21
126.756579
31
0.0
0
LINE
8
0
6
CONTINUOUS
10
-25.350774
20
123.494101
30
0.0
11
-22.582625
21
119.304145
31
0.0
0
LINE
8
0
6
CONTINUOUS
10
-0.387355
20
143.710505
30
0.0
11
-6.259455
21
154.480915
31
0.0
0
LINE
8
0
6
CONTINUOUS
10
-6.259455
20
154.480915
30
0.0
11
-12.453945
21
165.142305
31
0.0
0
LINE
8
0
6
CONTINUOUS
10
-12.453945
20
165.142305
30
0.0
11
-18.986275
21
175.499675
31
0.0
0
LINE
8
0
6
CONTINUOUS
10
-18.986275
20
175.499675
30
0.0
11
-27.652605
21
187.996775
31
0.0
0
LINE
8
0
6
CONTINUOUS
10
-27.652605
20
187.996775
30
0.0
11
-36.960215
21
200.049995
31
0.0
0
LINE
8
0
6
CONTINUOUS
10
-36.960215
20
200.049995
30
0.0
11
-46.967665
21
211.559245
31
0.0
0
LINE
8
0
6
CONTINUOUS
10
5.268725
20
132.795205
30
0.0
11
-0.387355
21
143.710505
31
0.0
0
LINE
8
0
6
CONTINUOUS
10
17.394615
20
0.314695
30
0.0
11
19.063655
21
0.729625
31
0.0
0
LINE
8
0
6
CONTINUOUS
10
-58.098745
20
222.552965
30
0.0
11
-58.640635
21
222.408465
31
0.0
0
LINE
8
0
6
CONTINUOUS
10
18.266045
20
83.423405
30
0.0
11
17.092335
21
88.040255
31
0.0
0
LINE
8
0
6
CONTINUOUS
10
14.756195
20
97.276865
30
0.0
11
13.641955
21
101.908435
31
0.0
0
LINE
8
0
6
CONTINUOUS
10
-12.601045
20
102.155635
30
0.0
11
-12.583475
21
102.063315
31
0.0
0
LINE
8
0
6
CONTINUOUS
10
-6.609475
20
70.678355
30
0.0
11
-6.591975
21
70.586455
31
0.0
0
LINE
8
0
6
CONTINUOUS
10
-12.439635
20
101.307625
30
0.0
11
-12.421455
21
101.212175
31
0.0
0
LINE
8
0
6
CONTINUOUS
10
-6.770895
20
71.526395
30
0.0
11
-6.752795
21
71.431295
31
0.0
0
LINE
8
0
6
CONTINUOUS
10
-12.098585
20
99.515855
30
0.0
11
-12.076315
21
99.398905
31
0.0
0
LINE
8
0
6
CONTINUOUS
10
-12.076315
20
99.398905
30
0.0
11
-11.751855
21
98.919925
31
0.0
0
LINE
8
0
6
CONTINUOUS
10
-7.114775
20
73.332995
30
0.0
11
-7.092595
21
73.216495
31
0.0
0
LINE
8
0
6
CONTINUOUS
10
-6.608815
20
73.992335
30
0.0
11
-7.114775
21
73.332995
31
0.0
0
LINE
8
0
6
CONTINUOUS
10
-11.751855
20
98.919925
30
0.0
11
-11.340455
21
98.432405
31
0.0
0
LINE
8
0
6
CONTINUOUS
10
-6.176105
20
75.333125
30
0.0
11
-6.608815
21
73.992335
31
0.0
0
LINE
8
0
6
CONTINUOUS
10
-5.837645
20
77.333095
30
0.0
11
-6.176105
21
75.333125
31
0.0
0
LINE
8
0
6
CONTINUOUS
10
-11.340455
20
98.432405
30
0.0
11
-10.747195
21
97.569675
31
0.0
0
LINE
8
0
6
CONTINUOUS
10
-5.819915
20
80.263385
30
0.0
11
-5.837645
21
77.333095
31
0.0
0
LINE
8
0
6
CONTINUOUS
10
-10.747195
20
97.569675
30
0.0
11
-9.840785
21
95.649135
31
0.0
0
LINE
8
0
6
CONTINUOUS
10
-8.157375
20
90.845705
30
0.0
11
-6.774535
21
85.500965
31
0.0
0
LINE
8
0
6
CONTINUOUS
10
-8.958575
20
93.349245
30
0.0
11
-8.157375
21
90.845705
31
0.0
0
LINE
8
0
6
CONTINUOUS
10
-6.774535
20
85.500965
30
0.0
11
-5.819915
21
80.263385
31
0.0
0
LINE
8
0
6
CONTINUOUS
10
-9.840785
20
95.649135
30
0.0
11
-8.958575
21
93.349245
31
0.0
0
LINE
8
0
6
CONTINUOUS
10
-12.583475
20
102.063315
30
0.0
11
-12.564985
21
101.966195
31
0.0
0
LINE
8
0
6
CONTINUOUS
10
-12.564985
20
101.966195
30
0.0
11
-12.202895
21
101.435875
31
0.0
0
LINE
8
0
6
CONTINUOUS
10
-6.627905
20
70.775205
30
0.0
11
-6.609475
21
70.678355
31
0.0
0
LINE
8
0
6
CONTINUOUS
10
-12.202895
20
101.435875
30
0.0
11
-11.655095
21
100.845125
31
0.0
0
LINE
8
0
6
CONTINUOUS
10
-5.237235
20
73.295575
30
0.0
11
-5.970885
21
71.523535
31
0.0
0
LINE
8
0
6
CONTINUOUS
10
-4.644095
20
76.032505
30
0.0
11
-5.237235
21
73.295575
31
0.0
0
LINE
8
0
6
CONTINUOUS
10
-11.655095
20
100.845125
30
0.0
11
-10.797045
21
99.624885
31
0.0
0
LINE
8
0
6
CONTINUOUS
10
-4.613505
20
79.798455
30
0.0
11
-4.644095
21
76.032505
31
0.0
0
LINE
8
0
6
CONTINUOUS
10
-10.797045
20
99.624885
30
0.0
11
-9.570885
21
97.303485
31
0.0
0
LINE
8
0
6
CONTINUOUS
10
-7.259615
20
91.395895
30
0.0
11
-5.676365
21
85.630365
31
0.0
0
LINE
8
0
6
CONTINUOUS
10
-8.355585
20
94.487665
30
0.0
11
-7.259615
21
91.395895
31
0.0
0
LINE
8
0
6
CONTINUOUS
10
-5.676365
20
85.630365
30
0.0
11
-4.613505
21
79.798455
31
0.0
0
LINE
8
0
6
CONTINUOUS
10
-9.570885
20
97.303485
30
0.0
11
-8.355585
21
94.487665
31
0.0
0
LINE
8
0
6
CONTINUOUS
10
-12.454995
20
101.388265
30
0.0
11
-12.439635
21
101.307625
31
0.0
0
LINE
8
0
6
CONTINUOUS
10
-6.752795
20
71.431295
30
0.0
11
-6.737495
21
71.350925
31
0.0
0
LINE
8
0
6
CONTINUOUS
10
-12.421455
20
101.212175
30
0.0
11
-12.098585
21
99.515855
31
0.0
0
LINE
8
0
6
CONTINUOUS
10
-7.092595
20
73.216495
30
0.0
11
-6.770895
21
71.526395
31
0.0
0
LINE
8
0
6
CONTINUOUS
10
-6.336105
20
71.140235
30
0.0
11
-6.627905
21
70.775205
31
0.0
0
LINE
8
0
6
CONTINUOUS
10
-12.163385
20
101.754405
30
0.0
11
-12.454995
21
101.388265
31
0.0
0
LINE
8
0
6
CONTINUOUS
10
-6.737495
20
71.350925
30
0.0
11
-6.336105
21
71.140235
31
0.0
0
LINE
8
0
6
CONTINUOUS
10
-58.916935
20
222.210715
30
0.0
11
-64.857425
21
217.959465
31
0.0
0
LINE
8
0
6
CONTINUOUS
10
11.145155
20
115.964915
30
0.0
11
10.779335
21
120.624025
31
0.0
0
LINE
8
0
6
CONTINUOUS
10
-58.640635
20
222.408465
30
0.0
11
-58.916935
21
222.210715
31
0.0
0
LINE
8
0
6
CONTINUOUS
10
10.779335
20
120.624025
30
0.0
11
10.748265
21
121.019845
31
0.0
0
LINE
8
0
6
CONTINUOUS
10
-57.146785
20
221.914235
30
0.0
11
-57.661845
21
222.438145
31
0.0
0
LINE
8
0
6
CONTINUOUS
10
10.653525
20
122.222695
30
0.0
11
10.320235
21
122.877065
31
0.0
0
LINE
8
0
6
CONTINUOUS
10
-67.653085
20
213.375725
30
0.0
11
-67.555505
21
212.864405
31
0.0
0
LINE
8
0
6
CONTINUOUS
10
-16.807145
20
110.418875
30
0.0
11
-16.523615
21
109.982705
31
0.0
0
LINE
8
0
6
CONTINUOUS
10
-13.498625
20
104.156825
30
0.0
11
-12.601045
21
102.155635
31
0.0
0
LINE
8
0
6
CONTINUOUS
10
11.728965
20
111.237125
30
0.0
11
11.145155
21
115.964915
31
0.0
0
LINE
8
0
6
CONTINUOUS
10
-6.591975
20
70.586455
30
0.0
11
-3.863495
21
58.259485
31
0.0
0
LINE
8
0
6
CONTINUOUS
10
-8.529965
20
73.041865
30
0.0
11
-8.246925
21
73.100075
31
0.0
0
LINE
8
0
6
CONTINUOUS
10
-13.208475
20
99.166055
30
0.0
11
-13.491525
21
99.107765
31
0.0
0
LINE
8
0
6
CONTINUOUS
10
-11.011475
20
86.078665
30
0.0
11
-10.052035
21
81.038155
31
0.0
0
LINE
8
0
6
CONTINUOUS
10
-11.970915
20
91.119175
30
0.0
11
-11.011475
21
86.078665
31
0.0
0
LINE
8
0
6
CONTINUOUS
10
-9.092585
20
75.997645
30
0.0
11
-8.624935
21
73.540785
31
0.0
0
LINE
8
0
6
CONTINUOUS
10
-13.396255
20
98.607355
30
0.0
11
-12.930355
21
96.159685
31
0.0
0
LINE
8
0
6
CONTINUOUS
10
-10.052035
20
81.038155
30
0.0
11
-9.092585
21
75.997645
31
0.0
0
LINE
8
0
6
CONTINUOUS
10
-12.930355
20
96.159685
30
0.0
11
-11.970915
21
91.119175
31
0.0
0
LINE
8
0
6
CONTINUOUS
10
-13.491525
20
99.107765
30
0.0
11
-13.396255
21
98.607355
31
0.0
0
LINE
8
0
6
CONTINUOUS
10
-8.624935
20
73.540785
30
0.0
11
-8.529965
21
73.041865
31
0.0
0
LINE
8
0
6
CONTINUOUS
10
-8.246925
20
73.100075
30
0.0
11
-7.264305
21
73.302255
31
0.0
0
LINE
8
0
6
CONTINUOUS
10
-12.225855
20
99.368155
30
0.0
11
-13.208475
21
99.166055
31
0.0
0
LINE
8
0
6
CONTINUOUS
10
-7.264305
20
73.302255
30
0.0
11
-7.114775
21
73.332995
31
0.0
0
LINE
8
0
6
CONTINUOUS
10
-10.747195
20
97.569675
30
0.0
11
-11.340455
21
98.432405
31
0.0
0
LINE
8
0
6
CONTINUOUS
10
-8.157375
20
90.845705
30
0.0
11
-8.958575
21
93.349245
31
0.0
0
LINE
8
0
6
CONTINUOUS
10
-12.076315
20
99.398905
30
0.0
11
-12.225855
21
99.368155
31
0.0
0
LINE
8
0
6
CONTINUOUS
10
-11.751855
20
98.919925
30
0.0
11
-12.076315
21
99.398905
31
0.0
0
LINE
8
0
6
CONTINUOUS
10
-6.176105
20
75.333125
30
0.0
11
-5.837645
21
77.333095
31
0.0
0
LINE
8
0
6
CONTINUOUS
10
-6.774535
20
85.500965
30
0.0
11
-8.157375
21
90.845705
31
0.0
0
LINE
8
0
6
CONTINUOUS
10
-9.840785
20
95.649135
30
0.0
11
-10.747195
21
97.569675
31
0.0
0
LINE
8
0
6
CONTINUOUS
10
-6.608815
20
73.992335
30
0.0
11
-6.176105
21
75.333125
31
0.0
0
LINE
8
0
6
CONTINUOUS
10
-8.958575
20
93.349245
30
0.0
11
-9.840785
21
95.649135
31
0.0
0
LINE
8
0
6
CONTINUOUS
10
-11.340455
20
98.432405
30
0.0
11
-11.751855
21
98.919925
31
0.0
0
LINE
8
0
6
CONTINUOUS
10
-5.837645
20
77.333095
30
0.0
11
-5.819915
21
80.263385
31
0.0
0
LINE
8
0
6
CONTINUOUS
10
-5.819915
20
80.263385
30
0.0
11
-6.774535
21
85.500965
31
0.0
0
LINE
8
0
6
CONTINUOUS
10
67.058255
20
-48.144015
30
0.0
11
67.906225
21
-47.958355
31
0.0
0
LINE
8
0
6
CONTINUOUS
10
20.658745
20
-8.877775
30
0.0
11
19.223255
21
-9.214765
31
0.0
0
LINE
8
0
6
CONTINUOUS
10
19.223255
20
-9.214765
30
0.0
11
18.089635
21
-9.481715
31
0.0
0
LINE
8
0
6
CONTINUOUS
10
27.769605
20
-7.226125
30
0.0
11
25.948625
21
-7.647955
31
0.0
0
LINE
8
0
6
CONTINUOUS
10
24.127575
20
-8.069975
30
0.0
11
22.341765
21
-8.485125
31
0.0
0
LINE
8
0
6
CONTINUOUS
10
25.948625
20
-7.647955
30
0.0
11
24.127575
21
-8.069975
31
0.0
0
LINE
8
0
6
CONTINUOUS
10
32.486075
20
-55.698865
30
0.0
11
32.682515
21
-55.655645
31
0.0
0
LINE
8
0
6
CONTINUOUS
10
32.372285
20
-55.723395
30
0.0
11
32.486075
21
-55.698865
31
0.0
0
LINE
8
0
6
CONTINUOUS
10
22.341765
20
-8.485125
30
0.0
11
20.658745
21
-8.877775
31
0.0
0
LINE
8
0
6
CONTINUOUS
10
67.901075
20
2.071215
30
0.0
11
67.055415
21
1.875285
31
0.0
0
LINE
8
0
6
CONTINUOUS
10
67.913815
20
1.075235
30
0.0
11
67.913955
21
2.015595
31
0.0
0
LINE
8
0
6
CONTINUOUS
10
29.590345
20
-6.804295
30
0.0
11
27.769605
21
-7.226125
31
0.0
0
LINE
8
0
6
CONTINUOUS
10
67.055415
20
1.875285
30
0.0
11
29.590345
21
-6.804295
31
0.0
0
LINE
8
0
6
CONTINUOUS
10
51.988265
20
-51.443265
30
0.0
11
67.058255
21
-48.144015
31
0.0
0
LINE
8
0
6
CONTINUOUS
10
36.970545
20
-54.713835
30
0.0
11
38.595765
21
-54.357505
31
0.0
0
LINE
8
0
6
CONTINUOUS
10
38.595765
20
-54.357505
30
0.0
11
40.252975
21
-53.994655
31
0.0
0
LINE
8
0
6
CONTINUOUS
10
35.383195
20
-55.062085
30
0.0
11
36.970545
21
-54.713835
31
0.0
0
LINE
8
0
6
CONTINUOUS
10
43.504795
20
-53.283745
30
0.0
11
45.930235
21
-52.754495
31
0.0
0
LINE
8
0
6
CONTINUOUS
10
51.447515
20
-51.561635
30
0.0
11
51.988265
21
-51.443265
31
0.0
0
LINE
8
0
6
CONTINUOUS
10
51.005685
20
-51.654185
30
0.0
11
51.447515
21
-51.561635
31
0.0
0
LINE
8
0
6
CONTINUOUS
10
45.930235
20
-52.754495
30
0.0
11
48.056175
21
-52.291615
31
0.0
0
LINE
8
0
6
CONTINUOUS
10
31.522835
20
-55.906575
30
0.0
11
32.372285
21
-55.723395
31
0.0
0
LINE
8
0
6
CONTINUOUS
10
41.893045
20
-53.635995
30
0.0
11
43.504795
21
-53.283745
31
0.0
0
LINE
8
0
6
CONTINUOUS
10
33.882095
20
-55.391825
30
0.0
11
35.383195
21
-55.062085
31
0.0
0
LINE
8
0
6
CONTINUOUS
10
49.917205
20
-51.888065
30
0.0
11
51.005685
21
-51.654185
31
0.0
0
LINE
8
0
6
CONTINUOUS
10
40.252975
20
-53.994655
30
0.0
11
41.893045
21
-53.635995
31
0.0
0
LINE
8
0
6
CONTINUOUS
10
48.056175
20
-52.291615
30
0.0
11
49.917205
21
-51.888065
31
0.0
0
LINE
8
0
6
CONTINUOUS
10
17.904005
20
-9.525435
30
0.0
11
18.157905
21
-10.398725
31
0.0
0
LINE
8
0
6
CONTINUOUS
10
18.089635
20
-9.481715
30
0.0
11
17.904005
21
-9.525435
31
0.0
0
LINE
8
0
6
CONTINUOUS
10
18.157905
20
-10.398725
30
0.0
11
31.099835
21
-54.911475
31
0.0
0
LINE
8
0
6
CONTINUOUS
10
31.099835
20
-54.911475
30
0.0
11
31.397035
21
-55.933745
31
0.0
0
LINE
8
0
6
CONTINUOUS
10
32.682515
20
-55.655645
30
0.0
11
33.882095
21
-55.391825
31
0.0
0
LINE
8
0
6
CONTINUOUS
10
-50.667623
20
166.159867
30
0.0
11
-50.366558
21
165.927115
31
0.0
0
LINE
8
0
6
CONTINUOUS
10
-50.765960
20
166.205332
30
0.0
11
-50.667623
21
166.159867
31
0.0
0
LINE
8
0
6
CONTINUOUS
10
-43.099972
20
153.753132
30
0.0
11
-43.946634
21
155.216923
31
0.0
0
LINE
8
0
6
CONTINUOUS
10
-43.946634
20
155.216923
30
0.0
11
-44.429736
21
156.006444
31
0.0
0
LINE
8
0
6
CONTINUOUS
10
-42.203452
20
163.968725
30
0.0
11
-44.056004
21
167.069080
31
0.0
0
LINE
8
0
6
CONTINUOUS
10
-41.545900
20
162.870658
30
0.0
11
-42.203452
21
163.968725
31
0.0
0
LINE
8
0
6
CONTINUOUS
10
-44.056004
20
167.069080
30
0.0
11
-45.329035
21
169.249991
31
0.0
0
LINE
8
0
6
CONTINUOUS
10
-45.329035
20
169.249991
30
0.0
11
-46.000227
21
170.324526
31
0.0
0
LINE
8
0
6
CONTINUOUS
10
-28.767762
20
141.474034
30
0.0
11
-29.506807
21
142.589375
31
0.0
0
LINE
8
0
6
CONTINUOUS
10
-29.506807
20
142.589375
30
0.0
11
-31.349507
21
145.890284
31
0.0
0
LINE
8
0
6
CONTINUOUS
10
-31.349507
20
145.890284
30
0.0
11
-31.674289
21
146.475378
31
0.0
0
LINE
8
0
6
CONTINUOUS
10
-33.060159
20
148.704619
30
0.0
11
-33.787547
21
149.879488
31
0.0
0
LINE
8
0
6
CONTINUOUS
10
-31.674289
20
146.475378
30
0.0
11
-33.060159
21
148.704619
31
0.0
0
LINE
8
0
6
CONTINUOUS
10
-47.568362
20
172.881625
30
0.0
11
-49.989694
21
177.148247
31
0.0
0
LINE
8
0
6
CONTINUOUS
10
-49.989694
20
177.148247
30
0.0
11
-50.205712
21
177.490730
31
0.0
0
LINE
8
0
6
CONTINUOUS
10
-51.980633
20
180.461046
30
0.0
11
-52.070642
21
180.610696
31
0.0
0
LINE
8
0
6
CONTINUOUS
10
-53.617571
20
183.182628
30
0.0
11
-53.940942
21
183.720267
31
0.0
0
LINE
8
0
6
CONTINUOUS
10
-50.205712
20
177.490730
30
0.0
11
-51.980633
21
180.461046
31
0.0
0
LINE
8
0
6
CONTINUOUS
10
-54.472451
20
184.709006
30
0.0
11
-55.438853
21
186.149112
31
0.0
0
LINE
8
0
6
CONTINUOUS
10
-53.940942
20
183.720267
30
0.0
11
-54.472451
21
184.709006
31
0.0
0
LINE
8
0
6
CONTINUOUS
10
-57.508212
20
192.886987
30
0.0
11
-57.623218
21
193.117035
31
0.0
0
LINE
8
0
6
CONTINUOUS
10
-36.106493
20
153.823433
30
0.0
11
-37.660558
21
156.369240
31
0.0
0
LINE
8
0
6
CONTINUOUS
10
-35.351622
20
152.475810
30
0.0
11
-36.106493
21
153.823433
31
0.0
0
LINE
8
0
6
CONTINUOUS
10
-37.686054
20
156.411276
30
0.0
11
-40.025386
21
160.283023
31
0.0
0
LINE
8
0
6
CONTINUOUS
10
-37.660558
20
156.369240
30
0.0
11
-37.686054
21
156.411276
31
0.0
0
LINE
8
0
6
CONTINUOUS
10
-26.259759
20
126.560219
30
0.0
11
-26.484870
21
126.863528
31
0.0
0
LINE
8
0
6
CONTINUOUS
10
-25.381335
20
129.731774
30
0.0
11
-26.109003
21
130.516114
31
0.0
0
LINE
8
0
6
CONTINUOUS
10
-52.786508
20
173.099351
30
0.0
11
-51.397403
21
171.166306
31
0.0
0
LINE
8
0
6
CONTINUOUS
10
-51.397403
20
171.166306
30
0.0
11
-51.189096
21
170.874844
31
0.0
0
LINE
8
0
6
CONTINUOUS
10
-52.871232
20
173.182811
30
0.0
11
-52.786508
21
173.099351
31
0.0
0
LINE
8
0
6
CONTINUOUS
10
-53.654626
20
171.518083
30
0.0
11
-54.117460
21
172.466352
31
0.0
0
LINE
8
0
6
CONTINUOUS
10
-44.675750
20
160.571210
30
0.0
11
-46.264834
21
163.317863
31
0.0
0
LINE
8
0
6
CONTINUOUS
10
-44.134689
20
159.638554
30
0.0
11
-44.675750
21
160.571210
31
0.0
0
LINE
8
0
6
CONTINUOUS
10
-46.264834
20
163.317863
30
0.0
11
-46.629613
21
163.902652
31
0.0
0
LINE
8
0
6
CONTINUOUS
10
-48.217140
20
166.447665
30
0.0
11
-48.520860
21
166.934567
31
0.0
0
LINE
8
0
6
CONTINUOUS
10
-51.189096
20
170.874844
30
0.0
11
-50.759089
21
170.335314
31
0.0
0
LINE
8
0
6
CONTINUOUS
10
-50.888172
20
166.297628
30
0.0
11
-50.765960
21
166.205332
31
0.0
0
LINE
8
0
6
CONTINUOUS
10
-42.572082
20
156.925814
30
0.0
11
-42.829701
21
157.360427
31
0.0
0
LINE
8
0
6
CONTINUOUS
10
-42.055439
20
156.056723
30
0.0
11
-42.572082
21
156.925814
31
0.0
0
LINE
8
0
6
CONTINUOUS
10
-41.318796
20
154.716967
30
0.0
11
-42.055439
21
156.056723
31
0.0
0
LINE
8
0
6
CONTINUOUS
10
-42.829701
20
157.360427
30
0.0
11
-43.579341
21
158.590169
31
0.0
0
LINE
8
0
6
CONTINUOUS
10
-38.533351
20
144.768324
30
0.0
11
-39.146537
21
145.623432
31
0.0
0
LINE
8
0
6
CONTINUOUS
10
-38.182802
20
144.178815
30
0.0
11
-38.533351
21
144.768324
31
0.0
0
LINE
8
0
6
CONTINUOUS
10
-19.222315
20
120.176145
30
0.0
11
-18.432204
21
119.431799
31
0.0
0
LINE
8
0
6
CONTINUOUS
10
-17.885508
20
118.536050
30
0.0
11
-18.432204
21
119.431799
31
0.0
0
LINE
8
0
6
CONTINUOUS
10
-19.941079
20
116.972797
30
0.0
11
-20.109247
21
117.197459
31
0.0
0
LINE
8
0
6
CONTINUOUS
10
-17.695395
20
124.030649
30
0.0
11
-18.131816
21
124.733235
31
0.0
0
LINE
8
0
6
CONTINUOUS
10
-28.046213
20
137.597369
30
0.0
11
-27.804932
21
137.356837
31
0.0
0
LINE
8
0
6
CONTINUOUS
10
-62.783769
20
197.444447
30
0.0
11
-62.237123
21
196.820989
31
0.0
0
LINE
8
0
6
CONTINUOUS
10
-64.263074
20
202.793084
30
0.0
11
-64.546779
21
203.853822
31
0.0
0
LINE
8
0
6
CONTINUOUS
10
-45.780585
20
173.058235
30
0.0
11
-45.994823
21
173.333437
31
0.0
0
LINE
8
0
6
CONTINUOUS
10
-63.609700
20
194.760164
30
0.0
11
-63.462370
21
194.375342
31
0.0
0
LINE
8
0
6
CONTINUOUS
10
-63.100421
20
193.363488
30
0.0
11
-63.462370
21
194.375342
31
0.0
0
LINE
8
0
6
CONTINUOUS
10
-60.105742
20
194.238253
30
0.0
11
-59.222386
21
192.767585
31
0.0
0
LINE
8
0
6
CONTINUOUS
10
-18.944715
20
125.463369
30
0.0
11
-18.375364
21
124.955529
31
0.0
0
LINE
8
0
6
CONTINUOUS
10
-39.255552
20
154.856377
30
0.0
11
-40.316923
21
156.610106
31
0.0
0
LINE
8
0
6
CONTINUOUS
10
-40.419022
20
156.781503
30
0.0
11
-41.795303
21
159.097859
31
0.0
0
LINE
8
0
6
CONTINUOUS
10
-40.316923
20
156.610106
30
0.0
11
-40.419022
21
156.781503
31
0.0
0
LINE
8
0
6
CONTINUOUS
10
-43.510733
20
162.077119
30
0.0
11
-45.851806
21
166.070853
31
0.0
0
LINE
8
0
6
CONTINUOUS
10
-45.851806
20
166.070853
30
0.0
11
-46.700813
21
167.426845
31
0.0
0
LINE
8
0
6
CONTINUOUS
10
-49.310371
20
171.719731
30
0.0
11
-49.408842
21
171.881662
31
0.0
0
LINE
8
0
6
CONTINUOUS
10
-50.967787
20
174.445286
30
0.0
11
-52.171715
21
176.425100
31
0.0
0
LINE
8
0
6
CONTINUOUS
10
-34.235348
20
145.826399
30
0.0
11
-36.212020
21
149.475688
31
0.0
0
LINE
8
0
6
CONTINUOUS
10
-33.591543
20
144.640910
30
0.0
11
-34.235348
21
145.826399
31
0.0
0
LINE
8
0
6
CONTINUOUS
10
-36.212020
20
149.475688
30
0.0
11
-36.700279
21
150.289324
31
0.0
0
LINE
8
0
6
CONTINUOUS
10
-58.456567
20
185.052295
30
0.0
11
-58.282054
21
184.929020
31
0.0
0
LINE
8
0
6
CONTINUOUS
10
-61.584867
20
196.182576
30
0.0
11
-61.488606
21
196.048156
31
0.0
0
LINE
8
0
6
CONTINUOUS
10
-62.237123
20
196.820989
30
0.0
11
-62.098467
21
196.689669
31
0.0
0
LINE
8
0
6
CONTINUOUS
10
-62.098467
20
196.689669
30
0.0
11
-61.584867
21
196.182576
31
0.0
0
LINE
8
0
6
CONTINUOUS
10
-21.924606
20
133.286143
30
0.0
11
-21.505970
21
132.913491
31
0.0
0
ENDSEC
0
EOF
