999
Erzeugt mit innoplus bad 
0
SECTION
2
HEADER
9
$ACADVER
1
AC1009
9
$DWGCODEPAGE
3
ISO8859-1
0
ENDSEC
0
SECTION
2
TABLES
0
TABLE
2
LAYER
70
1
0
LAYER
2
0
70
0
62
7
6
CONTINUOUS
0
ENDTAB
0
ENDSEC
0
SECTION
2
ENTITIES
0
LINE
8
0
6
CONTINUOUS
10
35.000000
20
-78.000000
30
0.0
11
35.000000
21
-92.736400
31
0.0
0
LINE
8
0
6
CONTINUOUS
10
17.360000
20
247.000000
30
0.0
11
24.780000
21
247.000000
31
0.0
0
LINE
8
0
6
CONTINUOUS
10
24.780000
20
247.000000
30
0.0
11
17.360000
21
247.000000
31
0.0
0
LINE
8
0
6
CONTINUOUS
10
35.000000
20
-110.638000
30
0.0
11
35.000000
21
-110.920800
31
0.0
0
LINE
8
0
6
CONTINUOUS
10
35.000000
20
-107.992100
30
0.0
11
35.000000
21
-110.638000
31
0.0
0
LINE
8
0
6
CONTINUOUS
10
0.000000
20
-152.285900
30
0.0
11
8.960000
21
-150.845900
31
0.0
0
LINE
8
0
6
CONTINUOUS
10
8.960000
20
-150.845900
30
0.0
11
17.360000
21
-147.005900
31
0.0
0
LINE
8
0
6
CONTINUOUS
10
17.360000
20
-147.005900
30
0.0
11
24.780000
21
-140.605900
31
0.0
0
LINE
8
0
6
CONTINUOUS
10
24.780000
20
-140.605900
30
0.0
11
30.380000
21
-132.125860
31
0.0
0
LINE
8
0
6
CONTINUOUS
10
30.380000
20
-132.125860
30
0.0
11
33.740000
21
-122.525860
31
0.0
0
LINE
8
0
6
CONTINUOUS
10
33.740000
20
-122.525860
30
0.0
11
35.000000
21
-112.285900
31
0.0
0
LINE
8
0
6
CONTINUOUS
10
35.000000
20
-102.413700
30
0.0
11
35.000000
21
-107.992100
31
0.0
0
LINE
8
0
6
CONTINUOUS
10
35.000000
20
-92.736400
30
0.0
11
35.000000
21
-102.413700
31
0.0
0
LINE
8
0
6
CONTINUOUS
10
35.000000
20
247.000000
30
0.0
11
35.000000
21
-78.000000
31
0.0
0
LINE
8
0
6
CONTINUOUS
10
35.000000
20
-92.736400
30
0.0
11
35.000000
21
-78.000000
31
0.0
0
LINE
8
0
6
CONTINUOUS
10
35.000000
20
-78.000000
30
0.0
11
35.000000
21
-93.350400
31
0.0
0
LINE
8
0
6
CONTINUOUS
10
35.000000
20
-102.413700
30
0.0
11
35.000000
21
-92.736400
31
0.0
0
LINE
8
0
6
CONTINUOUS
10
35.000000
20
-93.350400
30
0.0
11
35.000000
21
-103.933300
31
0.0
0
LINE
8
0
6
CONTINUOUS
10
35.000000
20
-107.992100
30
0.0
11
35.000000
21
-102.413700
31
0.0
0
LINE
8
0
6
CONTINUOUS
10
35.000000
20
-103.933300
30
0.0
11
35.000000
21
-109.224700
31
0.0
0
LINE
8
0
6
CONTINUOUS
10
35.000000
20
-110.638000
30
0.0
11
35.000000
21
-107.992100
31
0.0
0
LINE
8
0
6
CONTINUOUS
10
35.000000
20
-109.224700
30
0.0
11
35.000000
21
-112.055100
31
0.0
0
LINE
8
0
6
CONTINUOUS
10
35.000000
20
-110.920800
30
0.0
11
35.000000
21
-110.638000
31
0.0
0
LINE
8
0
6
CONTINUOUS
10
35.000000
20
-112.285900
30
0.0
11
35.000000
21
-110.920800
31
0.0
0
LINE
8
0
6
CONTINUOUS
10
35.000000
20
-112.055100
30
0.0
11
35.000000
21
-112.285900
31
0.0
0
LINE
8
0
6
CONTINUOUS
10
-35.000000
20
-109.224700
30
0.0
11
-35.000000
21
-112.055100
31
0.0
0
LINE
8
0
6
CONTINUOUS
10
-35.000000
20
-103.933300
30
0.0
11
-35.000000
21
-109.224700
31
0.0
0
LINE
8
0
6
CONTINUOUS
10
-35.000000
20
-93.350400
30
0.0
11
-35.000000
21
-103.933300
31
0.0
0
LINE
8
0
6
CONTINUOUS
10
-8.960000
20
-150.845900
30
0.0
11
0.000000
21
-152.285900
31
0.0
0
LINE
8
0
6
CONTINUOUS
10
-17.360000
20
-147.005900
30
0.0
11
-8.960000
21
-150.845900
31
0.0
0
LINE
8
0
6
CONTINUOUS
10
-24.780000
20
-140.605900
30
0.0
11
-17.360000
21
-147.005900
31
0.0
0
LINE
8
0
6
CONTINUOUS
10
-30.380000
20
-132.125860
30
0.0
11
-24.780000
21
-140.605900
31
0.0
0
LINE
8
0
6
CONTINUOUS
10
-33.740000
20
-122.525860
30
0.0
11
-30.380000
21
-132.125860
31
0.0
0
LINE
8
0
6
CONTINUOUS
10
-35.000000
20
-112.285900
30
0.0
11
-33.740000
21
-122.525860
31
0.0
0
LINE
8
0
6
CONTINUOUS
10
-35.000000
20
-78.000000
30
0.0
11
-35.000000
21
-93.350400
31
0.0
0
LINE
8
0
6
CONTINUOUS
10
-35.000000
20
247.000000
30
0.0
11
-35.000000
21
-78.000000
31
0.0
0
LINE
8
0
6
CONTINUOUS
10
-19.824000
20
-147.824000
30
0.0
11
-24.304000
21
-141.888000
31
0.0
0
LINE
8
0
6
CONTINUOUS
10
-13.888000
20
-152.304000
30
0.0
11
-19.824000
21
-147.824000
31
0.0
0
LINE
8
0
6
CONTINUOUS
10
-7.168000
20
-154.992000
30
0.0
11
-13.888000
21
-152.304000
31
0.0
0
LINE
8
0
6
CONTINUOUS
10
0.000000
20
-156.000000
30
0.0
11
-7.168000
21
-154.992000
31
0.0
0
LINE
8
0
6
CONTINUOUS
10
-24.304000
20
-141.888000
30
0.0
11
-19.824000
21
-147.824000
31
0.0
0
LINE
8
0
6
CONTINUOUS
10
-19.824000
20
-147.824000
30
0.0
11
-13.888000
21
-152.304000
31
0.0
0
LINE
8
0
6
CONTINUOUS
10
-13.888000
20
-152.304000
30
0.0
11
-7.168000
21
-154.992000
31
0.0
0
LINE
8
0
6
CONTINUOUS
10
-7.168000
20
-154.992000
30
0.0
11
0.000000
21
-156.000000
31
0.0
0
LINE
8
0
6
CONTINUOUS
10
28.000000
20
-128.000000
30
0.0
11
26.992000
21
-135.168000
31
0.0
0
LINE
8
0
6
CONTINUOUS
10
24.873435
20
-140.464411
30
0.0
11
24.304000
21
-141.888000
31
0.0
0
LINE
8
0
6
CONTINUOUS
10
24.304000
20
-141.888000
30
0.0
11
19.824000
21
-147.824000
31
0.0
0
LINE
8
0
6
CONTINUOUS
10
19.824000
20
-147.824000
30
0.0
11
13.888000
21
-152.304000
31
0.0
0
LINE
8
0
6
CONTINUOUS
10
13.888000
20
-152.304000
30
0.0
11
7.168000
21
-154.992000
31
0.0
0
LINE
8
0
6
CONTINUOUS
10
7.168000
20
-154.992000
30
0.0
11
0.000000
21
-156.000000
31
0.0
0
LINE
8
0
6
CONTINUOUS
10
26.992000
20
-135.168000
30
0.0
11
28.000000
21
-128.000000
31
0.0
0
LINE
8
0
6
CONTINUOUS
10
24.304000
20
-141.888000
30
0.0
11
24.873435
21
-140.464411
31
0.0
0
LINE
8
0
6
CONTINUOUS
10
19.824000
20
-147.824000
30
0.0
11
24.304000
21
-141.888000
31
0.0
0
LINE
8
0
6
CONTINUOUS
10
13.888000
20
-152.304000
30
0.0
11
19.824000
21
-147.824000
31
0.0
0
LINE
8
0
6
CONTINUOUS
10
7.168000
20
-154.992000
30
0.0
11
13.888000
21
-152.304000
31
0.0
0
LINE
8
0
6
CONTINUOUS
10
0.000000
20
-156.000000
30
0.0
11
7.168000
21
-154.992000
31
0.0
0
LINE
8
0
6
CONTINUOUS
10
-41.019000
20
247.300000
30
0.0
11
-40.183000
21
247.300000
31
0.0
0
LINE
8
0
6
CONTINUOUS
10
-41.765000
20
247.300000
30
0.0
11
-41.019000
21
247.300000
31
0.0
0
LINE
8
0
6
CONTINUOUS
10
-42.342000
20
247.300000
30
0.0
11
-41.765000
21
247.300000
31
0.0
0
LINE
8
0
6
CONTINUOUS
10
-42.899000
20
247.300000
30
0.0
11
-42.342000
21
247.300000
31
0.0
0
LINE
8
0
6
CONTINUOUS
10
-43.287000
20
247.300000
30
0.0
11
-42.899000
21
247.300000
31
0.0
0
LINE
8
0
6
CONTINUOUS
10
-43.652000
20
247.300000
30
0.0
11
-43.287000
21
247.300000
31
0.0
0
LINE
8
0
6
CONTINUOUS
10
-45.540000
20
247.300000
30
0.0
11
-45.142000
21
247.300000
31
0.0
0
LINE
8
0
6
CONTINUOUS
10
-45.740000
20
247.300000
30
0.0
11
-45.540000
21
247.300000
31
0.0
0
LINE
8
0
6
CONTINUOUS
10
-45.822000
20
247.300000
30
0.0
11
-45.740000
21
247.300000
31
0.0
0
LINE
8
0
6
CONTINUOUS
10
-40.183000
20
247.300000
30
0.0
11
-41.019000
21
247.300000
31
0.0
0
LINE
8
0
6
CONTINUOUS
10
-40.762000
20
247.000000
30
0.0
11
-39.887000
21
247.000000
31
0.0
0
LINE
8
0
6
CONTINUOUS
10
-41.459000
20
247.000000
30
0.0
11
-40.762000
21
247.000000
31
0.0
0
LINE
8
0
6
CONTINUOUS
10
-41.765000
20
247.300000
30
0.0
11
-42.342000
21
247.300000
31
0.0
0
LINE
8
0
6
CONTINUOUS
10
-42.036000
20
247.000000
30
0.0
11
-41.459000
21
247.000000
31
0.0
0
LINE
8
0
6
CONTINUOUS
10
-42.342000
20
247.300000
30
0.0
11
-42.899000
21
247.300000
31
0.0
0
LINE
8
0
6
CONTINUOUS
10
-42.565000
20
247.000000
30
0.0
11
-42.036000
21
247.000000
31
0.0
0
LINE
8
0
6
CONTINUOUS
10
-42.899000
20
247.300000
30
0.0
11
-43.287000
21
247.300000
31
0.0
0
LINE
8
0
6
CONTINUOUS
10
-42.950000
20
247.000000
30
0.0
11
-42.565000
21
247.000000
31
0.0
0
LINE
8
0
6
CONTINUOUS
10
-43.287000
20
247.300000
30
0.0
11
-43.652000
21
247.300000
31
0.0
0
LINE
8
0
6
CONTINUOUS
10
-43.291000
20
247.000000
30
0.0
11
-42.950000
21
247.000000
31
0.0
0
LINE
8
0
6
CONTINUOUS
10
-43.783000
20
247.000000
30
0.0
11
-43.291000
21
247.000000
31
0.0
0
LINE
8
0
6
CONTINUOUS
10
-44.296000
20
247.000000
30
0.0
11
-43.783000
21
247.000000
31
0.0
0
LINE
8
0
6
CONTINUOUS
10
-44.777000
20
247.000000
30
0.0
11
-44.296000
21
247.000000
31
0.0
0
LINE
8
0
6
CONTINUOUS
10
-45.142000
20
247.300000
30
0.0
11
-45.540000
21
247.300000
31
0.0
0
LINE
8
0
6
CONTINUOUS
10
-45.159000
20
247.000000
30
0.0
11
-44.777000
21
247.000000
31
0.0
0
LINE
8
0
6
CONTINUOUS
10
-45.358000
20
247.000000
30
0.0
11
-45.159000
21
247.000000
31
0.0
0
LINE
8
0
6
CONTINUOUS
10
-45.406000
20
247.000000
30
0.0
11
-45.358000
21
247.000000
31
0.0
0
LINE
8
0
6
CONTINUOUS
10
-40.332000
20
259.000000
30
0.0
11
-41.169000
21
259.000000
31
0.0
0
LINE
8
0
6
CONTINUOUS
10
-41.169000
20
259.000000
30
0.0
11
-41.895000
21
259.000000
31
0.0
0
LINE
8
0
6
CONTINUOUS
10
-41.895000
20
259.000000
30
0.0
11
-42.481000
21
259.000000
31
0.0
0
LINE
8
0
6
CONTINUOUS
10
-42.481000
20
259.000000
30
0.0
11
-43.058000
21
259.000000
31
0.0
0
LINE
8
0
6
CONTINUOUS
10
-43.058000
20
259.000000
30
0.0
11
-43.466000
21
259.000000
31
0.0
0
LINE
8
0
6
CONTINUOUS
10
-43.466000
20
259.000000
30
0.0
11
-43.838000
21
259.000000
31
0.0
0
LINE
8
0
6
CONTINUOUS
10
-43.838000
20
259.000000
30
0.0
11
-44.282000
21
259.000000
31
0.0
0
LINE
8
0
6
CONTINUOUS
10
-44.282000
20
259.000000
30
0.0
11
-44.825000
21
259.000000
31
0.0
0
LINE
8
0
6
CONTINUOUS
10
-44.825000
20
259.000000
30
0.0
11
-45.325000
21
259.000000
31
0.0
0
LINE
8
0
6
CONTINUOUS
10
-45.325000
20
259.000000
30
0.0
11
-45.740000
21
259.000000
31
0.0
0
LINE
8
0
6
CONTINUOUS
10
-45.740000
20
259.000000
30
0.0
11
-45.939000
21
259.000000
31
0.0
0
LINE
8
0
6
CONTINUOUS
10
-45.939000
20
259.000000
30
0.0
11
-46.000000
21
259.000000
31
0.0
0
LINE
8
0
6
CONTINUOUS
10
-41.169000
20
259.000000
30
0.0
11
-40.332000
21
259.000000
31
0.0
0
LINE
8
0
6
CONTINUOUS
10
-41.895000
20
259.000000
30
0.0
11
-41.169000
21
259.000000
31
0.0
0
LINE
8
0
6
CONTINUOUS
10
-42.481000
20
259.000000
30
0.0
11
-41.895000
21
259.000000
31
0.0
0
LINE
8
0
6
CONTINUOUS
10
-43.058000
20
259.000000
30
0.0
11
-42.481000
21
259.000000
31
0.0
0
LINE
8
0
6
CONTINUOUS
10
-43.466000
20
259.000000
30
0.0
11
-43.058000
21
259.000000
31
0.0
0
LINE
8
0
6
CONTINUOUS
10
-43.838000
20
259.000000
30
0.0
11
-43.466000
21
259.000000
31
0.0
0
LINE
8
0
6
CONTINUOUS
10
-44.282000
20
259.000000
30
0.0
11
-43.838000
21
259.000000
31
0.0
0
LINE
8
0
6
CONTINUOUS
10
-44.825000
20
259.000000
30
0.0
11
-44.282000
21
259.000000
31
0.0
0
LINE
8
0
6
CONTINUOUS
10
-45.325000
20
259.000000
30
0.0
11
-44.825000
21
259.000000
31
0.0
0
LINE
8
0
6
CONTINUOUS
10
-45.740000
20
259.000000
30
0.0
11
-45.325000
21
259.000000
31
0.0
0
LINE
8
0
6
CONTINUOUS
10
-45.939000
20
259.000000
30
0.0
11
-45.740000
21
259.000000
31
0.0
0
LINE
8
0
6
CONTINUOUS
10
-46.000000
20
259.000000
30
0.0
11
-45.939000
21
259.000000
31
0.0
0
LINE
8
0
6
CONTINUOUS
10
-40.762000
20
247.000000
30
0.0
11
-41.459000
21
247.000000
31
0.0
0
LINE
8
0
6
CONTINUOUS
10
-41.459000
20
247.000000
30
0.0
11
-42.036000
21
247.000000
31
0.0
0
LINE
8
0
6
CONTINUOUS
10
-42.036000
20
247.000000
30
0.0
11
-42.565000
21
247.000000
31
0.0
0
LINE
8
0
6
CONTINUOUS
10
-42.565000
20
247.000000
30
0.0
11
-42.950000
21
247.000000
31
0.0
0
LINE
8
0
6
CONTINUOUS
10
-42.950000
20
247.000000
30
0.0
11
-43.291000
21
247.000000
31
0.0
0
LINE
8
0
6
CONTINUOUS
10
-43.783000
20
247.000000
30
0.0
11
-44.296000
21
247.000000
31
0.0
0
LINE
8
0
6
CONTINUOUS
10
-44.296000
20
247.000000
30
0.0
11
-44.777000
21
247.000000
31
0.0
0
LINE
8
0
6
CONTINUOUS
10
-44.777000
20
247.000000
30
0.0
11
-45.159000
21
247.000000
31
0.0
0
LINE
8
0
6
CONTINUOUS
10
-45.159000
20
247.000000
30
0.0
11
-45.358000
21
247.000000
31
0.0
0
LINE
8
0
6
CONTINUOUS
10
-45.358000
20
247.000000
30
0.0
11
-45.406000
21
247.000000
31
0.0
0
LINE
8
0
6
CONTINUOUS
10
-38.945000
20
247.000000
30
0.0
11
-39.887000
21
247.000000
31
0.0
0
LINE
8
0
6
CONTINUOUS
10
-36.855000
20
247.000000
30
0.0
11
-37.840000
21
247.000000
31
0.0
0
LINE
8
0
6
CONTINUOUS
10
-35.436000
20
247.000000
30
0.0
11
-36.855000
21
247.000000
31
0.0
0
LINE
8
0
6
CONTINUOUS
10
-33.826000
20
247.000000
30
0.0
11
-35.436000
21
247.000000
31
0.0
0
LINE
8
0
6
CONTINUOUS
10
-31.810000
20
247.000000
30
0.0
11
-33.826000
21
247.000000
31
0.0
0
LINE
8
0
6
CONTINUOUS
10
-28.174000
20
247.000000
30
0.0
11
-31.810000
21
247.000000
31
0.0
0
LINE
8
0
6
CONTINUOUS
10
-23.636000
20
247.000000
30
0.0
11
-28.174000
21
247.000000
31
0.0
0
LINE
8
0
6
CONTINUOUS
10
-9.623000
20
247.000000
30
0.0
11
-17.008000
21
247.000000
31
0.0
0
LINE
8
0
6
CONTINUOUS
10
-3.857000
20
247.000000
30
0.0
11
-9.623000
21
247.000000
31
0.0
0
LINE
8
0
6
CONTINUOUS
10
0.000000
20
247.000000
30
0.0
11
-3.857000
21
247.000000
31
0.0
0
LINE
8
0
6
CONTINUOUS
10
-40.332000
20
259.000000
30
0.0
11
-39.384000
21
259.000000
31
0.0
0
LINE
8
0
6
CONTINUOUS
10
-39.384000
20
259.000000
30
0.0
11
-38.291000
21
259.000000
31
0.0
0
LINE
8
0
6
CONTINUOUS
10
-38.291000
20
259.000000
30
0.0
11
-37.267000
21
259.000000
31
0.0
0
LINE
8
0
6
CONTINUOUS
10
-37.267000
20
259.000000
30
0.0
11
-35.836000
21
259.000000
31
0.0
0
LINE
8
0
6
CONTINUOUS
10
-35.836000
20
259.000000
30
0.0
11
-34.176000
21
259.000000
31
0.0
0
LINE
8
0
6
CONTINUOUS
10
-34.176000
20
259.000000
30
0.0
11
-32.160000
21
259.000000
31
0.0
0
LINE
8
0
6
CONTINUOUS
10
-32.160000
20
259.000000
30
0.0
11
-28.433000
21
259.000000
31
0.0
0
LINE
8
0
6
CONTINUOUS
10
-28.433000
20
259.000000
30
0.0
11
-23.877000
21
259.000000
31
0.0
0
LINE
8
0
6
CONTINUOUS
10
-23.877000
20
259.000000
30
0.0
11
-17.273000
21
259.000000
31
0.0
0
LINE
8
0
6
CONTINUOUS
10
-17.273000
20
259.000000
30
0.0
11
-9.739000
21
259.000000
31
0.0
0
LINE
8
0
6
CONTINUOUS
10
-9.739000
20
259.000000
30
0.0
11
-3.923000
21
259.000000
31
0.0
0
LINE
8
0
6
CONTINUOUS
10
-3.923000
20
259.000000
30
0.0
11
0.000000
21
259.000000
31
0.0
0
LINE
8
0
6
CONTINUOUS
10
-39.887000
20
247.000000
30
0.0
11
-38.945000
21
247.000000
31
0.0
0
LINE
8
0
6
CONTINUOUS
10
-39.225000
20
247.300000
30
0.0
11
-40.183000
21
247.300000
31
0.0
0
LINE
8
0
6
CONTINUOUS
10
-38.945000
20
247.000000
30
0.0
11
-37.840000
21
247.000000
31
0.0
0
LINE
8
0
6
CONTINUOUS
10
-38.162000
20
247.300000
30
0.0
11
-39.225000
21
247.300000
31
0.0
0
LINE
8
0
6
CONTINUOUS
10
-37.840000
20
247.000000
30
0.0
11
-36.855000
21
247.000000
31
0.0
0
LINE
8
0
6
CONTINUOUS
10
-37.148000
20
247.300000
30
0.0
11
-38.162000
21
247.300000
31
0.0
0
LINE
8
0
6
CONTINUOUS
10
-36.855000
20
247.000000
30
0.0
11
-35.436000
21
247.000000
31
0.0
0
LINE
8
0
6
CONTINUOUS
10
-35.697000
20
247.300000
30
0.0
11
-37.148000
21
247.300000
31
0.0
0
LINE
8
0
6
CONTINUOUS
10
-35.436000
20
247.000000
30
0.0
11
-33.826000
21
247.000000
31
0.0
0
LINE
8
0
6
CONTINUOUS
10
-34.067000
20
247.300000
30
0.0
11
-35.697000
21
247.300000
31
0.0
0
LINE
8
0
6
CONTINUOUS
10
-33.826000
20
247.000000
30
0.0
11
-31.810000
21
247.000000
31
0.0
0
LINE
8
0
6
CONTINUOUS
10
-32.062000
20
247.300000
30
0.0
11
-34.067000
21
247.300000
31
0.0
0
LINE
8
0
6
CONTINUOUS
10
-31.810000
20
247.000000
30
0.0
11
-28.174000
21
247.000000
31
0.0
0
LINE
8
0
6
CONTINUOUS
10
-28.174000
20
247.000000
30
0.0
11
-23.636000
21
247.000000
31
0.0
0
LINE
8
0
6
CONTINUOUS
10
-23.636000
20
247.000000
30
0.0
11
-17.008000
21
247.000000
31
0.0
0
LINE
8
0
6
CONTINUOUS
10
-17.008000
20
247.000000
30
0.0
11
-9.623000
21
247.000000
31
0.0
0
LINE
8
0
6
CONTINUOUS
10
-9.706000
20
247.300000
30
0.0
11
-17.190000
21
247.300000
31
0.0
0
LINE
8
0
6
CONTINUOUS
10
-9.623000
20
247.000000
30
0.0
11
-3.857000
21
247.000000
31
0.0
0
LINE
8
0
6
CONTINUOUS
10
-3.906000
20
247.300000
30
0.0
11
-9.706000
21
247.300000
31
0.0
0
LINE
8
0
6
CONTINUOUS
10
-3.857000
20
247.000000
30
0.0
11
0.000000
21
247.000000
31
0.0
0
LINE
8
0
6
CONTINUOUS
10
0.000000
20
247.300000
30
0.0
11
-3.906000
21
247.300000
31
0.0
0
LINE
8
0
6
CONTINUOUS
10
-40.183000
20
247.300000
30
0.0
11
-39.225000
21
247.300000
31
0.0
0
LINE
8
0
6
CONTINUOUS
10
-39.225000
20
247.300000
30
0.0
11
-38.162000
21
247.300000
31
0.0
0
LINE
8
0
6
CONTINUOUS
10
-38.162000
20
247.300000
30
0.0
11
-37.148000
21
247.300000
31
0.0
0
LINE
8
0
6
CONTINUOUS
10
-37.148000
20
247.300000
30
0.0
11
-35.697000
21
247.300000
31
0.0
0
LINE
8
0
6
CONTINUOUS
10
-35.697000
20
247.300000
30
0.0
11
-34.067000
21
247.300000
31
0.0
0
LINE
8
0
6
CONTINUOUS
10
-34.067000
20
247.300000
30
0.0
11
-32.062000
21
247.300000
31
0.0
0
LINE
8
0
6
CONTINUOUS
10
-17.190000
20
247.300000
30
0.0
11
-9.706000
21
247.300000
31
0.0
0
LINE
8
0
6
CONTINUOUS
10
-9.706000
20
247.300000
30
0.0
11
-3.906000
21
247.300000
31
0.0
0
LINE
8
0
6
CONTINUOUS
10
-3.906000
20
247.300000
30
0.0
11
0.000000
21
247.300000
31
0.0
0
LINE
8
0
6
CONTINUOUS
10
-39.384000
20
259.000000
30
0.0
11
-40.332000
21
259.000000
31
0.0
0
LINE
8
0
6
CONTINUOUS
10
-38.291000
20
259.000000
30
0.0
11
-39.384000
21
259.000000
31
0.0
0
LINE
8
0
6
CONTINUOUS
10
-37.267000
20
259.000000
30
0.0
11
-38.291000
21
259.000000
31
0.0
0
LINE
8
0
6
CONTINUOUS
10
-35.836000
20
259.000000
30
0.0
11
-37.267000
21
259.000000
31
0.0
0
LINE
8
0
6
CONTINUOUS
10
-34.176000
20
259.000000
30
0.0
11
-35.836000
21
259.000000
31
0.0
0
LINE
8
0
6
CONTINUOUS
10
-32.160000
20
259.000000
30
0.0
11
-34.176000
21
259.000000
31
0.0
0
LINE
8
0
6
CONTINUOUS
10
-28.433000
20
259.000000
30
0.0
11
-32.160000
21
259.000000
31
0.0
0
LINE
8
0
6
CONTINUOUS
10
-23.877000
20
259.000000
30
0.0
11
-28.433000
21
259.000000
31
0.0
0
LINE
8
0
6
CONTINUOUS
10
-17.273000
20
259.000000
30
0.0
11
-23.877000
21
259.000000
31
0.0
0
LINE
8
0
6
CONTINUOUS
10
-9.739000
20
259.000000
30
0.0
11
-17.273000
21
259.000000
31
0.0
0
LINE
8
0
6
CONTINUOUS
10
-3.923000
20
259.000000
30
0.0
11
-9.739000
21
259.000000
31
0.0
0
LINE
8
0
6
CONTINUOUS
10
0.000000
20
259.000000
30
0.0
11
-3.923000
21
259.000000
31
0.0
0
LINE
8
0
6
CONTINUOUS
10
-38.945000
20
247.000000
30
0.0
11
-39.887000
21
247.000000
31
0.0
0
LINE
8
0
6
CONTINUOUS
10
-28.174000
20
247.000000
30
0.0
11
-31.810000
21
247.000000
31
0.0
0
LINE
8
0
6
CONTINUOUS
10
-39.887000
20
247.000000
30
0.0
11
-38.945000
21
247.000000
31
0.0
0
LINE
8
0
6
CONTINUOUS
10
-31.810000
20
247.000000
30
0.0
11
-28.174000
21
247.000000
31
0.0
0
LINE
8
0
6
CONTINUOUS
10
-41.459000
20
247.000000
30
0.0
11
-40.762000
21
247.000000
31
0.0
0
LINE
8
0
6
CONTINUOUS
10
-43.291000
20
247.000000
30
0.0
11
-42.950000
21
247.000000
31
0.0
0
LINE
8
0
6
CONTINUOUS
10
-44.777000
20
247.000000
30
0.0
11
-44.296000
21
247.000000
31
0.0
0
LINE
8
0
6
CONTINUOUS
10
-45.159000
20
247.000000
30
0.0
11
-44.777000
21
247.000000
31
0.0
0
LINE
8
0
6
CONTINUOUS
10
-45.406000
20
247.000000
30
0.0
11
-45.358000
21
247.000000
31
0.0
0
LINE
8
0
6
CONTINUOUS
10
-40.762000
20
247.000000
30
0.0
11
-41.459000
21
247.000000
31
0.0
0
LINE
8
0
6
CONTINUOUS
10
-42.950000
20
247.000000
30
0.0
11
-43.291000
21
247.000000
31
0.0
0
LINE
8
0
6
CONTINUOUS
10
-44.296000
20
247.000000
30
0.0
11
-44.777000
21
247.000000
31
0.0
0
LINE
8
0
6
CONTINUOUS
10
-44.777000
20
247.000000
30
0.0
11
-45.159000
21
247.000000
31
0.0
0
LINE
8
0
6
CONTINUOUS
10
-45.406000
20
247.000000
30
0.0
11
-45.822000
21
247.300000
31
0.0
0
LINE
8
0
6
CONTINUOUS
10
-45.358000
20
247.000000
30
0.0
11
-45.406000
21
247.000000
31
0.0
0
LINE
8
0
6
CONTINUOUS
10
-45.822000
20
247.300000
30
0.0
11
-46.000000
21
248.000000
31
0.0
0
LINE
8
0
6
CONTINUOUS
10
-46.000000
20
248.000000
30
0.0
11
-46.000000
21
259.000000
31
0.0
0
LINE
8
0
6
CONTINUOUS
10
40.332000
20
259.000000
30
0.0
11
39.384000
21
259.000000
31
0.0
0
LINE
8
0
6
CONTINUOUS
10
39.384000
20
259.000000
30
0.0
11
38.291000
21
259.000000
31
0.0
0
LINE
8
0
6
CONTINUOUS
10
38.291000
20
259.000000
30
0.0
11
37.267000
21
259.000000
31
0.0
0
LINE
8
0
6
CONTINUOUS
10
37.267000
20
259.000000
30
0.0
11
35.836000
21
259.000000
31
0.0
0
LINE
8
0
6
CONTINUOUS
10
35.836000
20
259.000000
30
0.0
11
34.176000
21
259.000000
31
0.0
0
LINE
8
0
6
CONTINUOUS
10
34.176000
20
259.000000
30
0.0
11
32.160000
21
259.000000
31
0.0
0
LINE
8
0
6
CONTINUOUS
10
32.160000
20
259.000000
30
0.0
11
28.433000
21
259.000000
31
0.0
0
LINE
8
0
6
CONTINUOUS
10
28.433000
20
259.000000
30
0.0
11
23.877000
21
259.000000
31
0.0
0
LINE
8
0
6
CONTINUOUS
10
23.877000
20
259.000000
30
0.0
11
17.273000
21
259.000000
31
0.0
0
LINE
8
0
6
CONTINUOUS
10
17.273000
20
259.000000
30
0.0
11
9.739000
21
259.000000
31
0.0
0
LINE
8
0
6
CONTINUOUS
10
9.739000
20
259.000000
30
0.0
11
3.923000
21
259.000000
31
0.0
0
LINE
8
0
6
CONTINUOUS
10
3.923000
20
259.000000
30
0.0
11
0.000000
21
259.000000
31
0.0
0
LINE
8
0
6
CONTINUOUS
10
39.225000
20
247.300000
30
0.0
11
40.183000
21
247.300000
31
0.0
0
LINE
8
0
6
CONTINUOUS
10
38.162000
20
247.300000
30
0.0
11
39.225000
21
247.300000
31
0.0
0
LINE
8
0
6
CONTINUOUS
10
37.148000
20
247.300000
30
0.0
11
38.162000
21
247.300000
31
0.0
0
LINE
8
0
6
CONTINUOUS
10
35.697000
20
247.300000
30
0.0
11
37.148000
21
247.300000
31
0.0
0
LINE
8
0
6
CONTINUOUS
10
34.067000
20
247.300000
30
0.0
11
35.697000
21
247.300000
31
0.0
0
LINE
8
0
6
CONTINUOUS
10
32.062000
20
247.300000
30
0.0
11
34.067000
21
247.300000
31
0.0
0
LINE
8
0
6
CONTINUOUS
10
9.706000
20
247.300000
30
0.0
11
17.190000
21
247.300000
31
0.0
0
LINE
8
0
6
CONTINUOUS
10
3.906000
20
247.300000
30
0.0
11
9.706000
21
247.300000
31
0.0
0
LINE
8
0
6
CONTINUOUS
10
0.000000
20
247.300000
30
0.0
11
3.906000
21
247.300000
31
0.0
0
LINE
8
0
6
CONTINUOUS
10
40.183000
20
247.300000
30
0.0
11
39.225000
21
247.300000
31
0.0
0
LINE
8
0
6
CONTINUOUS
10
38.945000
20
247.000000
30
0.0
11
39.886000
21
247.000000
31
0.0
0
LINE
8
0
6
CONTINUOUS
10
37.840000
20
247.000000
30
0.0
11
38.945000
21
247.000000
31
0.0
0
LINE
8
0
6
CONTINUOUS
10
38.162000
20
247.300000
30
0.0
11
37.148000
21
247.300000
31
0.0
0
LINE
8
0
6
CONTINUOUS
10
36.854000
20
247.000000
30
0.0
11
37.840000
21
247.000000
31
0.0
0
LINE
8
0
6
CONTINUOUS
10
37.148000
20
247.300000
30
0.0
11
35.697000
21
247.300000
31
0.0
0
LINE
8
0
6
CONTINUOUS
10
35.436000
20
247.000000
30
0.0
11
36.854000
21
247.000000
31
0.0
0
LINE
8
0
6
CONTINUOUS
10
35.697000
20
247.300000
30
0.0
11
34.067000
21
247.300000
31
0.0
0
LINE
8
0
6
CONTINUOUS
10
33.826000
20
247.000000
30
0.0
11
35.436000
21
247.000000
31
0.0
0
LINE
8
0
6
CONTINUOUS
10
34.067000
20
247.300000
30
0.0
11
32.062000
21
247.300000
31
0.0
0
LINE
8
0
6
CONTINUOUS
10
31.810000
20
247.000000
30
0.0
11
33.826000
21
247.000000
31
0.0
0
LINE
8
0
6
CONTINUOUS
10
28.174000
20
247.000000
30
0.0
11
31.810000
21
247.000000
31
0.0
0
LINE
8
0
6
CONTINUOUS
10
23.636000
20
247.000000
30
0.0
11
28.174000
21
247.000000
31
0.0
0
LINE
8
0
6
CONTINUOUS
10
17.008000
20
247.000000
30
0.0
11
23.636000
21
247.000000
31
0.0
0
LINE
8
0
6
CONTINUOUS
10
17.190000
20
247.300000
30
0.0
11
9.706000
21
247.300000
31
0.0
0
LINE
8
0
6
CONTINUOUS
10
9.623000
20
247.000000
30
0.0
11
17.008000
21
247.000000
31
0.0
0
LINE
8
0
6
CONTINUOUS
10
9.706000
20
247.300000
30
0.0
11
3.906000
21
247.300000
31
0.0
0
LINE
8
0
6
CONTINUOUS
10
3.857000
20
247.000000
30
0.0
11
9.623000
21
247.000000
31
0.0
0
LINE
8
0
6
CONTINUOUS
10
3.906000
20
247.300000
30
0.0
11
0.000000
21
247.300000
31
0.0
0
LINE
8
0
6
CONTINUOUS
10
0.000000
20
247.000000
30
0.0
11
3.857000
21
247.000000
31
0.0
0
LINE
8
0
6
CONTINUOUS
10
39.384000
20
259.000000
30
0.0
11
40.332000
21
259.000000
31
0.0
0
LINE
8
0
6
CONTINUOUS
10
38.291000
20
259.000000
30
0.0
11
39.384000
21
259.000000
31
0.0
0
LINE
8
0
6
CONTINUOUS
10
37.267000
20
259.000000
30
0.0
11
38.291000
21
259.000000
31
0.0
0
LINE
8
0
6
CONTINUOUS
10
35.836000
20
259.000000
30
0.0
11
37.267000
21
259.000000
31
0.0
0
LINE
8
0
6
CONTINUOUS
10
34.176000
20
259.000000
30
0.0
11
35.836000
21
259.000000
31
0.0
0
LINE
8
0
6
CONTINUOUS
10
32.160000
20
259.000000
30
0.0
11
34.176000
21
259.000000
31
0.0
0
LINE
8
0
6
CONTINUOUS
10
28.433000
20
259.000000
30
0.0
11
32.160000
21
259.000000
31
0.0
0
LINE
8
0
6
CONTINUOUS
10
23.877000
20
259.000000
30
0.0
11
28.433000
21
259.000000
31
0.0
0
LINE
8
0
6
CONTINUOUS
10
17.273000
20
259.000000
30
0.0
11
23.877000
21
259.000000
31
0.0
0
LINE
8
0
6
CONTINUOUS
10
9.739000
20
259.000000
30
0.0
11
17.273000
21
259.000000
31
0.0
0
LINE
8
0
6
CONTINUOUS
10
3.923000
20
259.000000
30
0.0
11
9.739000
21
259.000000
31
0.0
0
LINE
8
0
6
CONTINUOUS
10
0.000000
20
259.000000
30
0.0
11
3.923000
21
259.000000
31
0.0
0
LINE
8
0
6
CONTINUOUS
10
38.945000
20
247.000000
30
0.0
11
37.840000
21
247.000000
31
0.0
0
LINE
8
0
6
CONTINUOUS
10
37.840000
20
247.000000
30
0.0
11
36.854000
21
247.000000
31
0.0
0
LINE
8
0
6
CONTINUOUS
10
36.854000
20
247.000000
30
0.0
11
35.436000
21
247.000000
31
0.0
0
LINE
8
0
6
CONTINUOUS
10
35.436000
20
247.000000
30
0.0
11
33.826000
21
247.000000
31
0.0
0
LINE
8
0
6
CONTINUOUS
10
33.826000
20
247.000000
30
0.0
11
31.810000
21
247.000000
31
0.0
0
LINE
8
0
6
CONTINUOUS
10
28.174000
20
247.000000
30
0.0
11
23.636000
21
247.000000
31
0.0
0
LINE
8
0
6
CONTINUOUS
10
23.636000
20
247.000000
30
0.0
11
17.008000
21
247.000000
31
0.0
0
LINE
8
0
6
CONTINUOUS
10
17.008000
20
247.000000
30
0.0
11
9.623000
21
247.000000
31
0.0
0
LINE
8
0
6
CONTINUOUS
10
9.623000
20
247.000000
30
0.0
11
3.857000
21
247.000000
31
0.0
0
LINE
8
0
6
CONTINUOUS
10
3.857000
20
247.000000
30
0.0
11
0.000000
21
247.000000
31
0.0
0
LINE
8
0
6
CONTINUOUS
10
40.761000
20
247.000000
30
0.0
11
39.886000
21
247.000000
31
0.0
0
LINE
8
0
6
CONTINUOUS
10
42.036000
20
247.000000
30
0.0
11
41.459000
21
247.000000
31
0.0
0
LINE
8
0
6
CONTINUOUS
10
42.565000
20
247.000000
30
0.0
11
42.036000
21
247.000000
31
0.0
0
LINE
8
0
6
CONTINUOUS
10
42.950000
20
247.000000
30
0.0
11
42.565000
21
247.000000
31
0.0
0
LINE
8
0
6
CONTINUOUS
10
43.783000
20
247.000000
30
0.0
11
43.291000
21
247.000000
31
0.0
0
LINE
8
0
6
CONTINUOUS
10
44.296000
20
247.000000
30
0.0
11
43.783000
21
247.000000
31
0.0
0
LINE
8
0
6
CONTINUOUS
10
45.358000
20
247.000000
30
0.0
11
45.159000
21
247.000000
31
0.0
0
LINE
8
0
6
CONTINUOUS
10
40.332000
20
259.000000
30
0.0
11
41.169000
21
259.000000
31
0.0
0
LINE
8
0
6
CONTINUOUS
10
41.169000
20
259.000000
30
0.0
11
41.895000
21
259.000000
31
0.0
0
LINE
8
0
6
CONTINUOUS
10
41.895000
20
259.000000
30
0.0
11
42.481000
21
259.000000
31
0.0
0
LINE
8
0
6
CONTINUOUS
10
42.481000
20
259.000000
30
0.0
11
43.058000
21
259.000000
31
0.0
0
LINE
8
0
6
CONTINUOUS
10
43.058000
20
259.000000
30
0.0
11
43.466000
21
259.000000
31
0.0
0
LINE
8
0
6
CONTINUOUS
10
43.466000
20
259.000000
30
0.0
11
43.838000
21
259.000000
31
0.0
0
LINE
8
0
6
CONTINUOUS
10
43.838000
20
259.000000
30
0.0
11
44.282000
21
259.000000
31
0.0
0
LINE
8
0
6
CONTINUOUS
10
44.282000
20
259.000000
30
0.0
11
44.825000
21
259.000000
31
0.0
0
LINE
8
0
6
CONTINUOUS
10
44.825000
20
259.000000
30
0.0
11
45.325000
21
259.000000
31
0.0
0
LINE
8
0
6
CONTINUOUS
10
45.325000
20
259.000000
30
0.0
11
45.740000
21
259.000000
31
0.0
0
LINE
8
0
6
CONTINUOUS
10
45.740000
20
259.000000
30
0.0
11
45.939000
21
259.000000
31
0.0
0
LINE
8
0
6
CONTINUOUS
10
45.939000
20
259.000000
30
0.0
11
46.000000
21
259.000000
31
0.0
0
LINE
8
0
6
CONTINUOUS
10
39.886000
20
247.000000
30
0.0
11
40.761000
21
247.000000
31
0.0
0
LINE
8
0
6
CONTINUOUS
10
41.019000
20
247.300000
30
0.0
11
40.183000
21
247.300000
31
0.0
0
LINE
8
0
6
CONTINUOUS
10
40.761000
20
247.000000
30
0.0
11
41.459000
21
247.000000
31
0.0
0
LINE
8
0
6
CONTINUOUS
10
41.765000
20
247.300000
30
0.0
11
41.019000
21
247.300000
31
0.0
0
LINE
8
0
6
CONTINUOUS
10
41.459000
20
247.000000
30
0.0
11
42.036000
21
247.000000
31
0.0
0
LINE
8
0
6
CONTINUOUS
10
42.342000
20
247.300000
30
0.0
11
41.765000
21
247.300000
31
0.0
0
LINE
8
0
6
CONTINUOUS
10
42.036000
20
247.000000
30
0.0
11
42.565000
21
247.000000
31
0.0
0
LINE
8
0
6
CONTINUOUS
10
42.565000
20
247.000000
30
0.0
11
42.950000
21
247.000000
31
0.0
0
LINE
8
0
6
CONTINUOUS
10
42.950000
20
247.000000
30
0.0
11
43.291000
21
247.000000
31
0.0
0
LINE
8
0
6
CONTINUOUS
10
43.652000
20
247.300000
30
0.0
11
43.287000
21
247.300000
31
0.0
0
LINE
8
0
6
CONTINUOUS
10
43.291000
20
247.000000
30
0.0
11
43.783000
21
247.000000
31
0.0
0
LINE
8
0
6
CONTINUOUS
10
43.783000
20
247.000000
30
0.0
11
44.296000
21
247.000000
31
0.0
0
LINE
8
0
6
CONTINUOUS
10
44.296000
20
247.000000
30
0.0
11
44.777000
21
247.000000
31
0.0
0
LINE
8
0
6
CONTINUOUS
10
44.777000
20
247.000000
30
0.0
11
45.159000
21
247.000000
31
0.0
0
LINE
8
0
6
CONTINUOUS
10
45.159000
20
247.000000
30
0.0
11
45.358000
21
247.000000
31
0.0
0
LINE
8
0
6
CONTINUOUS
10
45.740000
20
247.300000
30
0.0
11
45.540000
21
247.300000
31
0.0
0
LINE
8
0
6
CONTINUOUS
10
45.358000
20
247.000000
30
0.0
11
45.406000
21
247.000000
31
0.0
0
LINE
8
0
6
CONTINUOUS
10
45.822000
20
247.300000
30
0.0
11
45.740000
21
247.300000
31
0.0
0
LINE
8
0
6
CONTINUOUS
10
40.183000
20
247.300000
30
0.0
11
41.019000
21
247.300000
31
0.0
0
LINE
8
0
6
CONTINUOUS
10
41.019000
20
247.300000
30
0.0
11
41.765000
21
247.300000
31
0.0
0
LINE
8
0
6
CONTINUOUS
10
41.765000
20
247.300000
30
0.0
11
42.342000
21
247.300000
31
0.0
0
LINE
8
0
6
CONTINUOUS
10
42.342000
20
247.300000
30
0.0
11
42.899000
21
247.300000
31
0.0
0
LINE
8
0
6
CONTINUOUS
10
42.899000
20
247.300000
30
0.0
11
43.287000
21
247.300000
31
0.0
0
LINE
8
0
6
CONTINUOUS
10
43.287000
20
247.300000
30
0.0
11
43.652000
21
247.300000
31
0.0
0
LINE
8
0
6
CONTINUOUS
10
45.142000
20
247.300000
30
0.0
11
45.540000
21
247.300000
31
0.0
0
LINE
8
0
6
CONTINUOUS
10
45.540000
20
247.300000
30
0.0
11
45.740000
21
247.300000
31
0.0
0
LINE
8
0
6
CONTINUOUS
10
45.740000
20
247.300000
30
0.0
11
45.822000
21
247.300000
31
0.0
0
LINE
8
0
6
CONTINUOUS
10
41.169000
20
259.000000
30
0.0
11
40.332000
21
259.000000
31
0.0
0
LINE
8
0
6
CONTINUOUS
10
41.895000
20
259.000000
30
0.0
11
41.169000
21
259.000000
31
0.0
0
LINE
8
0
6
CONTINUOUS
10
42.481000
20
259.000000
30
0.0
11
41.895000
21
259.000000
31
0.0
0
LINE
8
0
6
CONTINUOUS
10
43.058000
20
259.000000
30
0.0
11
42.481000
21
259.000000
31
0.0
0
LINE
8
0
6
CONTINUOUS
10
43.466000
20
259.000000
30
0.0
11
43.058000
21
259.000000
31
0.0
0
LINE
8
0
6
CONTINUOUS
10
43.838000
20
259.000000
30
0.0
11
43.466000
21
259.000000
31
0.0
0
LINE
8
0
6
CONTINUOUS
10
44.282000
20
259.000000
30
0.0
11
43.838000
21
259.000000
31
0.0
0
LINE
8
0
6
CONTINUOUS
10
44.825000
20
259.000000
30
0.0
11
44.282000
21
259.000000
31
0.0
0
LINE
8
0
6
CONTINUOUS
10
45.325000
20
259.000000
30
0.0
11
44.825000
21
259.000000
31
0.0
0
LINE
8
0
6
CONTINUOUS
10
45.740000
20
259.000000
30
0.0
11
45.325000
21
259.000000
31
0.0
0
LINE
8
0
6
CONTINUOUS
10
45.939000
20
259.000000
30
0.0
11
45.740000
21
259.000000
31
0.0
0
LINE
8
0
6
CONTINUOUS
10
46.000000
20
259.000000
30
0.0
11
45.939000
21
259.000000
31
0.0
0
LINE
8
0
6
CONTINUOUS
10
46.000000
20
259.000000
30
0.0
11
46.000000
21
248.000000
31
0.0
0
LINE
8
0
6
CONTINUOUS
10
46.000000
20
248.000000
30
0.0
11
45.822000
21
247.300000
31
0.0
0
LINE
8
0
6
CONTINUOUS
10
40.761000
20
247.000000
30
0.0
11
39.886000
21
247.000000
31
0.0
0
LINE
8
0
6
CONTINUOUS
10
43.783000
20
247.000000
30
0.0
11
43.291000
21
247.000000
31
0.0
0
LINE
8
0
6
CONTINUOUS
10
45.822000
20
247.300000
30
0.0
11
45.406000
21
247.000000
31
0.0
0
LINE
8
0
6
CONTINUOUS
10
39.886000
20
247.000000
30
0.0
11
40.761000
21
247.000000
31
0.0
0
LINE
8
0
6
CONTINUOUS
10
43.291000
20
247.000000
30
0.0
11
43.783000
21
247.000000
31
0.0
0
LINE
8
0
6
CONTINUOUS
10
37.840000
20
247.000000
30
0.0
11
38.945000
21
247.000000
31
0.0
0
LINE
8
0
6
CONTINUOUS
10
17.008000
20
247.000000
30
0.0
11
23.636000
21
247.000000
31
0.0
0
LINE
8
0
6
CONTINUOUS
10
38.945000
20
247.000000
30
0.0
11
37.840000
21
247.000000
31
0.0
0
LINE
8
0
6
CONTINUOUS
10
23.636000
20
247.000000
30
0.0
11
17.008000
21
247.000000
31
0.0
0
LINE
8
0
6
CONTINUOUS
10
183.954000
20
-9.046000
30
0.0
11
186.776000
21
-12.788000
31
0.0
0
LINE
8
0
6
CONTINUOUS
10
186.776000
20
-12.788000
30
0.0
11
188.955000
21
-16.853000
31
0.0
0
LINE
8
0
6
CONTINUOUS
10
188.955000
20
-16.853000
30
0.0
11
190.262000
21
-22.078000
31
0.0
0
LINE
8
0
6
CONTINUOUS
10
190.262000
20
-22.078000
30
0.0
11
191.279000
21
-28.320600
31
0.0
0
LINE
8
0
6
CONTINUOUS
10
191.279000
20
-28.320600
30
0.0
11
192.441000
21
-38.772700
31
0.0
0
LINE
8
0
6
CONTINUOUS
10
192.441000
20
-38.772700
30
0.0
11
193.603000
21
-54.741000
31
0.0
0
LINE
8
0
6
CONTINUOUS
10
193.603000
20
-54.741000
30
0.0
11
194.996000
21
-76.302700
31
0.0
0
LINE
8
0
6
CONTINUOUS
10
194.996000
20
-76.302700
30
0.0
11
195.498000
21
-100.395000
31
0.0
0
LINE
8
0
6
CONTINUOUS
10
195.498000
20
-100.395000
30
0.0
11
196.000000
21
-128.000000
31
0.0
0
LINE
8
0
6
CONTINUOUS
10
186.776000
20
-12.788000
30
0.0
11
183.954000
21
-9.046000
31
0.0
0
LINE
8
0
6
CONTINUOUS
10
188.955000
20
-16.853000
30
0.0
11
186.776000
21
-12.788000
31
0.0
0
LINE
8
0
6
CONTINUOUS
10
188.009000
20
-17.701000
30
0.0
11
189.306000
21
-22.887000
31
0.0
0
LINE
8
0
6
CONTINUOUS
10
190.262000
20
-22.078000
30
0.0
11
188.955000
21
-16.853000
31
0.0
0
LINE
8
0
6
CONTINUOUS
10
189.306000
20
-22.887000
30
0.0
11
190.315000
21
-29.081600
31
0.0
0
LINE
8
0
6
CONTINUOUS
10
191.279000
20
-28.320600
30
0.0
11
190.262000
21
-22.078000
31
0.0
0
LINE
8
0
6
CONTINUOUS
10
190.315000
20
-29.081600
30
0.0
11
191.468000
21
-39.453800
31
0.0
0
LINE
8
0
6
CONTINUOUS
10
192.441000
20
-38.772700
30
0.0
11
191.279000
21
-28.320600
31
0.0
0
LINE
8
0
6
CONTINUOUS
10
191.468000
20
-39.453800
30
0.0
11
192.621000
21
-55.300300
31
0.0
0
LINE
8
0
6
CONTINUOUS
10
193.603000
20
-54.741000
30
0.0
11
192.441000
21
-38.772700
31
0.0
0
LINE
8
0
6
CONTINUOUS
10
192.621000
20
-55.300300
30
0.0
11
194.004000
21
-76.697300
31
0.0
0
LINE
8
0
6
CONTINUOUS
10
194.996000
20
-76.302700
30
0.0
11
193.603000
21
-54.741000
31
0.0
0
LINE
8
0
6
CONTINUOUS
10
194.004000
20
-76.697300
30
0.0
11
194.502000
21
-100.605000
31
0.0
0
LINE
8
0
6
CONTINUOUS
10
195.498000
20
-100.395000
30
0.0
11
194.996000
21
-76.302700
31
0.0
0
LINE
8
0
6
CONTINUOUS
10
194.502000
20
-100.605000
30
0.0
11
195.000000
21
-128.000000
31
0.0
0
LINE
8
0
6
CONTINUOUS
10
196.000000
20
-128.000000
30
0.0
11
195.498000
21
-100.395000
31
0.0
0
LINE
8
0
6
CONTINUOUS
10
189.306000
20
-22.887000
30
0.0
11
188.009000
21
-17.701000
31
0.0
0
LINE
8
0
6
CONTINUOUS
10
190.315000
20
-29.081600
30
0.0
11
189.306000
21
-22.887000
31
0.0
0
LINE
8
0
6
CONTINUOUS
10
191.468000
20
-39.453800
30
0.0
11
190.315000
21
-29.081600
31
0.0
0
LINE
8
0
6
CONTINUOUS
10
192.621000
20
-55.300300
30
0.0
11
191.468000
21
-39.453800
31
0.0
0
LINE
8
0
6
CONTINUOUS
10
194.004000
20
-76.697300
30
0.0
11
192.621000
21
-55.300300
31
0.0
0
LINE
8
0
6
CONTINUOUS
10
194.502000
20
-100.605000
30
0.0
11
194.004000
21
-76.697300
31
0.0
0
LINE
8
0
6
CONTINUOUS
10
195.000000
20
-128.000000
30
0.0
11
194.502000
21
-100.605000
31
0.0
0
LINE
8
0
6
CONTINUOUS
10
180.212000
20
-6.224000
30
0.0
11
183.954000
21
-9.046000
31
0.0
0
LINE
8
0
6
CONTINUOUS
10
176.147000
20
-4.045000
30
0.0
11
180.212000
21
-6.224000
31
0.0
0
LINE
8
0
6
CONTINUOUS
10
170.922000
20
-2.738000
30
0.0
11
176.147000
21
-4.045000
31
0.0
0
LINE
8
0
6
CONTINUOUS
10
164.679000
20
-1.721000
30
0.0
11
170.922000
21
-2.738000
31
0.0
0
LINE
8
0
6
CONTINUOUS
10
154.227000
20
-0.559000
30
0.0
11
164.679000
21
-1.721000
31
0.0
0
LINE
8
0
6
CONTINUOUS
10
138.259000
20
0.603000
30
0.0
11
154.227000
21
-0.559000
31
0.0
0
LINE
8
0
6
CONTINUOUS
10
116.697000
20
1.996000
30
0.0
11
138.259000
21
0.603000
31
0.0
0
LINE
8
0
6
CONTINUOUS
10
92.605000
20
2.498000
30
0.0
11
116.697000
21
1.996000
31
0.0
0
LINE
8
0
6
CONTINUOUS
10
65.000000
20
3.000000
30
0.0
11
92.605000
21
2.498000
31
0.0
0
LINE
8
0
6
CONTINUOUS
10
35.000000
20
3.000000
30
0.0
11
65.000000
21
3.000000
31
0.0
0
LINE
8
0
6
CONTINUOUS
10
183.954000
20
-9.046000
30
0.0
11
180.212000
21
-6.224000
31
0.0
0
LINE
8
0
6
CONTINUOUS
10
180.212000
20
-6.224000
30
0.0
11
176.147000
21
-4.045000
31
0.0
0
LINE
8
0
6
CONTINUOUS
10
176.147000
20
-4.045000
30
0.0
11
170.922000
21
-2.738000
31
0.0
0
LINE
8
0
6
CONTINUOUS
10
170.113000
20
-3.694000
30
0.0
11
175.299000
21
-4.991000
31
0.0
0
LINE
8
0
6
CONTINUOUS
10
170.922000
20
-2.738000
30
0.0
11
164.679000
21
-1.721000
31
0.0
0
LINE
8
0
6
CONTINUOUS
10
163.918000
20
-2.685000
30
0.0
11
170.113000
21
-3.694000
31
0.0
0
LINE
8
0
6
CONTINUOUS
10
164.679000
20
-1.721000
30
0.0
11
154.227000
21
-0.559000
31
0.0
0
LINE
8
0
6
CONTINUOUS
10
153.546000
20
-1.532000
30
0.0
11
163.918000
21
-2.685000
31
0.0
0
LINE
8
0
6
CONTINUOUS
10
154.227000
20
-0.559000
30
0.0
11
138.259000
21
0.603000
31
0.0
0
LINE
8
0
6
CONTINUOUS
10
137.700000
20
-0.379000
30
0.0
11
153.546000
21
-1.532000
31
0.0
0
LINE
8
0
6
CONTINUOUS
10
138.259000
20
0.603000
30
0.0
11
116.697000
21
1.996000
31
0.0
0
LINE
8
0
6
CONTINUOUS
10
116.303000
20
1.004000
30
0.0
11
137.700000
21
-0.379000
31
0.0
0
LINE
8
0
6
CONTINUOUS
10
116.697000
20
1.996000
30
0.0
11
92.605000
21
2.498000
31
0.0
0
LINE
8
0
6
CONTINUOUS
10
92.395000
20
1.502000
30
0.0
11
116.303000
21
1.004000
31
0.0
0
LINE
8
0
6
CONTINUOUS
10
92.605000
20
2.498000
30
0.0
11
65.000000
21
3.000000
31
0.0
0
LINE
8
0
6
CONTINUOUS
10
65.000000
20
2.000000
30
0.0
11
92.395000
21
1.502000
31
0.0
0
LINE
8
0
6
CONTINUOUS
10
175.299000
20
-4.991000
30
0.0
11
170.113000
21
-3.694000
31
0.0
0
LINE
8
0
6
CONTINUOUS
10
170.113000
20
-3.694000
30
0.0
11
163.918000
21
-2.685000
31
0.0
0
LINE
8
0
6
CONTINUOUS
10
163.918000
20
-2.685000
30
0.0
11
153.546000
21
-1.532000
31
0.0
0
LINE
8
0
6
CONTINUOUS
10
153.546000
20
-1.532000
30
0.0
11
137.700000
21
-0.379000
31
0.0
0
LINE
8
0
6
CONTINUOUS
10
137.700000
20
-0.379000
30
0.0
11
116.303000
21
1.004000
31
0.0
0
LINE
8
0
6
CONTINUOUS
10
116.303000
20
1.004000
30
0.0
11
92.395000
21
1.502000
31
0.0
0
LINE
8
0
6
CONTINUOUS
10
92.395000
20
1.502000
30
0.0
11
65.000000
21
2.000000
31
0.0
0
LINE
8
0
6
CONTINUOUS
10
65.000000
20
2.000000
30
0.0
11
35.000000
21
2.000000
31
0.0
0
LINE
8
0
6
CONTINUOUS
10
35.000000
20
2.000000
30
0.0
11
65.000000
21
2.000000
31
0.0
0
LINE
8
0
6
CONTINUOUS
10
65.000000
20
3.000000
30
0.0
11
35.000000
21
3.000000
31
0.0
0
LINE
8
0
6
CONTINUOUS
10
65.000000
20
-259.000000
30
0.0
11
0.000000
21
-259.000000
31
0.0
0
LINE
8
0
6
CONTINUOUS
10
183.954000
20
-246.954000
30
0.0
11
180.212000
21
-249.776000
31
0.0
0
LINE
8
0
6
CONTINUOUS
10
180.212000
20
-249.776000
30
0.0
11
176.147000
21
-251.955000
31
0.0
0
LINE
8
0
6
CONTINUOUS
10
176.147000
20
-251.955000
30
0.0
11
170.922000
21
-253.262000
31
0.0
0
LINE
8
0
6
CONTINUOUS
10
170.922000
20
-253.262000
30
0.0
11
164.679000
21
-254.279000
31
0.0
0
LINE
8
0
6
CONTINUOUS
10
164.679000
20
-254.279000
30
0.0
11
154.227000
21
-255.441000
31
0.0
0
LINE
8
0
6
CONTINUOUS
10
154.227000
20
-255.441000
30
0.0
11
138.259000
21
-256.603000
31
0.0
0
LINE
8
0
6
CONTINUOUS
10
138.259000
20
-256.603000
30
0.0
11
116.697000
21
-257.996000
31
0.0
0
LINE
8
0
6
CONTINUOUS
10
116.697000
20
-257.996000
30
0.0
11
92.605000
21
-258.498000
31
0.0
0
LINE
8
0
6
CONTINUOUS
10
92.605000
20
-258.498000
30
0.0
11
65.000000
21
-259.000000
31
0.0
0
LINE
8
0
6
CONTINUOUS
10
183.954000
20
-246.954000
30
0.0
11
186.776000
21
-243.212000
31
0.0
0
LINE
8
0
6
CONTINUOUS
10
186.776000
20
-243.212000
30
0.0
11
188.955000
21
-239.147000
31
0.0
0
LINE
8
0
6
CONTINUOUS
10
188.955000
20
-239.147000
30
0.0
11
190.262000
21
-233.922000
31
0.0
0
LINE
8
0
6
CONTINUOUS
10
189.306000
20
-233.113000
30
0.0
11
188.009000
21
-238.299000
31
0.0
0
LINE
8
0
6
CONTINUOUS
10
190.262000
20
-233.922000
30
0.0
11
191.279000
21
-227.679400
31
0.0
0
LINE
8
0
6
CONTINUOUS
10
190.315000
20
-226.918400
30
0.0
11
189.306000
21
-233.113000
31
0.0
0
LINE
8
0
6
CONTINUOUS
10
191.279000
20
-227.679400
30
0.0
11
192.441000
21
-217.227300
31
0.0
0
LINE
8
0
6
CONTINUOUS
10
191.468000
20
-216.546200
30
0.0
11
190.315000
21
-226.918400
31
0.0
0
LINE
8
0
6
CONTINUOUS
10
192.441000
20
-217.227300
30
0.0
11
193.603000
21
-201.259000
31
0.0
0
LINE
8
0
6
CONTINUOUS
10
192.621000
20
-200.699700
30
0.0
11
191.468000
21
-216.546200
31
0.0
0
LINE
8
0
6
CONTINUOUS
10
193.603000
20
-201.259000
30
0.0
11
194.996000
21
-179.697300
31
0.0
0
LINE
8
0
6
CONTINUOUS
10
194.004000
20
-179.302700
30
0.0
11
192.621000
21
-200.699700
31
0.0
0
LINE
8
0
6
CONTINUOUS
10
194.996000
20
-179.697300
30
0.0
11
195.498000
21
-155.605000
31
0.0
0
LINE
8
0
6
CONTINUOUS
10
194.502000
20
-155.395000
30
0.0
11
194.004000
21
-179.302700
31
0.0
0
LINE
8
0
6
CONTINUOUS
10
195.498000
20
-155.605000
30
0.0
11
196.000000
21
-128.000000
31
0.0
0
LINE
8
0
6
CONTINUOUS
10
195.000000
20
-128.000000
30
0.0
11
194.502000
21
-155.395000
31
0.0
0
LINE
8
0
6
CONTINUOUS
10
188.009000
20
-238.299000
30
0.0
11
189.306000
21
-233.113000
31
0.0
0
LINE
8
0
6
CONTINUOUS
10
189.306000
20
-233.113000
30
0.0
11
190.315000
21
-226.918400
31
0.0
0
LINE
8
0
6
CONTINUOUS
10
190.315000
20
-226.918400
30
0.0
11
191.468000
21
-216.546200
31
0.0
0
LINE
8
0
6
CONTINUOUS
10
191.468000
20
-216.546200
30
0.0
11
192.621000
21
-200.699700
31
0.0
0
LINE
8
0
6
CONTINUOUS
10
192.621000
20
-200.699700
30
0.0
11
194.004000
21
-179.302700
31
0.0
0
LINE
8
0
6
CONTINUOUS
10
194.004000
20
-179.302700
30
0.0
11
194.502000
21
-155.395000
31
0.0
0
LINE
8
0
6
CONTINUOUS
10
194.502000
20
-155.395000
30
0.0
11
195.000000
21
-128.000000
31
0.0
0
LINE
8
0
6
CONTINUOUS
10
0.000000
20
-258.000000
30
0.0
11
65.000000
21
-258.000000
31
0.0
0
LINE
8
0
6
CONTINUOUS
10
0.000000
20
-259.000000
30
0.0
11
65.000000
21
-259.000000
31
0.0
0
LINE
8
0
6
CONTINUOUS
10
65.000000
20
-258.000000
30
0.0
11
0.000000
21
-258.000000
31
0.0
0
LINE
8
0
6
CONTINUOUS
10
180.212000
20
-249.776000
30
0.0
11
183.954000
21
-246.954000
31
0.0
0
LINE
8
0
6
CONTINUOUS
10
176.147000
20
-251.955000
30
0.0
11
180.212000
21
-249.776000
31
0.0
0
LINE
8
0
6
CONTINUOUS
10
175.299000
20
-251.009000
30
0.0
11
170.113000
21
-252.306000
31
0.0
0
LINE
8
0
6
CONTINUOUS
10
170.922000
20
-253.262000
30
0.0
11
176.147000
21
-251.955000
31
0.0
0
LINE
8
0
6
CONTINUOUS
10
170.113000
20
-252.306000
30
0.0
11
163.918000
21
-253.315000
31
0.0
0
LINE
8
0
6
CONTINUOUS
10
164.679000
20
-254.279000
30
0.0
11
170.922000
21
-253.262000
31
0.0
0
LINE
8
0
6
CONTINUOUS
10
163.918000
20
-253.315000
30
0.0
11
153.546000
21
-254.468000
31
0.0
0
LINE
8
0
6
CONTINUOUS
10
154.227000
20
-255.441000
30
0.0
11
164.679000
21
-254.279000
31
0.0
0
LINE
8
0
6
CONTINUOUS
10
153.546000
20
-254.468000
30
0.0
11
137.700000
21
-255.621000
31
0.0
0
LINE
8
0
6
CONTINUOUS
10
138.259000
20
-256.603000
30
0.0
11
154.227000
21
-255.441000
31
0.0
0
LINE
8
0
6
CONTINUOUS
10
137.700000
20
-255.621000
30
0.0
11
116.303000
21
-257.004000
31
0.0
0
LINE
8
0
6
CONTINUOUS
10
116.697000
20
-257.996000
30
0.0
11
138.259000
21
-256.603000
31
0.0
0
LINE
8
0
6
CONTINUOUS
10
116.303000
20
-257.004000
30
0.0
11
92.395000
21
-257.502000
31
0.0
0
LINE
8
0
6
CONTINUOUS
10
92.605000
20
-258.498000
30
0.0
11
116.697000
21
-257.996000
31
0.0
0
LINE
8
0
6
CONTINUOUS
10
92.395000
20
-257.502000
30
0.0
11
65.000000
21
-258.000000
31
0.0
0
LINE
8
0
6
CONTINUOUS
10
65.000000
20
-259.000000
30
0.0
11
92.605000
21
-258.498000
31
0.0
0
LINE
8
0
6
CONTINUOUS
10
170.113000
20
-252.306000
30
0.0
11
175.299000
21
-251.009000
31
0.0
0
LINE
8
0
6
CONTINUOUS
10
163.918000
20
-253.315000
30
0.0
11
170.113000
21
-252.306000
31
0.0
0
LINE
8
0
6
CONTINUOUS
10
153.546000
20
-254.468000
30
0.0
11
163.918000
21
-253.315000
31
0.0
0
LINE
8
0
6
CONTINUOUS
10
137.700000
20
-255.621000
30
0.0
11
153.546000
21
-254.468000
31
0.0
0
LINE
8
0
6
CONTINUOUS
10
116.303000
20
-257.004000
30
0.0
11
137.700000
21
-255.621000
31
0.0
0
LINE
8
0
6
CONTINUOUS
10
92.395000
20
-257.502000
30
0.0
11
116.303000
21
-257.004000
31
0.0
0
LINE
8
0
6
CONTINUOUS
10
65.000000
20
-258.000000
30
0.0
11
92.395000
21
-257.502000
31
0.0
0
LINE
8
0
6
CONTINUOUS
10
186.776000
20
-243.212000
30
0.0
11
183.954000
21
-246.954000
31
0.0
0
LINE
8
0
6
CONTINUOUS
10
188.955000
20
-239.147000
30
0.0
11
186.776000
21
-243.212000
31
0.0
0
LINE
8
0
6
CONTINUOUS
10
190.262000
20
-233.922000
30
0.0
11
188.955000
21
-239.147000
31
0.0
0
LINE
8
0
6
CONTINUOUS
10
191.279000
20
-227.679400
30
0.0
11
190.262000
21
-233.922000
31
0.0
0
LINE
8
0
6
CONTINUOUS
10
192.441000
20
-217.227300
30
0.0
11
191.279000
21
-227.679400
31
0.0
0
LINE
8
0
6
CONTINUOUS
10
193.603000
20
-201.259000
30
0.0
11
192.441000
21
-217.227300
31
0.0
0
LINE
8
0
6
CONTINUOUS
10
194.996000
20
-179.697300
30
0.0
11
193.603000
21
-201.259000
31
0.0
0
LINE
8
0
6
CONTINUOUS
10
195.498000
20
-155.605000
30
0.0
11
194.996000
21
-179.697300
31
0.0
0
LINE
8
0
6
CONTINUOUS
10
196.000000
20
-128.000000
30
0.0
11
195.498000
21
-155.605000
31
0.0
0
LINE
8
0
6
CONTINUOUS
10
-65.000000
20
3.000000
30
0.0
11
-35.000000
21
3.000000
31
0.0
0
LINE
8
0
6
CONTINUOUS
10
-183.954000
20
-9.046000
30
0.0
11
-180.212200
21
-6.224000
31
0.0
0
LINE
8
0
6
CONTINUOUS
10
-180.212200
20
-6.224000
30
0.0
11
-176.147500
21
-4.045000
31
0.0
0
LINE
8
0
6
CONTINUOUS
10
-176.147500
20
-4.045000
30
0.0
11
-170.921500
21
-2.738000
31
0.0
0
LINE
8
0
6
CONTINUOUS
10
-170.921500
20
-2.738000
30
0.0
11
-164.679400
21
-1.721000
31
0.0
0
LINE
8
0
6
CONTINUOUS
10
-164.679400
20
-1.721000
30
0.0
11
-154.227300
21
-0.559000
31
0.0
0
LINE
8
0
6
CONTINUOUS
10
-154.227300
20
-0.559000
30
0.0
11
-138.259000
21
0.603000
31
0.0
0
LINE
8
0
6
CONTINUOUS
10
-138.259000
20
0.603000
30
0.0
11
-116.697300
21
1.996000
31
0.0
0
LINE
8
0
6
CONTINUOUS
10
-116.697300
20
1.996000
30
0.0
11
-92.605000
21
2.498000
31
0.0
0
LINE
8
0
6
CONTINUOUS
10
-92.605000
20
2.498000
30
0.0
11
-65.000000
21
3.000000
31
0.0
0
LINE
8
0
6
CONTINUOUS
10
-183.954000
20
-9.046000
30
0.0
11
-186.776130
21
-12.788000
31
0.0
0
LINE
8
0
6
CONTINUOUS
10
-186.776130
20
-12.788000
30
0.0
11
-188.954840
21
-16.853000
31
0.0
0
LINE
8
0
6
CONTINUOUS
10
-188.954840
20
-16.853000
30
0.0
11
-190.262070
21
-22.078000
31
0.0
0
LINE
8
0
6
CONTINUOUS
10
-189.305870
20
-22.887000
30
0.0
11
-188.008620
21
-17.701000
31
0.0
0
LINE
8
0
6
CONTINUOUS
10
-190.262070
20
-22.078000
30
0.0
11
-191.278810
21
-28.320600
31
0.0
0
LINE
8
0
6
CONTINUOUS
10
-190.314850
20
-29.081600
30
0.0
11
-189.305870
21
-22.887000
31
0.0
0
LINE
8
0
6
CONTINUOUS
10
-191.278810
20
-28.320600
30
0.0
11
-192.440790
21
-38.772700
31
0.0
0
LINE
8
0
6
CONTINUOUS
10
-191.467960
20
-39.453800
30
0.0
11
-190.314850
21
-29.081600
31
0.0
0
LINE
8
0
6
CONTINUOUS
10
-192.440790
20
-38.772700
30
0.0
11
-193.602770
21
-54.741000
31
0.0
0
LINE
8
0
6
CONTINUOUS
10
-192.621070
20
-55.300300
30
0.0
11
-191.467960
21
-39.453800
31
0.0
0
LINE
8
0
6
CONTINUOUS
10
-193.602770
20
-54.741000
30
0.0
11
-194.996170
21
-76.302700
31
0.0
0
LINE
8
0
6
CONTINUOUS
10
-194.003830
20
-76.697300
30
0.0
11
-192.621070
21
-55.300300
31
0.0
0
LINE
8
0
6
CONTINUOUS
10
-194.996170
20
-76.302700
30
0.0
11
-195.498084
21
-100.395000
31
0.0
0
LINE
8
0
6
CONTINUOUS
10
-194.501920
20
-100.605000
30
0.0
11
-194.003830
21
-76.697300
31
0.0
0
LINE
8
0
6
CONTINUOUS
10
-195.498084
20
-100.395000
30
0.0
11
-196.000000
21
-128.000000
31
0.0
0
LINE
8
0
6
CONTINUOUS
10
-195.000000
20
-128.000000
30
0.0
11
-194.501920
21
-100.605000
31
0.0
0
LINE
8
0
6
CONTINUOUS
10
-188.008620
20
-17.701000
30
0.0
11
-189.305870
21
-22.887000
31
0.0
0
LINE
8
0
6
CONTINUOUS
10
-189.305870
20
-22.887000
30
0.0
11
-190.314850
21
-29.081600
31
0.0
0
LINE
8
0
6
CONTINUOUS
10
-190.314850
20
-29.081600
30
0.0
11
-191.467960
21
-39.453800
31
0.0
0
LINE
8
0
6
CONTINUOUS
10
-191.467960
20
-39.453800
30
0.0
11
-192.621070
21
-55.300300
31
0.0
0
LINE
8
0
6
CONTINUOUS
10
-192.621070
20
-55.300300
30
0.0
11
-194.003830
21
-76.697300
31
0.0
0
LINE
8
0
6
CONTINUOUS
10
-194.003830
20
-76.697300
30
0.0
11
-194.501920
21
-100.605000
31
0.0
0
LINE
8
0
6
CONTINUOUS
10
-194.501920
20
-100.605000
30
0.0
11
-195.000000
21
-128.000000
31
0.0
0
LINE
8
0
6
CONTINUOUS
10
-35.000000
20
2.000000
30
0.0
11
-65.000000
21
2.000000
31
0.0
0
LINE
8
0
6
CONTINUOUS
10
-35.000000
20
3.000000
30
0.0
11
-65.000000
21
3.000000
31
0.0
0
LINE
8
0
6
CONTINUOUS
10
-65.000000
20
2.000000
30
0.0
11
-35.000000
21
2.000000
31
0.0
0
LINE
8
0
6
CONTINUOUS
10
-180.212200
20
-6.224000
30
0.0
11
-183.954000
21
-9.046000
31
0.0
0
LINE
8
0
6
CONTINUOUS
10
-176.147500
20
-4.045000
30
0.0
11
-180.212200
21
-6.224000
31
0.0
0
LINE
8
0
6
CONTINUOUS
10
-175.299100
20
-4.991000
30
0.0
11
-170.113000
21
-3.694000
31
0.0
0
LINE
8
0
6
CONTINUOUS
10
-170.921500
20
-2.738000
30
0.0
11
-176.147500
21
-4.045000
31
0.0
0
LINE
8
0
6
CONTINUOUS
10
-170.113000
20
-3.694000
30
0.0
11
-163.918400
21
-2.685000
31
0.0
0
LINE
8
0
6
CONTINUOUS
10
-164.679400
20
-1.721000
30
0.0
11
-170.921500
21
-2.738000
31
0.0
0
LINE
8
0
6
CONTINUOUS
10
-163.918400
20
-2.685000
30
0.0
11
-153.546200
21
-1.532000
31
0.0
0
LINE
8
0
6
CONTINUOUS
10
-154.227300
20
-0.559000
30
0.0
11
-164.679400
21
-1.721000
31
0.0
0
LINE
8
0
6
CONTINUOUS
10
-153.546200
20
-1.532000
30
0.0
11
-137.699700
21
-0.379000
31
0.0
0
LINE
8
0
6
CONTINUOUS
10
-138.259000
20
0.603000
30
0.0
11
-154.227300
21
-0.559000
31
0.0
0
LINE
8
0
6
CONTINUOUS
10
-137.699700
20
-0.379000
30
0.0
11
-116.302700
21
1.004000
31
0.0
0
LINE
8
0
6
CONTINUOUS
10
-116.697300
20
1.996000
30
0.0
11
-138.259000
21
0.603000
31
0.0
0
LINE
8
0
6
CONTINUOUS
10
-116.302700
20
1.004000
30
0.0
11
-92.395000
21
1.502000
31
0.0
0
LINE
8
0
6
CONTINUOUS
10
-92.605000
20
2.498000
30
0.0
11
-116.697300
21
1.996000
31
0.0
0
LINE
8
0
6
CONTINUOUS
10
-92.395000
20
1.502000
30
0.0
11
-65.000000
21
2.000000
31
0.0
0
LINE
8
0
6
CONTINUOUS
10
-65.000000
20
3.000000
30
0.0
11
-92.605000
21
2.498000
31
0.0
0
LINE
8
0
6
CONTINUOUS
10
-170.113000
20
-3.694000
30
0.0
11
-175.299100
21
-4.991000
31
0.0
0
LINE
8
0
6
CONTINUOUS
10
-163.918400
20
-2.685000
30
0.0
11
-170.113000
21
-3.694000
31
0.0
0
LINE
8
0
6
CONTINUOUS
10
-153.546200
20
-1.532000
30
0.0
11
-163.918400
21
-2.685000
31
0.0
0
LINE
8
0
6
CONTINUOUS
10
-137.699700
20
-0.379000
30
0.0
11
-153.546200
21
-1.532000
31
0.0
0
LINE
8
0
6
CONTINUOUS
10
-116.302700
20
1.004000
30
0.0
11
-137.699700
21
-0.379000
31
0.0
0
LINE
8
0
6
CONTINUOUS
10
-92.395000
20
1.502000
30
0.0
11
-116.302700
21
1.004000
31
0.0
0
LINE
8
0
6
CONTINUOUS
10
-65.000000
20
2.000000
30
0.0
11
-92.395000
21
1.502000
31
0.0
0
LINE
8
0
6
CONTINUOUS
10
-186.776130
20
-12.788000
30
0.0
11
-183.954000
21
-9.046000
31
0.0
0
LINE
8
0
6
CONTINUOUS
10
-188.954840
20
-16.853000
30
0.0
11
-186.776130
21
-12.788000
31
0.0
0
LINE
8
0
6
CONTINUOUS
10
-190.262070
20
-22.078000
30
0.0
11
-188.954840
21
-16.853000
31
0.0
0
LINE
8
0
6
CONTINUOUS
10
-191.278810
20
-28.320600
30
0.0
11
-190.262070
21
-22.078000
31
0.0
0
LINE
8
0
6
CONTINUOUS
10
-192.440790
20
-38.772700
30
0.0
11
-191.278810
21
-28.320600
31
0.0
0
LINE
8
0
6
CONTINUOUS
10
-193.602770
20
-54.741000
30
0.0
11
-192.440790
21
-38.772700
31
0.0
0
LINE
8
0
6
CONTINUOUS
10
-194.996170
20
-76.302700
30
0.0
11
-193.602770
21
-54.741000
31
0.0
0
LINE
8
0
6
CONTINUOUS
10
-195.498084
20
-100.395000
30
0.0
11
-194.996170
21
-76.302700
31
0.0
0
LINE
8
0
6
CONTINUOUS
10
-196.000000
20
-128.000000
30
0.0
11
-195.498084
21
-100.395000
31
0.0
0
LINE
8
0
6
CONTINUOUS
10
-65.000000
20
-258.000000
30
0.0
11
0.000000
21
-258.000000
31
0.0
0
LINE
8
0
6
CONTINUOUS
10
0.000000
20
-258.000000
30
0.0
11
-65.000000
21
-258.000000
31
0.0
0
LINE
8
0
6
CONTINUOUS
10
-65.000000
20
-259.000000
30
0.0
11
0.000000
21
-259.000000
31
0.0
0
LINE
8
0
6
CONTINUOUS
10
0.000000
20
-259.000000
30
0.0
11
-65.000000
21
-259.000000
31
0.0
0
LINE
8
0
6
CONTINUOUS
10
-180.212200
20
-249.776000
30
0.0
11
-183.954000
21
-246.954000
31
0.0
0
LINE
8
0
6
CONTINUOUS
10
-176.147500
20
-251.955000
30
0.0
11
-180.212200
21
-249.776000
31
0.0
0
LINE
8
0
6
CONTINUOUS
10
-170.921500
20
-253.262000
30
0.0
11
-176.147500
21
-251.955000
31
0.0
0
LINE
8
0
6
CONTINUOUS
10
-164.679400
20
-254.279000
30
0.0
11
-170.921500
21
-253.262000
31
0.0
0
LINE
8
0
6
CONTINUOUS
10
-154.227300
20
-255.441000
30
0.0
11
-164.679400
21
-254.279000
31
0.0
0
LINE
8
0
6
CONTINUOUS
10
-138.259000
20
-256.603000
30
0.0
11
-154.227300
21
-255.441000
31
0.0
0
LINE
8
0
6
CONTINUOUS
10
-116.697300
20
-257.996000
30
0.0
11
-138.259000
21
-256.603000
31
0.0
0
LINE
8
0
6
CONTINUOUS
10
-92.605000
20
-258.498000
30
0.0
11
-116.697300
21
-257.996000
31
0.0
0
LINE
8
0
6
CONTINUOUS
10
-65.000000
20
-259.000000
30
0.0
11
-92.605000
21
-258.498000
31
0.0
0
LINE
8
0
6
CONTINUOUS
10
-183.954000
20
-246.954000
30
0.0
11
-180.212200
21
-249.776000
31
0.0
0
LINE
8
0
6
CONTINUOUS
10
-180.212200
20
-249.776000
30
0.0
11
-176.147500
21
-251.955000
31
0.0
0
LINE
8
0
6
CONTINUOUS
10
-176.147500
20
-251.955000
30
0.0
11
-170.921500
21
-253.262000
31
0.0
0
LINE
8
0
6
CONTINUOUS
10
-170.113000
20
-252.306000
30
0.0
11
-175.299100
21
-251.009000
31
0.0
0
LINE
8
0
6
CONTINUOUS
10
-170.921500
20
-253.262000
30
0.0
11
-164.679400
21
-254.279000
31
0.0
0
LINE
8
0
6
CONTINUOUS
10
-163.918400
20
-253.315000
30
0.0
11
-170.113000
21
-252.306000
31
0.0
0
LINE
8
0
6
CONTINUOUS
10
-164.679400
20
-254.279000
30
0.0
11
-154.227300
21
-255.441000
31
0.0
0
LINE
8
0
6
CONTINUOUS
10
-153.546200
20
-254.468000
30
0.0
11
-163.918400
21
-253.315000
31
0.0
0
LINE
8
0
6
CONTINUOUS
10
-154.227300
20
-255.441000
30
0.0
11
-138.259000
21
-256.603000
31
0.0
0
LINE
8
0
6
CONTINUOUS
10
-137.699700
20
-255.621000
30
0.0
11
-153.546200
21
-254.468000
31
0.0
0
LINE
8
0
6
CONTINUOUS
10
-138.259000
20
-256.603000
30
0.0
11
-116.697300
21
-257.996000
31
0.0
0
LINE
8
0
6
CONTINUOUS
10
-116.302700
20
-257.004000
30
0.0
11
-137.699700
21
-255.621000
31
0.0
0
LINE
8
0
6
CONTINUOUS
10
-116.697300
20
-257.996000
30
0.0
11
-92.605000
21
-258.498000
31
0.0
0
LINE
8
0
6
CONTINUOUS
10
-92.395000
20
-257.502000
30
0.0
11
-116.302700
21
-257.004000
31
0.0
0
LINE
8
0
6
CONTINUOUS
10
-92.605000
20
-258.498000
30
0.0
11
-65.000000
21
-259.000000
31
0.0
0
LINE
8
0
6
CONTINUOUS
10
-65.000000
20
-258.000000
30
0.0
11
-92.395000
21
-257.502000
31
0.0
0
LINE
8
0
6
CONTINUOUS
10
-175.299100
20
-251.009000
30
0.0
11
-170.113000
21
-252.306000
31
0.0
0
LINE
8
0
6
CONTINUOUS
10
-170.113000
20
-252.306000
30
0.0
11
-163.918400
21
-253.315000
31
0.0
0
LINE
8
0
6
CONTINUOUS
10
-163.918400
20
-253.315000
30
0.0
11
-153.546200
21
-254.468000
31
0.0
0
LINE
8
0
6
CONTINUOUS
10
-153.546200
20
-254.468000
30
0.0
11
-137.699700
21
-255.621000
31
0.0
0
LINE
8
0
6
CONTINUOUS
10
-137.699700
20
-255.621000
30
0.0
11
-116.302700
21
-257.004000
31
0.0
0
LINE
8
0
6
CONTINUOUS
10
-116.302700
20
-257.004000
30
0.0
11
-92.395000
21
-257.502000
31
0.0
0
LINE
8
0
6
CONTINUOUS
10
-92.395000
20
-257.502000
30
0.0
11
-65.000000
21
-258.000000
31
0.0
0
LINE
8
0
6
CONTINUOUS
10
-186.776130
20
-243.212000
30
0.0
11
-183.954000
21
-246.954000
31
0.0
0
LINE
8
0
6
CONTINUOUS
10
-188.954840
20
-239.147000
30
0.0
11
-186.776130
21
-243.212000
31
0.0
0
LINE
8
0
6
CONTINUOUS
10
-188.008620
20
-238.299000
30
0.0
11
-189.305870
21
-233.113000
31
0.0
0
LINE
8
0
6
CONTINUOUS
10
-190.262070
20
-233.922000
30
0.0
11
-188.954840
21
-239.147000
31
0.0
0
LINE
8
0
6
CONTINUOUS
10
-189.305870
20
-233.113000
30
0.0
11
-190.314850
21
-226.918400
31
0.0
0
LINE
8
0
6
CONTINUOUS
10
-191.278810
20
-227.679400
30
0.0
11
-190.262070
21
-233.922000
31
0.0
0
LINE
8
0
6
CONTINUOUS
10
-190.314850
20
-226.918400
30
0.0
11
-191.467960
21
-216.546200
31
0.0
0
LINE
8
0
6
CONTINUOUS
10
-192.440790
20
-217.227300
30
0.0
11
-191.278810
21
-227.679400
31
0.0
0
LINE
8
0
6
CONTINUOUS
10
-191.467960
20
-216.546200
30
0.0
11
-192.621070
21
-200.699700
31
0.0
0
LINE
8
0
6
CONTINUOUS
10
-193.602770
20
-201.259000
30
0.0
11
-192.440790
21
-217.227300
31
0.0
0
LINE
8
0
6
CONTINUOUS
10
-192.621070
20
-200.699700
30
0.0
11
-194.003830
21
-179.302700
31
0.0
0
LINE
8
0
6
CONTINUOUS
10
-194.996170
20
-179.697300
30
0.0
11
-193.602770
21
-201.259000
31
0.0
0
LINE
8
0
6
CONTINUOUS
10
-194.003830
20
-179.302700
30
0.0
11
-194.501920
21
-155.395000
31
0.0
0
LINE
8
0
6
CONTINUOUS
10
-195.498084
20
-155.605000
30
0.0
11
-194.996170
21
-179.697300
31
0.0
0
LINE
8
0
6
CONTINUOUS
10
-194.501920
20
-155.395000
30
0.0
11
-195.000000
21
-128.000000
31
0.0
0
LINE
8
0
6
CONTINUOUS
10
-196.000000
20
-128.000000
30
0.0
11
-195.498084
21
-155.605000
31
0.0
0
LINE
8
0
6
CONTINUOUS
10
-189.305870
20
-233.113000
30
0.0
11
-188.008620
21
-238.299000
31
0.0
0
LINE
8
0
6
CONTINUOUS
10
-190.314850
20
-226.918400
30
0.0
11
-189.305870
21
-233.113000
31
0.0
0
LINE
8
0
6
CONTINUOUS
10
-191.467960
20
-216.546200
30
0.0
11
-190.314850
21
-226.918400
31
0.0
0
LINE
8
0
6
CONTINUOUS
10
-192.621070
20
-200.699700
30
0.0
11
-191.467960
21
-216.546200
31
0.0
0
LINE
8
0
6
CONTINUOUS
10
-194.003830
20
-179.302700
30
0.0
11
-192.621070
21
-200.699700
31
0.0
0
LINE
8
0
6
CONTINUOUS
10
-194.501920
20
-155.395000
30
0.0
11
-194.003830
21
-179.302700
31
0.0
0
LINE
8
0
6
CONTINUOUS
10
-195.000000
20
-128.000000
30
0.0
11
-194.501920
21
-155.395000
31
0.0
0
LINE
8
0
6
CONTINUOUS
10
-183.954000
20
-246.954000
30
0.0
11
-186.776130
21
-243.212000
31
0.0
0
LINE
8
0
6
CONTINUOUS
10
-186.776130
20
-243.212000
30
0.0
11
-188.954840
21
-239.147000
31
0.0
0
LINE
8
0
6
CONTINUOUS
10
-188.954840
20
-239.147000
30
0.0
11
-190.262070
21
-233.922000
31
0.0
0
LINE
8
0
6
CONTINUOUS
10
-190.262070
20
-233.922000
30
0.0
11
-191.278810
21
-227.679400
31
0.0
0
LINE
8
0
6
CONTINUOUS
10
-191.278810
20
-227.679400
30
0.0
11
-192.440790
21
-217.227300
31
0.0
0
LINE
8
0
6
CONTINUOUS
10
-192.440790
20
-217.227300
30
0.0
11
-193.602770
21
-201.259000
31
0.0
0
LINE
8
0
6
CONTINUOUS
10
-193.602770
20
-201.259000
30
0.0
11
-194.996170
21
-179.697300
31
0.0
0
LINE
8
0
6
CONTINUOUS
10
-194.996170
20
-179.697300
30
0.0
11
-195.498084
21
-155.605000
31
0.0
0
LINE
8
0
6
CONTINUOUS
10
-195.498084
20
-155.605000
30
0.0
11
-196.000000
21
-128.000000
31
0.0
0
ENDSEC
0
EOF
