999
Erzeugt mit innoplus bad 
0
SECTION
2
HEADER
9
$ACADVER
1
AC1009
9
$DWGCODEPAGE
3
ISO8859-1
0
ENDSEC
0
SECTION
2
TABLES
0
TABLE
2
LAYER
70
1
0
LAYER
2
0
70
0
62
7
6
CONTINUOUS
0
ENDTAB
0
ENDSEC
0
SECTION
2
ENTITIES
0
LINE
8
0
6
CONTINUOUS
10
154.897000
20
-54.500000
30
0.0
11
163.069000
21
-52.500000
31
0.0
0
LINE
8
0
6
CONTINUOUS
10
141.208550
20
-56.384294
30
0.0
11
151.183043
21
-55.011247
31
0.0
0
LINE
8
0
6
CONTINUOUS
10
153.617610
20
-54.676115
30
0.0
11
154.897000
21
-54.500000
31
0.0
0
LINE
8
0
6
CONTINUOUS
10
174.874000
20
-45.500000
30
0.0
11
171.417000
21
-45.500000
31
0.0
0
LINE
8
0
6
CONTINUOUS
10
171.417000
20
-45.500000
30
0.0
11
167.663000
21
-45.500000
31
0.0
0
LINE
8
0
6
CONTINUOUS
10
167.663000
20
-45.500000
30
0.0
11
162.836000
21
-45.500000
31
0.0
0
LINE
8
0
6
CONTINUOUS
10
162.836000
20
-45.500000
30
0.0
11
157.070000
21
-45.500000
31
0.0
0
LINE
8
0
6
CONTINUOUS
10
157.070000
20
-45.500000
30
0.0
11
147.416000
21
-45.500000
31
0.0
0
LINE
8
0
6
CONTINUOUS
10
147.416000
20
-45.500000
30
0.0
11
132.667000
21
-45.500000
31
0.0
0
LINE
8
0
6
CONTINUOUS
10
132.667000
20
-45.500000
30
0.0
11
112.751000
21
-45.500000
31
0.0
0
LINE
8
0
6
CONTINUOUS
10
112.751000
20
-45.500000
30
0.0
11
90.498000
21
-45.500000
31
0.0
0
LINE
8
0
6
CONTINUOUS
10
90.498000
20
-45.500000
30
0.0
11
65.000000
21
-45.500000
31
0.0
0
LINE
8
0
6
CONTINUOUS
10
97.690000
20
-58.500000
30
0.0
11
96.661000
21
-58.500000
31
0.0
0
LINE
8
0
6
CONTINUOUS
10
94.108000
20
-58.500000
30
0.0
11
92.393000
21
-58.500000
31
0.0
0
LINE
8
0
6
CONTINUOUS
10
92.393000
20
-58.500000
30
0.0
11
89.520000
21
-58.500000
31
0.0
0
LINE
8
0
6
CONTINUOUS
10
85.132000
20
-58.500000
30
0.0
11
83.405000
21
-58.500000
31
0.0
0
LINE
8
0
6
CONTINUOUS
10
80.405000
20
-58.500000
30
0.0
11
79.207000
21
-58.500000
31
0.0
0
LINE
8
0
6
CONTINUOUS
10
79.207000
20
-58.500000
30
0.0
11
74.370000
21
-58.500000
31
0.0
0
LINE
8
0
6
CONTINUOUS
10
71.370000
20
-58.500000
30
0.0
11
66.500000
21
-58.500000
31
0.0
0
LINE
8
0
6
CONTINUOUS
10
163.069000
20
-52.500000
30
0.0
11
154.897000
21
-54.500000
31
0.0
0
LINE
8
0
6
CONTINUOUS
10
164.000000
20
-54.500000
30
0.0
11
173.000000
21
-52.500000
31
0.0
0
LINE
8
0
6
CONTINUOUS
10
173.000000
20
-52.500000
30
0.0
11
180.000000
21
-49.500000
31
0.0
0
LINE
8
0
6
CONTINUOUS
10
133.040128
20
-57.331104
30
0.0
11
139.107354
21
-56.994036
31
0.0
0
LINE
8
0
6
CONTINUOUS
10
142.104251
20
-56.827542
30
0.0
11
143.326229
21
-56.759654
31
0.0
0
LINE
8
0
6
CONTINUOUS
10
147.563479
20
-56.524251
30
0.0
11
148.000000
21
-56.500000
31
0.0
0
LINE
8
0
6
CONTINUOUS
10
180.000000
20
-49.500000
30
0.0
11
184.000000
21
-47.500000
31
0.0
0
LINE
8
0
6
CONTINUOUS
10
154.897000
20
-54.500000
30
0.0
11
153.617674
21
-54.676107
31
0.0
0
LINE
8
0
6
CONTINUOUS
10
151.183043
20
-55.011247
30
0.0
11
141.208554
21
-56.384293
31
0.0
0
LINE
8
0
6
CONTINUOUS
10
148.000000
20
-56.500000
30
0.0
11
156.072712
21
-55.490911
31
0.0
0
LINE
8
0
6
CONTINUOUS
10
162.485320
20
-54.689335
30
0.0
11
164.000000
21
-54.500000
31
0.0
0
LINE
8
0
6
CONTINUOUS
10
177.480000
20
-45.500000
30
0.0
11
174.874000
21
-45.500000
31
0.0
0
LINE
8
0
6
CONTINUOUS
10
179.493000
20
-45.500000
30
0.0
11
177.480000
21
-45.500000
31
0.0
0
LINE
8
0
6
CONTINUOUS
10
180.700000
20
-45.500000
30
0.0
11
179.493000
21
-45.500000
31
0.0
0
LINE
8
0
6
CONTINUOUS
10
181.639000
20
-45.500000
30
0.0
11
180.700000
21
-45.500000
31
0.0
0
LINE
8
0
6
CONTINUOUS
10
182.712000
20
-45.500000
30
0.0
11
181.639000
21
-45.500000
31
0.0
0
LINE
8
0
6
CONTINUOUS
10
183.786000
20
-45.500000
30
0.0
11
182.712000
21
-45.500000
31
0.0
0
LINE
8
0
6
CONTINUOUS
10
185.073000
20
-45.500000
30
0.0
11
183.786000
21
-45.500000
31
0.0
0
LINE
8
0
6
CONTINUOUS
10
185.536000
20
-45.500000
30
0.0
11
185.073000
21
-45.500000
31
0.0
0
LINE
8
0
6
CONTINUOUS
10
184.000000
20
-47.500000
30
0.0
11
186.000000
21
-45.500000
31
0.0
0
LINE
8
0
6
CONTINUOUS
10
186.000000
20
-45.500000
30
0.0
11
185.536000
21
-45.500000
31
0.0
0
LINE
8
0
6
CONTINUOUS
10
104.558000
20
-58.377310
30
0.0
11
107.657000
21
-58.270448
31
0.0
0
LINE
8
0
6
CONTINUOUS
10
110.657000
20
-58.167000
30
0.0
11
112.942926
21
-58.088175
31
0.0
0
LINE
8
0
6
CONTINUOUS
10
118.455752
20
-57.898078
30
0.0
11
119.044000
21
-57.877793
31
0.0
0
LINE
8
0
6
CONTINUOUS
10
122.044000
20
-57.774345
30
0.0
11
127.314172
21
-57.592615
31
0.0
0
LINE
8
0
6
CONTINUOUS
10
98.465000
20
-58.500000
30
0.0
11
97.690000
21
-58.500000
31
0.0
0
LINE
8
0
6
CONTINUOUS
10
99.064000
20
-58.500000
30
0.0
11
98.465000
21
-58.500000
31
0.0
0
LINE
8
0
6
CONTINUOUS
10
99.423000
20
-58.500000
30
0.0
11
99.064000
21
-58.500000
31
0.0
0
LINE
8
0
6
CONTINUOUS
10
99.703000
20
-58.500000
30
0.0
11
99.423000
21
-58.500000
31
0.0
0
LINE
8
0
6
CONTINUOUS
10
100.022000
20
-58.500000
30
0.0
11
99.703000
21
-58.500000
31
0.0
0
LINE
8
0
6
CONTINUOUS
10
100.341000
20
-58.500000
30
0.0
11
100.022000
21
-58.500000
31
0.0
0
LINE
8
0
6
CONTINUOUS
10
100.724000
20
-58.500000
30
0.0
11
100.341000
21
-58.500000
31
0.0
0
LINE
8
0
6
CONTINUOUS
10
100.862000
20
-58.500000
30
0.0
11
100.724000
21
-58.500000
31
0.0
0
LINE
8
0
6
CONTINUOUS
10
100.972924
20
-58.500000
30
0.0
11
100.862000
21
-58.500000
31
0.0
0
LINE
8
0
6
CONTINUOUS
10
65.000000
20
-45.500000
30
0.0
11
0.000000
21
-45.500000
31
0.0
0
LINE
8
0
6
CONTINUOUS
10
63.500000
20
-58.500000
30
0.0
11
59.370000
21
-58.500000
31
0.0
0
LINE
8
0
6
CONTINUOUS
10
56.370000
20
-58.500000
30
0.0
11
51.500000
21
-58.500000
31
0.0
0
LINE
8
0
6
CONTINUOUS
10
48.500000
20
-58.500000
30
0.0
11
44.370000
21
-58.500000
31
0.0
0
LINE
8
0
6
CONTINUOUS
10
41.370000
20
-58.500000
30
0.0
11
36.500000
21
-58.500000
31
0.0
0
LINE
8
0
6
CONTINUOUS
10
33.500000
20
-58.500000
30
0.0
11
29.370000
21
-58.500000
31
0.0
0
LINE
8
0
6
CONTINUOUS
10
26.370000
20
-58.500000
30
0.0
11
21.500000
21
-58.500000
31
0.0
0
LINE
8
0
6
CONTINUOUS
10
18.500000
20
-58.500000
30
0.0
11
14.370000
21
-58.500000
31
0.0
0
LINE
8
0
6
CONTINUOUS
10
11.370000
20
-58.500000
30
0.0
11
8.532000
21
-58.500000
31
0.0
0
LINE
8
0
6
CONTINUOUS
10
5.532000
20
-58.500000
30
0.0
11
2.166000
21
-58.500000
31
0.0
0
LINE
8
0
6
CONTINUOUS
10
0.000000
20
-45.500000
30
0.0
11
-65.000000
21
-45.500000
31
0.0
0
LINE
8
0
6
CONTINUOUS
10
-0.834000
20
-58.500000
30
0.0
11
-3.500000
21
-58.500000
31
0.0
0
LINE
8
0
6
CONTINUOUS
10
-6.500000
20
-58.500000
30
0.0
11
-11.370000
21
-58.500000
31
0.0
0
LINE
8
0
6
CONTINUOUS
10
-14.370000
20
-58.500000
30
0.0
11
-18.500000
21
-58.500000
31
0.0
0
LINE
8
0
6
CONTINUOUS
10
-21.500000
20
-58.500000
30
0.0
11
-26.370000
21
-58.500000
31
0.0
0
LINE
8
0
6
CONTINUOUS
10
-29.370000
20
-58.500000
30
0.0
11
-33.500000
21
-58.500000
31
0.0
0
LINE
8
0
6
CONTINUOUS
10
-36.500000
20
-58.500000
30
0.0
11
-41.370000
21
-58.500000
31
0.0
0
LINE
8
0
6
CONTINUOUS
10
-44.370000
20
-58.500000
30
0.0
11
-48.500000
21
-58.500000
31
0.0
0
LINE
8
0
6
CONTINUOUS
10
-51.500000
20
-58.500000
30
0.0
11
-56.370000
21
-58.500000
31
0.0
0
LINE
8
0
6
CONTINUOUS
10
-59.370000
20
-58.500000
30
0.0
11
-63.500000
21
-58.500000
31
0.0
0
LINE
8
0
6
CONTINUOUS
10
-163.069000
20
-52.500000
30
0.0
11
-154.896500
21
-54.500000
31
0.0
0
LINE
8
0
6
CONTINUOUS
10
-154.896500
20
-54.500000
30
0.0
11
-153.617242
21
-54.676101
31
0.0
0
LINE
8
0
6
CONTINUOUS
10
-151.183003
20
-55.011195
30
0.0
11
-141.208443
21
-56.384278
31
0.0
0
LINE
8
0
6
CONTINUOUS
10
-171.417400
20
-45.500000
30
0.0
11
-174.873600
21
-45.500000
31
0.0
0
LINE
8
0
6
CONTINUOUS
10
-167.663000
20
-45.500000
30
0.0
11
-171.417400
21
-45.500000
31
0.0
0
LINE
8
0
6
CONTINUOUS
10
-162.835900
20
-45.500000
30
0.0
11
-167.663000
21
-45.500000
31
0.0
0
LINE
8
0
6
CONTINUOUS
10
-157.070200
20
-45.500000
30
0.0
11
-162.835900
21
-45.500000
31
0.0
0
LINE
8
0
6
CONTINUOUS
10
-147.416100
20
-45.500000
30
0.0
11
-157.070200
21
-45.500000
31
0.0
0
LINE
8
0
6
CONTINUOUS
10
-132.666700
20
-45.500000
30
0.0
11
-147.416100
21
-45.500000
31
0.0
0
LINE
8
0
6
CONTINUOUS
10
-112.751000
20
-45.500000
30
0.0
11
-132.666700
21
-45.500000
31
0.0
0
LINE
8
0
6
CONTINUOUS
10
-90.498000
20
-45.500000
30
0.0
11
-112.751000
21
-45.500000
31
0.0
0
LINE
8
0
6
CONTINUOUS
10
-65.000000
20
-45.500000
30
0.0
11
-90.498000
21
-45.500000
31
0.0
0
LINE
8
0
6
CONTINUOUS
10
-96.661400
20
-58.500000
30
0.0
11
-97.689700
21
-58.500000
31
0.0
0
LINE
8
0
6
CONTINUOUS
10
-92.393000
20
-58.500000
30
0.0
11
-94.108000
21
-58.500000
31
0.0
0
LINE
8
0
6
CONTINUOUS
10
-89.520000
20
-58.500000
30
0.0
11
-92.393000
21
-58.500000
31
0.0
0
LINE
8
0
6
CONTINUOUS
10
-79.207000
20
-58.500000
30
0.0
11
-80.405000
21
-58.500000
31
0.0
0
LINE
8
0
6
CONTINUOUS
10
-83.405000
20
-58.500000
30
0.0
11
-85.132000
21
-58.500000
31
0.0
0
LINE
8
0
6
CONTINUOUS
10
-74.370000
20
-58.500000
30
0.0
11
-79.189000
21
-58.500000
31
0.0
0
LINE
8
0
6
CONTINUOUS
10
-66.500000
20
-58.500000
30
0.0
11
-71.370000
21
-58.500000
31
0.0
0
LINE
8
0
6
CONTINUOUS
10
-154.896600
20
-54.500000
30
0.0
11
-163.069000
21
-52.500000
31
0.0
0
LINE
8
0
6
CONTINUOUS
10
-173.000000
20
-52.500000
30
0.0
11
-164.000000
21
-54.500000
31
0.0
0
LINE
8
0
6
CONTINUOUS
10
-180.000000
20
-49.500000
30
0.0
11
-173.000000
21
-52.500000
31
0.0
0
LINE
8
0
6
CONTINUOUS
10
-148.000000
20
-56.500000
30
0.0
11
-147.563545
21
-56.524247
31
0.0
0
LINE
8
0
6
CONTINUOUS
10
-143.326104
20
-56.759661
30
0.0
11
-142.103853
21
-56.827564
31
0.0
0
LINE
8
0
6
CONTINUOUS
10
-139.107553
20
-56.994025
30
0.0
11
-133.040463
21
-57.331085
31
0.0
0
LINE
8
0
6
CONTINUOUS
10
-184.000000
20
-47.500000
30
0.0
11
-180.000000
21
-49.500000
31
0.0
0
LINE
8
0
6
CONTINUOUS
10
-141.208452
20
-56.384278
30
0.0
11
-151.183004
21
-55.011205
31
0.0
0
LINE
8
0
6
CONTINUOUS
10
-153.617370
20
-54.676096
30
0.0
11
-154.896600
21
-54.500000
31
0.0
0
LINE
8
0
6
CONTINUOUS
10
-164.000000
20
-54.500000
30
0.0
11
-162.485615
21
-54.689298
31
0.0
0
LINE
8
0
6
CONTINUOUS
10
-156.073008
20
-55.490874
30
0.0
11
-148.000000
21
-56.500000
31
0.0
0
LINE
8
0
6
CONTINUOUS
10
-174.873600
20
-45.500000
30
0.0
11
-177.480200
21
-45.500000
31
0.0
0
LINE
8
0
6
CONTINUOUS
10
-177.480200
20
-45.500000
30
0.0
11
-179.492600
21
-45.500000
31
0.0
0
LINE
8
0
6
CONTINUOUS
10
-179.492600
20
-45.500000
30
0.0
11
-180.700100
21
-45.500000
31
0.0
0
LINE
8
0
6
CONTINUOUS
10
-180.700100
20
-45.500000
30
0.0
11
-181.639200
21
-45.500000
31
0.0
0
LINE
8
0
6
CONTINUOUS
10
-181.639200
20
-45.500000
30
0.0
11
-182.712500
21
-45.500000
31
0.0
0
LINE
8
0
6
CONTINUOUS
10
-182.712500
20
-45.500000
30
0.0
11
-183.785800
21
-45.500000
31
0.0
0
LINE
8
0
6
CONTINUOUS
10
-183.785800
20
-45.500000
30
0.0
11
-185.072800
21
-45.500000
31
0.0
0
LINE
8
0
6
CONTINUOUS
10
-185.072800
20
-45.500000
30
0.0
11
-185.536400
21
-45.500000
31
0.0
0
LINE
8
0
6
CONTINUOUS
10
-186.000000
20
-45.500000
30
0.0
11
-184.000000
21
-47.500000
31
0.0
0
LINE
8
0
6
CONTINUOUS
10
-185.536400
20
-45.500000
30
0.0
11
-186.000000
21
-45.500000
31
0.0
0
LINE
8
0
6
CONTINUOUS
10
-127.313884
20
-57.592625
30
0.0
11
-122.043900
21
-57.774348
31
0.0
0
LINE
8
0
6
CONTINUOUS
10
-119.043900
20
-57.877797
30
0.0
11
-118.456021
21
-57.898068
31
0.0
0
LINE
8
0
6
CONTINUOUS
10
-112.942491
20
-58.088190
30
0.0
11
-110.657200
21
-58.166993
31
0.0
0
LINE
8
0
6
CONTINUOUS
10
-107.657200
20
-58.270441
30
0.0
11
-104.558300
21
-58.377300
31
0.0
0
LINE
8
0
6
CONTINUOUS
10
-97.689700
20
-58.500000
30
0.0
11
-98.465200
21
-58.500000
31
0.0
0
LINE
8
0
6
CONTINUOUS
10
-98.465200
20
-58.500000
30
0.0
11
-99.063900
21
-58.500000
31
0.0
0
LINE
8
0
6
CONTINUOUS
10
-99.063900
20
-58.500000
30
0.0
11
-99.423200
21
-58.500000
31
0.0
0
LINE
8
0
6
CONTINUOUS
10
-99.423200
20
-58.500000
30
0.0
11
-99.702600
21
-58.500000
31
0.0
0
LINE
8
0
6
CONTINUOUS
10
-99.702600
20
-58.500000
30
0.0
11
-100.021900
21
-58.500000
31
0.0
0
LINE
8
0
6
CONTINUOUS
10
-100.021900
20
-58.500000
30
0.0
11
-100.341200
21
-58.500000
31
0.0
0
LINE
8
0
6
CONTINUOUS
10
-100.341200
20
-58.500000
30
0.0
11
-100.724100
21
-58.500000
31
0.0
0
LINE
8
0
6
CONTINUOUS
10
-100.724100
20
-58.500000
30
0.0
11
-100.862100
21
-58.500000
31
0.0
0
LINE
8
0
6
CONTINUOUS
10
-100.862100
20
-58.500000
30
0.0
11
-101.000000
21
-58.500000
31
0.0
0
LINE
8
0
6
CONTINUOUS
10
35.000000
20
7.500000
30
0.0
11
35.000000
21
5.253200
31
0.0
0
LINE
8
0
6
CONTINUOUS
10
0.000000
20
24.500000
30
0.0
11
8.960000
21
23.960000
31
0.0
0
LINE
8
0
6
CONTINUOUS
10
8.960000
20
23.960000
30
0.0
11
17.360000
21
22.520000
31
0.0
0
LINE
8
0
6
CONTINUOUS
10
17.360000
20
22.520000
30
0.0
11
8.960000
21
23.960000
31
0.0
0
LINE
8
0
6
CONTINUOUS
10
17.360000
20
22.520000
30
0.0
11
24.780000
21
20.120000
31
0.0
0
LINE
8
0
6
CONTINUOUS
10
24.780000
20
20.120000
30
0.0
11
17.360000
21
22.520000
31
0.0
0
LINE
8
0
6
CONTINUOUS
10
24.780000
20
20.120000
30
0.0
11
30.380000
21
16.940000
31
0.0
0
LINE
8
0
6
CONTINUOUS
10
30.380000
20
16.940000
30
0.0
11
24.780000
21
20.120000
31
0.0
0
LINE
8
0
6
CONTINUOUS
10
30.380000
20
16.940000
30
0.0
11
33.740000
21
13.340000
31
0.0
0
LINE
8
0
6
CONTINUOUS
10
33.740000
20
13.340000
30
0.0
11
30.380000
21
16.940000
31
0.0
0
LINE
8
0
6
CONTINUOUS
10
33.740000
20
13.340000
30
0.0
11
35.000000
21
9.500000
31
0.0
0
LINE
8
0
6
CONTINUOUS
10
35.000000
20
9.500000
30
0.0
11
33.740000
21
13.340000
31
0.0
0
LINE
8
0
6
CONTINUOUS
10
24.780000
20
-14.019000
30
0.0
11
18.000000
21
-14.019000
31
0.0
0
LINE
8
0
6
CONTINUOUS
10
30.380000
20
-14.019000
30
0.0
11
24.780000
21
-14.019000
31
0.0
0
LINE
8
0
6
CONTINUOUS
10
33.740000
20
-14.019000
30
0.0
11
30.380000
21
-14.019000
31
0.0
0
LINE
8
0
6
CONTINUOUS
10
35.000000
20
-14.019000
30
0.0
11
33.740000
21
-14.019000
31
0.0
0
LINE
8
0
6
CONTINUOUS
10
35.000000
20
-10.727200
30
0.0
11
35.000000
21
-14.019000
31
0.0
0
LINE
8
0
6
CONTINUOUS
10
35.000000
20
-4.043200
30
0.0
11
35.000000
21
-10.727200
31
0.0
0
LINE
8
0
6
CONTINUOUS
10
0.000000
20
-13.954400
30
0.0
11
8.960000
21
-13.954400
31
0.0
0
LINE
8
0
6
CONTINUOUS
10
8.960000
20
-13.954400
30
0.0
11
17.360000
21
-13.954400
31
0.0
0
LINE
8
0
6
CONTINUOUS
10
17.360000
20
-13.954400
30
0.0
11
24.780000
21
-13.954400
31
0.0
0
LINE
8
0
6
CONTINUOUS
10
24.780000
20
-13.954400
30
0.0
11
30.380000
21
-13.954400
31
0.0
0
LINE
8
0
6
CONTINUOUS
10
30.380000
20
-13.954400
30
0.0
11
33.740000
21
-13.954400
31
0.0
0
LINE
8
0
6
CONTINUOUS
10
33.740000
20
-13.954400
30
0.0
11
35.000000
21
-13.954400
31
0.0
0
LINE
8
0
6
CONTINUOUS
10
35.000000
20
1.109300
30
0.0
11
35.000000
21
-4.043200
31
0.0
0
LINE
8
0
6
CONTINUOUS
10
35.000000
20
5.253200
30
0.0
11
35.000000
21
1.109300
31
0.0
0
LINE
8
0
6
CONTINUOUS
10
35.000000
20
7.500000
30
0.0
11
35.000000
21
9.500000
31
0.0
0
LINE
8
0
6
CONTINUOUS
10
35.000000
20
5.253200
30
0.0
11
35.000000
21
7.500000
31
0.0
0
LINE
8
0
6
CONTINUOUS
10
35.000000
20
9.500000
30
0.0
11
35.000000
21
6.947400
31
0.0
0
LINE
8
0
6
CONTINUOUS
10
35.000000
20
1.109300
30
0.0
11
35.000000
21
5.253200
31
0.0
0
LINE
8
0
6
CONTINUOUS
10
35.000000
20
6.947400
30
0.0
11
35.000000
21
2.514900
31
0.0
0
LINE
8
0
6
CONTINUOUS
10
35.000000
20
-4.043200
30
0.0
11
35.000000
21
1.109300
31
0.0
0
LINE
8
0
6
CONTINUOUS
10
35.000000
20
2.514900
30
0.0
11
35.000000
21
-2.902700
31
0.0
0
LINE
8
0
6
CONTINUOUS
10
35.000000
20
-10.727200
30
0.0
11
35.000000
21
-4.043200
31
0.0
0
LINE
8
0
6
CONTINUOUS
10
35.000000
20
-2.902700
30
0.0
11
35.000000
21
-10.536400
31
0.0
0
LINE
8
0
6
CONTINUOUS
10
35.000000
20
-14.019000
30
0.0
11
35.000000
21
-10.727200
31
0.0
0
LINE
8
0
6
CONTINUOUS
10
35.000000
20
-13.954400
30
0.0
11
35.000000
21
-14.019000
31
0.0
0
LINE
8
0
6
CONTINUOUS
10
35.000000
20
-10.536400
30
0.0
11
35.000000
21
-13.954400
31
0.0
0
LINE
8
0
6
CONTINUOUS
10
-35.000000
20
-14.019000
30
0.0
11
-35.000000
21
-13.954400
31
0.0
0
LINE
8
0
6
CONTINUOUS
10
-35.000000
20
-2.902700
30
0.0
11
-35.000000
21
-10.536400
31
0.0
0
LINE
8
0
6
CONTINUOUS
10
-35.000000
20
2.514900
30
0.0
11
-35.000000
21
-2.902700
31
0.0
0
LINE
8
0
6
CONTINUOUS
10
-35.000000
20
6.947400
30
0.0
11
-35.000000
21
2.514900
31
0.0
0
LINE
8
0
6
CONTINUOUS
10
-8.960000
20
-13.954400
30
0.0
11
0.000000
21
-13.954400
31
0.0
0
LINE
8
0
6
CONTINUOUS
10
-17.360000
20
-13.954400
30
0.0
11
-8.960000
21
-13.954400
31
0.0
0
LINE
8
0
6
CONTINUOUS
10
-24.780000
20
-13.954400
30
0.0
11
-17.360000
21
-13.954400
31
0.0
0
LINE
8
0
6
CONTINUOUS
10
-30.380000
20
-13.954400
30
0.0
11
-24.780000
21
-13.954400
31
0.0
0
LINE
8
0
6
CONTINUOUS
10
-33.740000
20
-13.954400
30
0.0
11
-30.380000
21
-13.954400
31
0.0
0
LINE
8
0
6
CONTINUOUS
10
-35.000000
20
-13.954400
30
0.0
11
-33.740000
21
-13.954400
31
0.0
0
LINE
8
0
6
CONTINUOUS
10
-35.000000
20
-10.536400
30
0.0
11
-35.000000
21
-13.954400
31
0.0
0
LINE
8
0
6
CONTINUOUS
10
-35.000000
20
9.500000
30
0.0
11
-35.000000
21
6.947400
31
0.0
0
LINE
8
0
6
CONTINUOUS
10
-8.960000
20
23.960000
30
0.0
11
0.000000
21
24.500000
31
0.0
0
LINE
8
0
6
CONTINUOUS
10
-17.360000
20
22.520000
30
0.0
11
-8.960000
21
23.960000
31
0.0
0
LINE
8
0
6
CONTINUOUS
10
-24.780000
20
20.120000
30
0.0
11
-17.360000
21
22.520000
31
0.0
0
LINE
8
0
6
CONTINUOUS
10
-30.380000
20
16.940000
30
0.0
11
-24.780000
21
20.120000
31
0.0
0
LINE
8
0
6
CONTINUOUS
10
-33.740000
20
13.340000
30
0.0
11
-30.380000
21
16.940000
31
0.0
0
LINE
8
0
6
CONTINUOUS
10
-35.000000
20
9.500000
30
0.0
11
-33.740000
21
13.340000
31
0.0
0
LINE
8
0
6
CONTINUOUS
10
-18.000000
20
-14.019000
30
0.0
11
-24.780000
21
-14.019000
31
0.0
0
LINE
8
0
6
CONTINUOUS
10
-24.780000
20
-14.019000
30
0.0
11
-30.380000
21
-14.019000
31
0.0
0
LINE
8
0
6
CONTINUOUS
10
-30.380000
20
-14.019000
30
0.0
11
-33.740000
21
-14.019000
31
0.0
0
LINE
8
0
6
CONTINUOUS
10
-33.740000
20
-14.019000
30
0.0
11
-35.000000
21
-14.019000
31
0.0
0
LINE
8
0
6
CONTINUOUS
10
-17.352000
20
-21.500000
30
0.0
11
-18.000000
21
-21.500000
31
0.0
0
LINE
8
0
6
CONTINUOUS
10
-15.624000
20
-21.500000
30
0.0
11
-17.352000
21
-21.500000
31
0.0
0
LINE
8
0
6
CONTINUOUS
10
-12.744000
20
-21.500000
30
0.0
11
-15.624000
21
-21.500000
31
0.0
0
LINE
8
0
6
CONTINUOUS
10
-8.928000
20
-21.500000
30
0.0
11
-12.744000
21
-21.500000
31
0.0
0
LINE
8
0
6
CONTINUOUS
10
-4.608000
20
-21.500000
30
0.0
11
-8.928000
21
-21.500000
31
0.0
0
LINE
8
0
6
CONTINUOUS
10
0.000000
20
-21.500000
30
0.0
11
-4.608000
21
-21.500000
31
0.0
0
LINE
8
0
6
CONTINUOUS
10
-18.000000
20
-21.500000
30
0.0
11
-17.352000
21
-21.500000
31
0.0
0
LINE
8
0
6
CONTINUOUS
10
-18.000000
20
-13.954400
30
0.0
11
-18.000000
21
-21.500000
31
0.0
0
LINE
8
0
6
CONTINUOUS
10
-17.352000
20
-21.500000
30
0.0
11
-15.624000
21
-21.500000
31
0.0
0
LINE
8
0
6
CONTINUOUS
10
-15.624000
20
-21.500000
30
0.0
11
-12.744000
21
-21.500000
31
0.0
0
LINE
8
0
6
CONTINUOUS
10
-12.744000
20
-21.500000
30
0.0
11
-8.928000
21
-21.500000
31
0.0
0
LINE
8
0
6
CONTINUOUS
10
-8.928000
20
-21.500000
30
0.0
11
-4.608000
21
-21.500000
31
0.0
0
LINE
8
0
6
CONTINUOUS
10
-4.608000
20
-21.500000
30
0.0
11
0.000000
21
-21.500000
31
0.0
0
LINE
8
0
6
CONTINUOUS
10
18.000000
20
-21.500000
30
0.0
11
17.352000
21
-21.500000
31
0.0
0
LINE
8
0
6
CONTINUOUS
10
17.352000
20
-21.500000
30
0.0
11
15.624000
21
-21.500000
31
0.0
0
LINE
8
0
6
CONTINUOUS
10
15.624000
20
-21.500000
30
0.0
11
12.744000
21
-21.500000
31
0.0
0
LINE
8
0
6
CONTINUOUS
10
12.744000
20
-21.500000
30
0.0
11
8.928000
21
-21.500000
31
0.0
0
LINE
8
0
6
CONTINUOUS
10
8.928000
20
-21.500000
30
0.0
11
4.608000
21
-21.500000
31
0.0
0
LINE
8
0
6
CONTINUOUS
10
4.608000
20
-21.500000
30
0.0
11
0.000000
21
-21.500000
31
0.0
0
LINE
8
0
6
CONTINUOUS
10
17.352000
20
-21.500000
30
0.0
11
18.000000
21
-21.500000
31
0.0
0
LINE
8
0
6
CONTINUOUS
10
15.624000
20
-21.500000
30
0.0
11
17.352000
21
-21.500000
31
0.0
0
LINE
8
0
6
CONTINUOUS
10
12.744000
20
-21.500000
30
0.0
11
15.624000
21
-21.500000
31
0.0
0
LINE
8
0
6
CONTINUOUS
10
8.928000
20
-21.500000
30
0.0
11
12.744000
21
-21.500000
31
0.0
0
LINE
8
0
6
CONTINUOUS
10
4.608000
20
-21.500000
30
0.0
11
8.928000
21
-21.500000
31
0.0
0
LINE
8
0
6
CONTINUOUS
10
0.000000
20
-21.500000
30
0.0
11
4.608000
21
-21.500000
31
0.0
0
LINE
8
0
6
CONTINUOUS
10
18.000000
20
-13.954400
30
0.0
11
18.000000
21
-21.500000
31
0.0
0
LINE
8
0
6
CONTINUOUS
10
-28.000000
20
-21.500000
30
0.0
11
-26.992000
21
-21.500000
31
0.0
0
LINE
8
0
6
CONTINUOUS
10
-26.992000
20
-21.500000
30
0.0
11
-24.304000
21
-21.500000
31
0.0
0
LINE
8
0
6
CONTINUOUS
10
-24.304000
20
-21.500000
30
0.0
11
-19.824000
21
-21.500000
31
0.0
0
LINE
8
0
6
CONTINUOUS
10
-19.824000
20
-21.500000
30
0.0
11
-18.000000
21
-21.500000
31
0.0
0
LINE
8
0
6
CONTINUOUS
10
-26.992000
20
-21.500000
30
0.0
11
-28.000000
21
-21.500000
31
0.0
0
LINE
8
0
6
CONTINUOUS
10
-24.304000
20
-21.500000
30
0.0
11
-26.992000
21
-21.500000
31
0.0
0
LINE
8
0
6
CONTINUOUS
10
-19.824000
20
-21.500000
30
0.0
11
-24.304000
21
-21.500000
31
0.0
0
LINE
8
0
6
CONTINUOUS
10
-18.000000
20
-21.500000
30
0.0
11
-19.824000
21
-21.500000
31
0.0
0
LINE
8
0
6
CONTINUOUS
10
-28.000000
20
-21.500000
30
0.0
11
-28.000000
21
-32.500000
31
0.0
0
LINE
8
0
6
CONTINUOUS
10
-26.992000
20
-21.500000
30
0.0
11
-28.000000
21
-21.500000
31
0.0
0
LINE
8
0
6
CONTINUOUS
10
-24.304000
20
-21.500000
30
0.0
11
-26.992000
21
-21.500000
31
0.0
0
LINE
8
0
6
CONTINUOUS
10
-19.824000
20
-21.500000
30
0.0
11
-24.304000
21
-21.500000
31
0.0
0
LINE
8
0
6
CONTINUOUS
10
-13.888000
20
-21.500000
30
0.0
11
-19.824000
21
-21.500000
31
0.0
0
LINE
8
0
6
CONTINUOUS
10
-7.168000
20
-21.500000
30
0.0
11
-13.888000
21
-21.500000
31
0.0
0
LINE
8
0
6
CONTINUOUS
10
0.000000
20
-21.500000
30
0.0
11
-7.168000
21
-21.500000
31
0.0
0
LINE
8
0
6
CONTINUOUS
10
-28.000000
20
-21.500000
30
0.0
11
-26.992000
21
-21.500000
31
0.0
0
LINE
8
0
6
CONTINUOUS
10
-26.992000
20
-21.500000
30
0.0
11
-24.304000
21
-21.500000
31
0.0
0
LINE
8
0
6
CONTINUOUS
10
-24.304000
20
-21.500000
30
0.0
11
-19.824000
21
-21.500000
31
0.0
0
LINE
8
0
6
CONTINUOUS
10
-19.824000
20
-21.500000
30
0.0
11
-13.888000
21
-21.500000
31
0.0
0
LINE
8
0
6
CONTINUOUS
10
-13.888000
20
-21.500000
30
0.0
11
-7.168000
21
-21.500000
31
0.0
0
LINE
8
0
6
CONTINUOUS
10
-7.168000
20
-21.500000
30
0.0
11
0.000000
21
-21.500000
31
0.0
0
LINE
8
0
6
CONTINUOUS
10
28.000000
20
-21.500000
30
0.0
11
26.992000
21
-21.500000
31
0.0
0
LINE
8
0
6
CONTINUOUS
10
26.992000
20
-21.500000
30
0.0
11
24.304000
21
-21.500000
31
0.0
0
LINE
8
0
6
CONTINUOUS
10
24.304000
20
-21.500000
30
0.0
11
19.824000
21
-21.500000
31
0.0
0
LINE
8
0
6
CONTINUOUS
10
19.824000
20
-21.500000
30
0.0
11
13.888000
21
-21.500000
31
0.0
0
LINE
8
0
6
CONTINUOUS
10
13.888000
20
-21.500000
30
0.0
11
7.168000
21
-21.500000
31
0.0
0
LINE
8
0
6
CONTINUOUS
10
7.168000
20
-21.500000
30
0.0
11
0.000000
21
-21.500000
31
0.0
0
LINE
8
0
6
CONTINUOUS
10
26.992000
20
-21.500000
30
0.0
11
28.000000
21
-21.500000
31
0.0
0
LINE
8
0
6
CONTINUOUS
10
24.304000
20
-21.500000
30
0.0
11
26.992000
21
-21.500000
31
0.0
0
LINE
8
0
6
CONTINUOUS
10
19.824000
20
-21.500000
30
0.0
11
24.304000
21
-21.500000
31
0.0
0
LINE
8
0
6
CONTINUOUS
10
13.888000
20
-21.500000
30
0.0
11
19.824000
21
-21.500000
31
0.0
0
LINE
8
0
6
CONTINUOUS
10
7.168000
20
-21.500000
30
0.0
11
13.888000
21
-21.500000
31
0.0
0
LINE
8
0
6
CONTINUOUS
10
0.000000
20
-21.500000
30
0.0
11
7.168000
21
-21.500000
31
0.0
0
LINE
8
0
6
CONTINUOUS
10
28.000000
20
-21.500000
30
0.0
11
28.000000
21
-32.500000
31
0.0
0
LINE
8
0
6
CONTINUOUS
10
26.992000
20
-21.500000
30
0.0
11
28.000000
21
-21.500000
31
0.0
0
LINE
8
0
6
CONTINUOUS
10
24.304000
20
-21.500000
30
0.0
11
26.992000
21
-21.500000
31
0.0
0
LINE
8
0
6
CONTINUOUS
10
19.824000
20
-21.500000
30
0.0
11
24.304000
21
-21.500000
31
0.0
0
LINE
8
0
6
CONTINUOUS
10
18.000000
20
-21.500000
30
0.0
11
19.824000
21
-21.500000
31
0.0
0
LINE
8
0
6
CONTINUOUS
10
28.000000
20
-21.500000
30
0.0
11
26.992000
21
-21.500000
31
0.0
0
LINE
8
0
6
CONTINUOUS
10
26.992000
20
-21.500000
30
0.0
11
24.304000
21
-21.500000
31
0.0
0
LINE
8
0
6
CONTINUOUS
10
24.304000
20
-21.500000
30
0.0
11
19.824000
21
-21.500000
31
0.0
0
LINE
8
0
6
CONTINUOUS
10
19.824000
20
-21.500000
30
0.0
11
18.000000
21
-21.500000
31
0.0
0
LINE
8
0
6
CONTINUOUS
10
-41.019000
20
52.725000
30
0.0
11
-40.183000
21
53.683000
31
0.0
0
LINE
8
0
6
CONTINUOUS
10
-41.765000
20
51.662000
30
0.0
11
-41.019000
21
52.725000
31
0.0
0
LINE
8
0
6
CONTINUOUS
10
-42.342000
20
50.648000
30
0.0
11
-41.765000
21
51.662000
31
0.0
0
LINE
8
0
6
CONTINUOUS
10
-42.899000
20
49.197000
30
0.0
11
-42.342000
21
50.648000
31
0.0
0
LINE
8
0
6
CONTINUOUS
10
-43.287000
20
47.567000
30
0.0
11
-42.899000
21
49.197000
31
0.0
0
LINE
8
0
6
CONTINUOUS
10
-43.652000
20
45.562000
30
0.0
11
-43.287000
21
47.567000
31
0.0
0
LINE
8
0
6
CONTINUOUS
10
-45.540000
20
23.206100
30
0.0
11
-45.142000
21
30.690200
31
0.0
0
LINE
8
0
6
CONTINUOUS
10
-45.740000
20
17.406400
30
0.0
11
-45.540000
21
23.206100
31
0.0
0
LINE
8
0
6
CONTINUOUS
10
-45.822000
20
13.500000
30
0.0
11
-45.740000
21
17.406400
31
0.0
0
LINE
8
0
6
CONTINUOUS
10
-40.183000
20
53.683000
30
0.0
11
-41.019000
21
52.725000
31
0.0
0
LINE
8
0
6
CONTINUOUS
10
-40.762000
20
52.445000
30
0.0
11
-39.887000
21
53.386000
31
0.0
0
LINE
8
0
6
CONTINUOUS
10
-41.019000
20
52.725000
30
0.0
11
-41.765000
21
51.662000
31
0.0
0
LINE
8
0
6
CONTINUOUS
10
-41.459000
20
51.340000
30
0.0
11
-40.762000
21
52.445000
31
0.0
0
LINE
8
0
6
CONTINUOUS
10
-41.765000
20
51.662000
30
0.0
11
-42.342000
21
50.648000
31
0.0
0
LINE
8
0
6
CONTINUOUS
10
-42.036000
20
50.354000
30
0.0
11
-41.459000
21
51.340000
31
0.0
0
LINE
8
0
6
CONTINUOUS
10
-42.342000
20
50.648000
30
0.0
11
-42.899000
21
49.197000
31
0.0
0
LINE
8
0
6
CONTINUOUS
10
-42.565000
20
48.937000
30
0.0
11
-42.036000
21
50.354000
31
0.0
0
LINE
8
0
6
CONTINUOUS
10
-42.899000
20
49.197000
30
0.0
11
-43.287000
21
47.567000
31
0.0
0
LINE
8
0
6
CONTINUOUS
10
-42.950000
20
47.326000
30
0.0
11
-42.565000
21
48.937000
31
0.0
0
LINE
8
0
6
CONTINUOUS
10
-43.287000
20
47.567000
30
0.0
11
-43.652000
21
45.562000
31
0.0
0
LINE
8
0
6
CONTINUOUS
10
-43.291000
20
45.310000
30
0.0
11
-42.950000
21
47.326000
31
0.0
0
LINE
8
0
6
CONTINUOUS
10
-43.783000
20
41.674000
30
0.0
11
-43.291000
21
45.310000
31
0.0
0
LINE
8
0
6
CONTINUOUS
10
-44.296000
20
37.136400
30
0.0
11
-43.783000
21
41.674000
31
0.0
0
LINE
8
0
6
CONTINUOUS
10
-44.777000
20
30.507700
30
0.0
11
-44.296000
21
37.136400
31
0.0
0
LINE
8
0
6
CONTINUOUS
10
-45.142000
20
30.690200
30
0.0
11
-45.540000
21
23.206100
31
0.0
0
LINE
8
0
6
CONTINUOUS
10
-45.159000
20
23.123100
30
0.0
11
-44.777000
21
30.507700
31
0.0
0
LINE
8
0
6
CONTINUOUS
10
-45.540000
20
23.206100
30
0.0
11
-45.740000
21
17.406400
31
0.0
0
LINE
8
0
6
CONTINUOUS
10
-45.358000
20
17.356600
30
0.0
11
-45.159000
21
23.123100
31
0.0
0
LINE
8
0
6
CONTINUOUS
10
-45.740000
20
17.406400
30
0.0
11
-45.822000
21
13.500000
31
0.0
0
LINE
8
0
6
CONTINUOUS
10
-45.406000
20
13.500000
30
0.0
11
-45.358000
21
17.356600
31
0.0
0
LINE
8
0
6
CONTINUOUS
10
-41.169000
20
52.884000
30
0.0
11
-40.332000
21
53.832000
31
0.0
0
LINE
8
0
6
CONTINUOUS
10
-41.895000
20
51.791000
30
0.0
11
-41.169000
21
52.884000
31
0.0
0
LINE
8
0
6
CONTINUOUS
10
-42.481000
20
50.767000
30
0.0
11
-41.895000
21
51.791000
31
0.0
0
LINE
8
0
6
CONTINUOUS
10
-42.481000
20
50.767000
30
0.0
11
-43.058000
21
49.336000
31
0.0
0
LINE
8
0
6
CONTINUOUS
10
-43.058000
20
49.336000
30
0.0
11
-42.481000
21
50.767000
31
0.0
0
LINE
8
0
6
CONTINUOUS
10
-43.058000
20
49.336000
30
0.0
11
-43.466000
21
47.676000
31
0.0
0
LINE
8
0
6
CONTINUOUS
10
-43.466000
20
47.676000
30
0.0
11
-43.058000
21
49.336000
31
0.0
0
LINE
8
0
6
CONTINUOUS
10
-43.838000
20
45.660000
30
0.0
11
-43.466000
21
47.676000
31
0.0
0
LINE
8
0
6
CONTINUOUS
10
-44.282000
20
41.933000
30
0.0
11
-43.838000
21
45.660000
31
0.0
0
LINE
8
0
6
CONTINUOUS
10
-44.282000
20
41.933000
30
0.0
11
-44.825000
21
37.376700
31
0.0
0
LINE
8
0
6
CONTINUOUS
10
-44.825000
20
37.376700
30
0.0
11
-44.282000
21
41.933000
31
0.0
0
LINE
8
0
6
CONTINUOUS
10
-45.325000
20
30.773200
30
0.0
11
-44.825000
21
37.376700
31
0.0
0
LINE
8
0
6
CONTINUOUS
10
-45.325000
20
30.773200
30
0.0
11
-45.740000
21
23.239300
31
0.0
0
LINE
8
0
6
CONTINUOUS
10
-45.740000
20
23.239300
30
0.0
11
-45.325000
21
30.773200
31
0.0
0
LINE
8
0
6
CONTINUOUS
10
-45.939000
20
17.423000
30
0.0
11
-45.740000
21
23.239300
31
0.0
0
LINE
8
0
6
CONTINUOUS
10
-46.000000
20
13.500000
30
0.0
11
-45.939000
21
17.423000
31
0.0
0
LINE
8
0
6
CONTINUOUS
10
-43.058000
20
49.336000
30
0.0
11
-42.481000
21
50.767000
31
0.0
0
LINE
8
0
6
CONTINUOUS
10
-43.466000
20
47.676000
30
0.0
11
-43.058000
21
49.336000
31
0.0
0
LINE
8
0
6
CONTINUOUS
10
-44.825000
20
37.376700
30
0.0
11
-44.282000
21
41.933000
31
0.0
0
LINE
8
0
6
CONTINUOUS
10
-45.740000
20
23.239300
30
0.0
11
-45.325000
21
30.773200
31
0.0
0
LINE
8
0
6
CONTINUOUS
10
-39.887000
20
53.386000
30
0.0
11
-40.762000
21
52.445000
31
0.0
0
LINE
8
0
6
CONTINUOUS
10
-40.762000
20
52.445000
30
0.0
11
-41.459000
21
51.340000
31
0.0
0
LINE
8
0
6
CONTINUOUS
10
-41.459000
20
51.340000
30
0.0
11
-42.036000
21
50.354000
31
0.0
0
LINE
8
0
6
CONTINUOUS
10
-42.036000
20
50.354000
30
0.0
11
-42.565000
21
48.937000
31
0.0
0
LINE
8
0
6
CONTINUOUS
10
-42.565000
20
48.937000
30
0.0
11
-42.950000
21
47.326000
31
0.0
0
LINE
8
0
6
CONTINUOUS
10
-42.950000
20
47.326000
30
0.0
11
-43.291000
21
45.310000
31
0.0
0
LINE
8
0
6
CONTINUOUS
10
-43.783000
20
41.674000
30
0.0
11
-44.296000
21
37.136400
31
0.0
0
LINE
8
0
6
CONTINUOUS
10
-44.296000
20
37.136400
30
0.0
11
-44.777000
21
30.507700
31
0.0
0
LINE
8
0
6
CONTINUOUS
10
-44.777000
20
30.507700
30
0.0
11
-45.159000
21
23.123100
31
0.0
0
LINE
8
0
6
CONTINUOUS
10
-45.159000
20
23.123100
30
0.0
11
-45.358000
21
17.356600
31
0.0
0
LINE
8
0
6
CONTINUOUS
10
-45.358000
20
17.356600
30
0.0
11
-45.406000
21
13.500000
31
0.0
0
LINE
8
0
6
CONTINUOUS
10
-38.945000
20
54.261000
30
0.0
11
-39.887000
21
53.386000
31
0.0
0
LINE
8
0
6
CONTINUOUS
10
-36.855000
20
55.536000
30
0.0
11
-37.840000
21
54.959000
31
0.0
0
LINE
8
0
6
CONTINUOUS
10
-35.436000
20
56.065000
30
0.0
11
-36.855000
21
55.536000
31
0.0
0
LINE
8
0
6
CONTINUOUS
10
-33.826000
20
56.450000
30
0.0
11
-35.436000
21
56.065000
31
0.0
0
LINE
8
0
6
CONTINUOUS
10
-31.810000
20
56.791000
30
0.0
11
-33.826000
21
56.450000
31
0.0
0
LINE
8
0
6
CONTINUOUS
10
-28.174000
20
57.283000
30
0.0
11
-31.810000
21
56.791000
31
0.0
0
LINE
8
0
6
CONTINUOUS
10
-23.636000
20
57.796000
30
0.0
11
-28.174000
21
57.283000
31
0.0
0
LINE
8
0
6
CONTINUOUS
10
-9.623000
20
58.659000
30
0.0
11
-17.008000
21
58.277000
31
0.0
0
LINE
8
0
6
CONTINUOUS
10
-3.857000
20
58.858000
30
0.0
11
-9.623000
21
58.659000
31
0.0
0
LINE
8
0
6
CONTINUOUS
10
0.000000
20
58.906000
30
0.0
11
-3.857000
21
58.858000
31
0.0
0
LINE
8
0
6
CONTINUOUS
10
-39.384000
20
54.669000
30
0.0
11
-38.291000
21
55.395000
31
0.0
0
LINE
8
0
6
CONTINUOUS
10
-23.877000
20
58.325000
30
0.0
11
-17.273000
21
58.825000
31
0.0
0
LINE
8
0
6
CONTINUOUS
10
-3.923000
20
59.439000
30
0.0
11
0.000000
21
59.500000
31
0.0
0
LINE
8
0
6
CONTINUOUS
10
-39.887000
20
53.386000
30
0.0
11
-38.945000
21
54.261000
31
0.0
0
LINE
8
0
6
CONTINUOUS
10
-39.225000
20
54.519000
30
0.0
11
-40.183000
21
53.683000
31
0.0
0
LINE
8
0
6
CONTINUOUS
10
-38.945000
20
54.261000
30
0.0
11
-37.840000
21
54.959000
31
0.0
0
LINE
8
0
6
CONTINUOUS
10
-38.162000
20
55.265000
30
0.0
11
-39.225000
21
54.519000
31
0.0
0
LINE
8
0
6
CONTINUOUS
10
-37.840000
20
54.959000
30
0.0
11
-36.855000
21
55.536000
31
0.0
0
LINE
8
0
6
CONTINUOUS
10
-37.148000
20
55.842000
30
0.0
11
-38.162000
21
55.265000
31
0.0
0
LINE
8
0
6
CONTINUOUS
10
-36.855000
20
55.536000
30
0.0
11
-35.436000
21
56.065000
31
0.0
0
LINE
8
0
6
CONTINUOUS
10
-35.697000
20
56.399000
30
0.0
11
-37.148000
21
55.842000
31
0.0
0
LINE
8
0
6
CONTINUOUS
10
-35.436000
20
56.065000
30
0.0
11
-33.826000
21
56.450000
31
0.0
0
LINE
8
0
6
CONTINUOUS
10
-34.067000
20
56.787000
30
0.0
11
-35.697000
21
56.399000
31
0.0
0
LINE
8
0
6
CONTINUOUS
10
-33.826000
20
56.450000
30
0.0
11
-31.810000
21
56.791000
31
0.0
0
LINE
8
0
6
CONTINUOUS
10
-32.062000
20
57.152000
30
0.0
11
-34.067000
21
56.787000
31
0.0
0
LINE
8
0
6
CONTINUOUS
10
-31.810000
20
56.791000
30
0.0
11
-28.174000
21
57.283000
31
0.0
0
LINE
8
0
6
CONTINUOUS
10
-28.174000
20
57.283000
30
0.0
11
-23.636000
21
57.796000
31
0.0
0
LINE
8
0
6
CONTINUOUS
10
-23.636000
20
57.796000
30
0.0
11
-17.008000
21
58.277000
31
0.0
0
LINE
8
0
6
CONTINUOUS
10
-17.008000
20
58.277000
30
0.0
11
-9.623000
21
58.659000
31
0.0
0
LINE
8
0
6
CONTINUOUS
10
-9.706000
20
59.040000
30
0.0
11
-17.190000
21
58.642000
31
0.0
0
LINE
8
0
6
CONTINUOUS
10
-9.623000
20
58.659000
30
0.0
11
-3.857000
21
58.858000
31
0.0
0
LINE
8
0
6
CONTINUOUS
10
-3.906000
20
59.240000
30
0.0
11
-9.706000
21
59.040000
31
0.0
0
LINE
8
0
6
CONTINUOUS
10
-3.857000
20
58.858000
30
0.0
11
0.000000
21
58.906000
31
0.0
0
LINE
8
0
6
CONTINUOUS
10
0.000000
20
59.322000
30
0.0
11
-3.906000
21
59.240000
31
0.0
0
LINE
8
0
6
CONTINUOUS
10
-40.183000
20
53.683000
30
0.0
11
-39.225000
21
54.519000
31
0.0
0
LINE
8
0
6
CONTINUOUS
10
-38.162000
20
55.265000
30
0.0
11
-37.148000
21
55.842000
31
0.0
0
LINE
8
0
6
CONTINUOUS
10
-37.148000
20
55.842000
30
0.0
11
-35.697000
21
56.399000
31
0.0
0
LINE
8
0
6
CONTINUOUS
10
-35.697000
20
56.399000
30
0.0
11
-34.067000
21
56.787000
31
0.0
0
LINE
8
0
6
CONTINUOUS
10
-34.067000
20
56.787000
30
0.0
11
-32.062000
21
57.152000
31
0.0
0
LINE
8
0
6
CONTINUOUS
10
-17.190000
20
58.642000
30
0.0
11
-9.706000
21
59.040000
31
0.0
0
LINE
8
0
6
CONTINUOUS
10
-9.706000
20
59.040000
30
0.0
11
-3.906000
21
59.240000
31
0.0
0
LINE
8
0
6
CONTINUOUS
10
-3.906000
20
59.240000
30
0.0
11
0.000000
21
59.322000
31
0.0
0
LINE
8
0
6
CONTINUOUS
10
-40.332000
20
53.832000
30
0.0
11
-39.384000
21
54.669000
31
0.0
0
LINE
8
0
6
CONTINUOUS
10
-39.384000
20
54.669000
30
0.0
11
-38.291000
21
55.395000
31
0.0
0
LINE
8
0
6
CONTINUOUS
10
-38.291000
20
55.395000
30
0.0
11
-39.384000
21
54.669000
31
0.0
0
LINE
8
0
6
CONTINUOUS
10
-38.291000
20
55.395000
30
0.0
11
-37.267000
21
55.981000
31
0.0
0
LINE
8
0
6
CONTINUOUS
10
-37.267000
20
55.981000
30
0.0
11
-35.836000
21
56.558000
31
0.0
0
LINE
8
0
6
CONTINUOUS
10
-35.836000
20
56.558000
30
0.0
11
-34.176000
21
56.966000
31
0.0
0
LINE
8
0
6
CONTINUOUS
10
-34.176000
20
56.966000
30
0.0
11
-32.160000
21
57.338000
31
0.0
0
LINE
8
0
6
CONTINUOUS
10
-32.160000
20
57.338000
30
0.0
11
-28.433000
21
57.782000
31
0.0
0
LINE
8
0
6
CONTINUOUS
10
-28.433000
20
57.782000
30
0.0
11
-23.877000
21
58.325000
31
0.0
0
LINE
8
0
6
CONTINUOUS
10
-23.877000
20
58.325000
30
0.0
11
-17.273000
21
58.825000
31
0.0
0
LINE
8
0
6
CONTINUOUS
10
-17.273000
20
58.825000
30
0.0
11
-23.877000
21
58.325000
31
0.0
0
LINE
8
0
6
CONTINUOUS
10
-17.273000
20
58.825000
30
0.0
11
-9.739000
21
59.240000
31
0.0
0
LINE
8
0
6
CONTINUOUS
10
-9.739000
20
59.240000
30
0.0
11
-3.923000
21
59.439000
31
0.0
0
LINE
8
0
6
CONTINUOUS
10
-3.923000
20
59.439000
30
0.0
11
0.000000
21
59.500000
31
0.0
0
LINE
8
0
6
CONTINUOUS
10
0.000000
20
59.500000
30
0.0
11
-3.923000
21
59.439000
31
0.0
0
LINE
8
0
6
CONTINUOUS
10
-37.267000
20
-28.981300
30
0.0
11
-35.836000
21
-29.558100
31
0.0
0
LINE
8
0
6
CONTINUOUS
10
-35.836000
20
-29.558100
30
0.0
11
-34.176000
21
-29.965800
31
0.0
0
LINE
8
0
6
CONTINUOUS
10
-40.332000
20
-26.831600
30
0.0
11
-39.384000
21
-27.668600
31
0.0
0
LINE
8
0
6
CONTINUOUS
10
-39.225000
20
-27.519400
30
0.0
11
-40.183000
21
-26.683200
31
0.0
0
LINE
8
0
6
CONTINUOUS
10
-39.384000
20
-27.668600
30
0.0
11
-38.291000
21
-28.394600
31
0.0
0
LINE
8
0
6
CONTINUOUS
10
-38.162000
20
-28.265300
30
0.0
11
-39.225000
21
-27.519400
31
0.0
0
LINE
8
0
6
CONTINUOUS
10
-38.291000
20
-28.394600
30
0.0
11
-37.267000
21
-28.981300
31
0.0
0
LINE
8
0
6
CONTINUOUS
10
-37.148000
20
-28.842100
30
0.0
11
-38.162000
21
-28.265300
31
0.0
0
LINE
8
0
6
CONTINUOUS
10
-37.267000
20
-28.981300
30
0.0
11
-35.836000
21
-29.558100
31
0.0
0
LINE
8
0
6
CONTINUOUS
10
-35.697000
20
-29.399000
30
0.0
11
-37.148000
21
-28.842100
31
0.0
0
LINE
8
0
6
CONTINUOUS
10
-35.836000
20
-29.558100
30
0.0
11
-34.176000
21
-29.965900
31
0.0
0
LINE
8
0
6
CONTINUOUS
10
-34.067000
20
-29.786800
30
0.0
11
-35.697000
21
-29.399000
31
0.0
0
LINE
8
0
6
CONTINUOUS
10
-34.176000
20
-29.965900
30
0.0
11
-32.160000
21
-30.337900
31
0.0
0
LINE
8
0
6
CONTINUOUS
10
-32.062000
20
-30.151900
30
0.0
11
-34.067000
21
-29.786800
31
0.0
0
LINE
8
0
6
CONTINUOUS
10
-28.433000
20
-30.782000
30
0.0
11
-28.000000
21
-30.833635
31
0.0
0
LINE
8
0
6
CONTINUOUS
10
-40.183000
20
-26.683200
30
0.0
11
-39.225000
21
-27.519400
31
0.0
0
LINE
8
0
6
CONTINUOUS
10
-38.945000
20
-27.261500
30
0.0
11
-39.887000
21
-26.386500
31
0.0
0
LINE
8
0
6
CONTINUOUS
10
-39.225000
20
-27.519400
30
0.0
11
-38.162000
21
-28.265300
31
0.0
0
LINE
8
0
6
CONTINUOUS
10
-37.840000
20
-27.958800
30
0.0
11
-38.945000
21
-27.261500
31
0.0
0
LINE
8
0
6
CONTINUOUS
10
-38.162000
20
-28.265300
30
0.0
11
-37.148000
21
-28.842100
31
0.0
0
LINE
8
0
6
CONTINUOUS
10
-36.855000
20
-28.535900
30
0.0
11
-37.840000
21
-27.958800
31
0.0
0
LINE
8
0
6
CONTINUOUS
10
-37.148000
20
-28.842100
30
0.0
11
-35.697000
21
-29.399000
31
0.0
0
LINE
8
0
6
CONTINUOUS
10
-35.436000
20
-29.064900
30
0.0
11
-36.855000
21
-28.535900
31
0.0
0
LINE
8
0
6
CONTINUOUS
10
-35.697000
20
-29.399000
30
0.0
11
-34.067000
21
-29.786800
31
0.0
0
LINE
8
0
6
CONTINUOUS
10
-33.826000
20
-29.449700
30
0.0
11
-35.436000
21
-29.064900
31
0.0
0
LINE
8
0
6
CONTINUOUS
10
-34.067000
20
-29.786800
30
0.0
11
-32.062000
21
-30.151900
31
0.0
0
LINE
8
0
6
CONTINUOUS
10
-31.810000
20
-29.790800
30
0.0
11
-33.826000
21
-29.449700
31
0.0
0
LINE
8
0
6
CONTINUOUS
10
-28.174000
20
-30.283300
30
0.0
11
-31.810000
21
-29.790800
31
0.0
0
LINE
8
0
6
CONTINUOUS
10
-28.000000
20
-30.302970
30
0.0
11
-28.174000
21
-30.283300
31
0.0
0
LINE
8
0
6
CONTINUOUS
10
-35.836000
20
-29.558100
30
0.0
11
-37.267000
21
-28.981300
31
0.0
0
LINE
8
0
6
CONTINUOUS
10
-34.176000
20
-29.965800
30
0.0
11
-35.836000
21
-29.558100
31
0.0
0
LINE
8
0
6
CONTINUOUS
10
-39.887000
20
-26.386500
30
0.0
11
-38.945000
21
-27.261500
31
0.0
0
LINE
8
0
6
CONTINUOUS
10
-38.945000
20
-27.261500
30
0.0
11
-37.840000
21
-27.958800
31
0.0
0
LINE
8
0
6
CONTINUOUS
10
-37.840000
20
-27.958800
30
0.0
11
-36.855000
21
-28.535900
31
0.0
0
LINE
8
0
6
CONTINUOUS
10
-36.855000
20
-28.535900
30
0.0
11
-35.436000
21
-29.064900
31
0.0
0
LINE
8
0
6
CONTINUOUS
10
-35.436000
20
-29.064900
30
0.0
11
-33.826000
21
-29.449700
31
0.0
0
LINE
8
0
6
CONTINUOUS
10
-33.826000
20
-29.449700
30
0.0
11
-31.810000
21
-29.790800
31
0.0
0
LINE
8
0
6
CONTINUOUS
10
-28.174000
20
-30.283300
30
0.0
11
-28.000000
21
-30.302970
31
0.0
0
LINE
8
0
6
CONTINUOUS
10
-40.762000
20
-25.445300
30
0.0
11
-39.887000
21
-26.386500
31
0.0
0
LINE
8
0
6
CONTINUOUS
10
-42.036000
20
-23.354500
30
0.0
11
-41.459000
21
-24.339800
31
0.0
0
LINE
8
0
6
CONTINUOUS
10
-42.565000
20
-21.936500
30
0.0
11
-42.036000
21
-23.354500
31
0.0
0
LINE
8
0
6
CONTINUOUS
10
-42.950000
20
-20.326300
30
0.0
11
-42.565000
21
-21.936500
31
0.0
0
LINE
8
0
6
CONTINUOUS
10
-43.291000
20
-18.310200
30
0.0
11
-42.950000
21
-20.326300
31
0.0
0
LINE
8
0
6
CONTINUOUS
10
-43.783000
20
-14.673800
30
0.0
11
-43.291000
21
-18.310200
31
0.0
0
LINE
8
0
6
CONTINUOUS
10
-44.296000
20
-10.136400
30
0.0
11
-43.783000
21
-14.673800
31
0.0
0
LINE
8
0
6
CONTINUOUS
10
-45.159000
20
3.876900
30
0.0
11
-44.777000
21
-3.507700
31
0.0
0
LINE
8
0
6
CONTINUOUS
10
-45.358000
20
9.643400
30
0.0
11
-45.159000
21
3.876900
31
0.0
0
LINE
8
0
6
CONTINUOUS
10
-45.406000
20
13.500000
30
0.0
11
-45.358000
21
9.643400
31
0.0
0
LINE
8
0
6
CONTINUOUS
10
-41.169000
20
-25.884300
30
0.0
11
-41.895000
21
-24.791000
31
0.0
0
LINE
8
0
6
CONTINUOUS
10
-44.825000
20
-10.376700
30
0.0
11
-45.325000
21
-3.773200
31
0.0
0
LINE
8
0
6
CONTINUOUS
10
-45.939000
20
9.577000
30
0.0
11
-46.000000
21
13.500000
31
0.0
0
LINE
8
0
6
CONTINUOUS
10
-39.887000
20
-26.386500
30
0.0
11
-40.762000
21
-25.445300
31
0.0
0
LINE
8
0
6
CONTINUOUS
10
-41.019000
20
-25.725300
30
0.0
11
-40.183000
21
-26.683200
31
0.0
0
LINE
8
0
6
CONTINUOUS
10
-40.762000
20
-25.445300
30
0.0
11
-41.459000
21
-24.339800
31
0.0
0
LINE
8
0
6
CONTINUOUS
10
-41.765000
20
-24.661800
30
0.0
11
-41.019000
21
-25.725300
31
0.0
0
LINE
8
0
6
CONTINUOUS
10
-41.459000
20
-24.339800
30
0.0
11
-42.036000
21
-23.354500
31
0.0
0
LINE
8
0
6
CONTINUOUS
10
-42.342000
20
-23.648000
30
0.0
11
-41.765000
21
-24.661800
31
0.0
0
LINE
8
0
6
CONTINUOUS
10
-42.036000
20
-23.354500
30
0.0
11
-42.565000
21
-21.936500
31
0.0
0
LINE
8
0
6
CONTINUOUS
10
-42.899000
20
-22.196900
30
0.0
11
-42.342000
21
-23.648000
31
0.0
0
LINE
8
0
6
CONTINUOUS
10
-42.565000
20
-21.936500
30
0.0
11
-42.950000
21
-20.326300
31
0.0
0
LINE
8
0
6
CONTINUOUS
10
-43.287000
20
-20.566800
30
0.0
11
-42.899000
21
-22.196900
31
0.0
0
LINE
8
0
6
CONTINUOUS
10
-42.950000
20
-20.326300
30
0.0
11
-43.291000
21
-18.310200
31
0.0
0
LINE
8
0
6
CONTINUOUS
10
-43.652000
20
-18.561800
30
0.0
11
-43.287000
21
-20.566800
31
0.0
0
LINE
8
0
6
CONTINUOUS
10
-43.291000
20
-18.310200
30
0.0
11
-43.783000
21
-14.673800
31
0.0
0
LINE
8
0
6
CONTINUOUS
10
-43.783000
20
-14.673800
30
0.0
11
-44.296000
21
-10.136400
31
0.0
0
LINE
8
0
6
CONTINUOUS
10
-44.296000
20
-10.136400
30
0.0
11
-44.777000
21
-3.507700
31
0.0
0
LINE
8
0
6
CONTINUOUS
10
-44.777000
20
-3.507700
30
0.0
11
-45.159000
21
3.876900
31
0.0
0
LINE
8
0
6
CONTINUOUS
10
-45.540000
20
3.793900
30
0.0
11
-45.142000
21
-3.690200
31
0.0
0
LINE
8
0
6
CONTINUOUS
10
-45.159000
20
3.876900
30
0.0
11
-45.358000
21
9.643400
31
0.0
0
LINE
8
0
6
CONTINUOUS
10
-45.740000
20
9.593600
30
0.0
11
-45.540000
21
3.793900
31
0.0
0
LINE
8
0
6
CONTINUOUS
10
-45.358000
20
9.643400
30
0.0
11
-45.406000
21
13.500000
31
0.0
0
LINE
8
0
6
CONTINUOUS
10
-45.822000
20
13.500000
30
0.0
11
-45.740000
21
9.593600
31
0.0
0
LINE
8
0
6
CONTINUOUS
10
-40.183000
20
-26.683200
30
0.0
11
-41.019000
21
-25.725300
31
0.0
0
LINE
8
0
6
CONTINUOUS
10
-41.765000
20
-24.661800
30
0.0
11
-42.342000
21
-23.648000
31
0.0
0
LINE
8
0
6
CONTINUOUS
10
-42.342000
20
-23.648000
30
0.0
11
-42.899000
21
-22.196900
31
0.0
0
LINE
8
0
6
CONTINUOUS
10
-42.899000
20
-22.196900
30
0.0
11
-43.287000
21
-20.566800
31
0.0
0
LINE
8
0
6
CONTINUOUS
10
-43.287000
20
-20.566800
30
0.0
11
-43.652000
21
-18.561800
31
0.0
0
LINE
8
0
6
CONTINUOUS
10
-45.142000
20
-3.690200
30
0.0
11
-45.540000
21
3.793900
31
0.0
0
LINE
8
0
6
CONTINUOUS
10
-45.540000
20
3.793900
30
0.0
11
-45.740000
21
9.593600
31
0.0
0
LINE
8
0
6
CONTINUOUS
10
-45.740000
20
9.593600
30
0.0
11
-45.822000
21
13.500000
31
0.0
0
LINE
8
0
6
CONTINUOUS
10
-40.332000
20
-26.831600
30
0.0
11
-41.169000
21
-25.884300
31
0.0
0
LINE
8
0
6
CONTINUOUS
10
-41.169000
20
-25.884300
30
0.0
11
-41.895000
21
-24.791000
31
0.0
0
LINE
8
0
6
CONTINUOUS
10
-41.895000
20
-24.791000
30
0.0
11
-41.169000
21
-25.884300
31
0.0
0
LINE
8
0
6
CONTINUOUS
10
-43.058000
20
-22.336000
30
0.0
11
-43.466000
21
-20.676200
31
0.0
0
LINE
8
0
6
CONTINUOUS
10
-43.466000
20
-20.676200
30
0.0
11
-43.838000
21
-18.660200
31
0.0
0
LINE
8
0
6
CONTINUOUS
10
-43.838000
20
-18.660200
30
0.0
11
-44.282000
21
-14.932900
31
0.0
0
LINE
8
0
6
CONTINUOUS
10
-44.282000
20
-14.932900
30
0.0
11
-44.825000
21
-10.376700
31
0.0
0
LINE
8
0
6
CONTINUOUS
10
-44.825000
20
-10.376700
30
0.0
11
-45.325000
21
-3.773200
31
0.0
0
LINE
8
0
6
CONTINUOUS
10
-45.325000
20
-3.773200
30
0.0
11
-44.825000
21
-10.376700
31
0.0
0
LINE
8
0
6
CONTINUOUS
10
-45.325000
20
-3.773200
30
0.0
11
-45.740000
21
3.760700
31
0.0
0
LINE
8
0
6
CONTINUOUS
10
-45.740000
20
3.760700
30
0.0
11
-45.939000
21
9.577000
31
0.0
0
LINE
8
0
6
CONTINUOUS
10
-45.939000
20
9.577000
30
0.0
11
-46.000000
21
13.500000
31
0.0
0
LINE
8
0
6
CONTINUOUS
10
-46.000000
20
13.500000
30
0.0
11
-45.939000
21
9.577000
31
0.0
0
LINE
8
0
6
CONTINUOUS
10
37.267000
20
55.981000
30
0.0
11
35.836000
21
56.558000
31
0.0
0
LINE
8
0
6
CONTINUOUS
10
35.836000
20
56.558000
30
0.0
11
34.176000
21
56.966000
31
0.0
0
LINE
8
0
6
CONTINUOUS
10
28.433000
20
57.782000
30
0.0
11
23.877000
21
58.325000
31
0.0
0
LINE
8
0
6
CONTINUOUS
10
17.273000
20
58.825000
30
0.0
11
9.739000
21
59.240000
31
0.0
0
LINE
8
0
6
CONTINUOUS
10
40.332000
20
53.832000
30
0.0
11
39.384000
21
54.669000
31
0.0
0
LINE
8
0
6
CONTINUOUS
10
39.225000
20
54.519000
30
0.0
11
40.183000
21
53.683000
31
0.0
0
LINE
8
0
6
CONTINUOUS
10
39.384000
20
54.669000
30
0.0
11
38.291000
21
55.395000
31
0.0
0
LINE
8
0
6
CONTINUOUS
10
38.162000
20
55.265000
30
0.0
11
39.225000
21
54.519000
31
0.0
0
LINE
8
0
6
CONTINUOUS
10
38.291000
20
55.395000
30
0.0
11
37.267000
21
55.981000
31
0.0
0
LINE
8
0
6
CONTINUOUS
10
37.148000
20
55.842000
30
0.0
11
38.162000
21
55.265000
31
0.0
0
LINE
8
0
6
CONTINUOUS
10
37.267000
20
55.981000
30
0.0
11
35.836000
21
56.558000
31
0.0
0
LINE
8
0
6
CONTINUOUS
10
35.697000
20
56.399000
30
0.0
11
37.148000
21
55.842000
31
0.0
0
LINE
8
0
6
CONTINUOUS
10
35.836000
20
56.558000
30
0.0
11
34.176000
21
56.966000
31
0.0
0
LINE
8
0
6
CONTINUOUS
10
34.067000
20
56.787000
30
0.0
11
35.697000
21
56.399000
31
0.0
0
LINE
8
0
6
CONTINUOUS
10
34.176000
20
56.966000
30
0.0
11
32.160000
21
57.338000
31
0.0
0
LINE
8
0
6
CONTINUOUS
10
32.062000
20
57.152000
30
0.0
11
34.067000
21
56.787000
31
0.0
0
LINE
8
0
6
CONTINUOUS
10
32.160000
20
57.338000
30
0.0
11
28.433000
21
57.782000
31
0.0
0
LINE
8
0
6
CONTINUOUS
10
28.433000
20
57.782000
30
0.0
11
23.877000
21
58.325000
31
0.0
0
LINE
8
0
6
CONTINUOUS
10
23.877000
20
58.325000
30
0.0
11
17.273000
21
58.825000
31
0.0
0
LINE
8
0
6
CONTINUOUS
10
17.273000
20
58.825000
30
0.0
11
9.739000
21
59.240000
31
0.0
0
LINE
8
0
6
CONTINUOUS
10
9.706000
20
59.040000
30
0.0
11
17.190000
21
58.642000
31
0.0
0
LINE
8
0
6
CONTINUOUS
10
9.739000
20
59.240000
30
0.0
11
3.923000
21
59.439000
31
0.0
0
LINE
8
0
6
CONTINUOUS
10
3.906000
20
59.240000
30
0.0
11
9.706000
21
59.040000
31
0.0
0
LINE
8
0
6
CONTINUOUS
10
3.923000
20
59.439000
30
0.0
11
0.000000
21
59.500000
31
0.0
0
LINE
8
0
6
CONTINUOUS
10
0.000000
20
59.322000
30
0.0
11
3.906000
21
59.240000
31
0.0
0
LINE
8
0
6
CONTINUOUS
10
40.183000
20
53.683000
30
0.0
11
39.225000
21
54.519000
31
0.0
0
LINE
8
0
6
CONTINUOUS
10
38.945000
20
54.261000
30
0.0
11
39.886000
21
53.386000
31
0.0
0
LINE
8
0
6
CONTINUOUS
10
39.225000
20
54.519000
30
0.0
11
38.162000
21
55.265000
31
0.0
0
LINE
8
0
6
CONTINUOUS
10
37.840000
20
54.959000
30
0.0
11
38.945000
21
54.261000
31
0.0
0
LINE
8
0
6
CONTINUOUS
10
38.162000
20
55.265000
30
0.0
11
37.148000
21
55.842000
31
0.0
0
LINE
8
0
6
CONTINUOUS
10
36.854000
20
55.536000
30
0.0
11
37.840000
21
54.959000
31
0.0
0
LINE
8
0
6
CONTINUOUS
10
37.148000
20
55.842000
30
0.0
11
35.697000
21
56.399000
31
0.0
0
LINE
8
0
6
CONTINUOUS
10
35.436000
20
56.065000
30
0.0
11
36.854000
21
55.536000
31
0.0
0
LINE
8
0
6
CONTINUOUS
10
35.697000
20
56.399000
30
0.0
11
34.067000
21
56.787000
31
0.0
0
LINE
8
0
6
CONTINUOUS
10
33.826000
20
56.450000
30
0.0
11
35.436000
21
56.065000
31
0.0
0
LINE
8
0
6
CONTINUOUS
10
34.067000
20
56.787000
30
0.0
11
32.062000
21
57.152000
31
0.0
0
LINE
8
0
6
CONTINUOUS
10
31.810000
20
56.791000
30
0.0
11
33.826000
21
56.450000
31
0.0
0
LINE
8
0
6
CONTINUOUS
10
28.174000
20
57.283000
30
0.0
11
31.810000
21
56.791000
31
0.0
0
LINE
8
0
6
CONTINUOUS
10
23.636000
20
57.796000
30
0.0
11
28.174000
21
57.283000
31
0.0
0
LINE
8
0
6
CONTINUOUS
10
17.008000
20
58.277000
30
0.0
11
23.636000
21
57.796000
31
0.0
0
LINE
8
0
6
CONTINUOUS
10
17.190000
20
58.642000
30
0.0
11
9.706000
21
59.040000
31
0.0
0
LINE
8
0
6
CONTINUOUS
10
9.623000
20
58.659000
30
0.0
11
17.008000
21
58.277000
31
0.0
0
LINE
8
0
6
CONTINUOUS
10
9.706000
20
59.040000
30
0.0
11
3.906000
21
59.240000
31
0.0
0
LINE
8
0
6
CONTINUOUS
10
3.857000
20
58.858000
30
0.0
11
9.623000
21
58.659000
31
0.0
0
LINE
8
0
6
CONTINUOUS
10
3.906000
20
59.240000
30
0.0
11
0.000000
21
59.322000
31
0.0
0
LINE
8
0
6
CONTINUOUS
10
0.000000
20
58.906000
30
0.0
11
3.857000
21
58.858000
31
0.0
0
LINE
8
0
6
CONTINUOUS
10
35.836000
20
56.558000
30
0.0
11
37.267000
21
55.981000
31
0.0
0
LINE
8
0
6
CONTINUOUS
10
34.176000
20
56.966000
30
0.0
11
35.836000
21
56.558000
31
0.0
0
LINE
8
0
6
CONTINUOUS
10
23.877000
20
58.325000
30
0.0
11
28.433000
21
57.782000
31
0.0
0
LINE
8
0
6
CONTINUOUS
10
9.739000
20
59.240000
30
0.0
11
17.273000
21
58.825000
31
0.0
0
LINE
8
0
6
CONTINUOUS
10
39.886000
20
53.386000
30
0.0
11
38.945000
21
54.261000
31
0.0
0
LINE
8
0
6
CONTINUOUS
10
38.945000
20
54.261000
30
0.0
11
37.840000
21
54.959000
31
0.0
0
LINE
8
0
6
CONTINUOUS
10
37.840000
20
54.959000
30
0.0
11
36.854000
21
55.536000
31
0.0
0
LINE
8
0
6
CONTINUOUS
10
36.854000
20
55.536000
30
0.0
11
35.436000
21
56.065000
31
0.0
0
LINE
8
0
6
CONTINUOUS
10
35.436000
20
56.065000
30
0.0
11
33.826000
21
56.450000
31
0.0
0
LINE
8
0
6
CONTINUOUS
10
33.826000
20
56.450000
30
0.0
11
31.810000
21
56.791000
31
0.0
0
LINE
8
0
6
CONTINUOUS
10
28.174000
20
57.283000
30
0.0
11
23.636000
21
57.796000
31
0.0
0
LINE
8
0
6
CONTINUOUS
10
23.636000
20
57.796000
30
0.0
11
17.008000
21
58.277000
31
0.0
0
LINE
8
0
6
CONTINUOUS
10
17.008000
20
58.277000
30
0.0
11
9.623000
21
58.659000
31
0.0
0
LINE
8
0
6
CONTINUOUS
10
9.623000
20
58.659000
30
0.0
11
3.857000
21
58.858000
31
0.0
0
LINE
8
0
6
CONTINUOUS
10
3.857000
20
58.858000
30
0.0
11
0.000000
21
58.906000
31
0.0
0
LINE
8
0
6
CONTINUOUS
10
40.761000
20
52.445000
30
0.0
11
39.886000
21
53.386000
31
0.0
0
LINE
8
0
6
CONTINUOUS
10
42.036000
20
50.354000
30
0.0
11
41.459000
21
51.340000
31
0.0
0
LINE
8
0
6
CONTINUOUS
10
42.565000
20
48.937000
30
0.0
11
42.036000
21
50.354000
31
0.0
0
LINE
8
0
6
CONTINUOUS
10
42.950000
20
47.326000
30
0.0
11
42.565000
21
48.937000
31
0.0
0
LINE
8
0
6
CONTINUOUS
10
43.291000
20
45.310000
30
0.0
11
42.950000
21
47.326000
31
0.0
0
LINE
8
0
6
CONTINUOUS
10
43.783000
20
41.674000
30
0.0
11
43.291000
21
45.310000
31
0.0
0
LINE
8
0
6
CONTINUOUS
10
44.296000
20
37.136400
30
0.0
11
43.783000
21
41.674000
31
0.0
0
LINE
8
0
6
CONTINUOUS
10
45.159000
20
23.123100
30
0.0
11
44.777000
21
30.507700
31
0.0
0
LINE
8
0
6
CONTINUOUS
10
45.358000
20
17.356600
30
0.0
11
45.159000
21
23.123100
31
0.0
0
LINE
8
0
6
CONTINUOUS
10
45.406000
20
13.500000
30
0.0
11
45.358000
21
17.356600
31
0.0
0
LINE
8
0
6
CONTINUOUS
10
41.169000
20
52.884000
30
0.0
11
41.895000
21
51.791000
31
0.0
0
LINE
8
0
6
CONTINUOUS
10
44.825000
20
37.376700
30
0.0
11
45.325000
21
30.773200
31
0.0
0
LINE
8
0
6
CONTINUOUS
10
45.939000
20
17.423000
30
0.0
11
46.000000
21
13.500000
31
0.0
0
LINE
8
0
6
CONTINUOUS
10
39.886000
20
53.386000
30
0.0
11
40.761000
21
52.445000
31
0.0
0
LINE
8
0
6
CONTINUOUS
10
41.019000
20
52.725000
30
0.0
11
40.183000
21
53.683000
31
0.0
0
LINE
8
0
6
CONTINUOUS
10
40.761000
20
52.445000
30
0.0
11
41.459000
21
51.340000
31
0.0
0
LINE
8
0
6
CONTINUOUS
10
41.765000
20
51.662000
30
0.0
11
41.019000
21
52.725000
31
0.0
0
LINE
8
0
6
CONTINUOUS
10
41.459000
20
51.340000
30
0.0
11
42.036000
21
50.354000
31
0.0
0
LINE
8
0
6
CONTINUOUS
10
42.342000
20
50.648000
30
0.0
11
41.765000
21
51.662000
31
0.0
0
LINE
8
0
6
CONTINUOUS
10
42.036000
20
50.354000
30
0.0
11
42.565000
21
48.937000
31
0.0
0
LINE
8
0
6
CONTINUOUS
10
42.899000
20
49.197000
30
0.0
11
42.342000
21
50.648000
31
0.0
0
LINE
8
0
6
CONTINUOUS
10
42.565000
20
48.937000
30
0.0
11
42.950000
21
47.326000
31
0.0
0
LINE
8
0
6
CONTINUOUS
10
43.287000
20
47.567000
30
0.0
11
42.899000
21
49.197000
31
0.0
0
LINE
8
0
6
CONTINUOUS
10
42.950000
20
47.326000
30
0.0
11
43.291000
21
45.310000
31
0.0
0
LINE
8
0
6
CONTINUOUS
10
43.652000
20
45.562000
30
0.0
11
43.287000
21
47.567000
31
0.0
0
LINE
8
0
6
CONTINUOUS
10
43.291000
20
45.310000
30
0.0
11
43.783000
21
41.674000
31
0.0
0
LINE
8
0
6
CONTINUOUS
10
43.783000
20
41.674000
30
0.0
11
44.296000
21
37.136400
31
0.0
0
LINE
8
0
6
CONTINUOUS
10
44.296000
20
37.136400
30
0.0
11
44.777000
21
30.507700
31
0.0
0
LINE
8
0
6
CONTINUOUS
10
44.777000
20
30.507700
30
0.0
11
45.159000
21
23.123100
31
0.0
0
LINE
8
0
6
CONTINUOUS
10
45.540000
20
23.206100
30
0.0
11
45.142000
21
30.690200
31
0.0
0
LINE
8
0
6
CONTINUOUS
10
45.159000
20
23.123100
30
0.0
11
45.358000
21
17.356600
31
0.0
0
LINE
8
0
6
CONTINUOUS
10
45.740000
20
17.406400
30
0.0
11
45.540000
21
23.206100
31
0.0
0
LINE
8
0
6
CONTINUOUS
10
45.358000
20
17.356600
30
0.0
11
45.406000
21
13.500000
31
0.0
0
LINE
8
0
6
CONTINUOUS
10
45.822000
20
13.500000
30
0.0
11
45.740000
21
17.406400
31
0.0
0
LINE
8
0
6
CONTINUOUS
10
40.183000
20
53.683000
30
0.0
11
41.019000
21
52.725000
31
0.0
0
LINE
8
0
6
CONTINUOUS
10
41.765000
20
51.662000
30
0.0
11
42.342000
21
50.648000
31
0.0
0
LINE
8
0
6
CONTINUOUS
10
42.342000
20
50.648000
30
0.0
11
42.899000
21
49.197000
31
0.0
0
LINE
8
0
6
CONTINUOUS
10
42.899000
20
49.197000
30
0.0
11
43.287000
21
47.567000
31
0.0
0
LINE
8
0
6
CONTINUOUS
10
43.287000
20
47.567000
30
0.0
11
43.652000
21
45.562000
31
0.0
0
LINE
8
0
6
CONTINUOUS
10
45.142000
20
30.690200
30
0.0
11
45.540000
21
23.206100
31
0.0
0
LINE
8
0
6
CONTINUOUS
10
45.540000
20
23.206100
30
0.0
11
45.740000
21
17.406400
31
0.0
0
LINE
8
0
6
CONTINUOUS
10
45.740000
20
17.406400
30
0.0
11
45.822000
21
13.500000
31
0.0
0
LINE
8
0
6
CONTINUOUS
10
40.332000
20
53.832000
30
0.0
11
41.169000
21
52.884000
31
0.0
0
LINE
8
0
6
CONTINUOUS
10
41.169000
20
52.884000
30
0.0
11
41.895000
21
51.791000
31
0.0
0
LINE
8
0
6
CONTINUOUS
10
41.895000
20
51.791000
30
0.0
11
41.169000
21
52.884000
31
0.0
0
LINE
8
0
6
CONTINUOUS
10
41.895000
20
51.791000
30
0.0
11
42.481000
21
50.767000
31
0.0
0
LINE
8
0
6
CONTINUOUS
10
42.481000
20
50.767000
30
0.0
11
43.058000
21
49.336000
31
0.0
0
LINE
8
0
6
CONTINUOUS
10
43.058000
20
49.336000
30
0.0
11
43.466000
21
47.676000
31
0.0
0
LINE
8
0
6
CONTINUOUS
10
43.466000
20
47.676000
30
0.0
11
43.838000
21
45.660000
31
0.0
0
LINE
8
0
6
CONTINUOUS
10
43.838000
20
45.660000
30
0.0
11
44.282000
21
41.933000
31
0.0
0
LINE
8
0
6
CONTINUOUS
10
44.282000
20
41.933000
30
0.0
11
44.825000
21
37.376700
31
0.0
0
LINE
8
0
6
CONTINUOUS
10
44.825000
20
37.376700
30
0.0
11
45.325000
21
30.773200
31
0.0
0
LINE
8
0
6
CONTINUOUS
10
45.325000
20
30.773200
30
0.0
11
44.825000
21
37.376700
31
0.0
0
LINE
8
0
6
CONTINUOUS
10
45.325000
20
30.773200
30
0.0
11
45.740000
21
23.239300
31
0.0
0
LINE
8
0
6
CONTINUOUS
10
45.740000
20
23.239300
30
0.0
11
45.939000
21
17.423000
31
0.0
0
LINE
8
0
6
CONTINUOUS
10
45.939000
20
17.423000
30
0.0
11
46.000000
21
13.500000
31
0.0
0
LINE
8
0
6
CONTINUOUS
10
46.000000
20
13.500000
30
0.0
11
45.939000
21
17.423000
31
0.0
0
LINE
8
0
6
CONTINUOUS
10
42.481000
20
-23.767300
30
0.0
11
43.058000
21
-22.336000
31
0.0
0
LINE
8
0
6
CONTINUOUS
10
43.058000
20
-22.336000
30
0.0
11
43.466000
21
-20.676200
31
0.0
0
LINE
8
0
6
CONTINUOUS
10
44.282000
20
-14.932900
30
0.0
11
44.825000
21
-10.376700
31
0.0
0
LINE
8
0
6
CONTINUOUS
10
45.325000
20
-3.773200
30
0.0
11
45.740000
21
3.760700
31
0.0
0
LINE
8
0
6
CONTINUOUS
10
40.332000
20
-26.831600
30
0.0
11
41.169000
21
-25.884300
31
0.0
0
LINE
8
0
6
CONTINUOUS
10
41.019000
20
-25.725300
30
0.0
11
40.183000
21
-26.683200
31
0.0
0
LINE
8
0
6
CONTINUOUS
10
41.169000
20
-25.884300
30
0.0
11
41.895000
21
-24.791000
31
0.0
0
LINE
8
0
6
CONTINUOUS
10
41.765000
20
-24.661800
30
0.0
11
41.019000
21
-25.725300
31
0.0
0
LINE
8
0
6
CONTINUOUS
10
42.342000
20
-23.648000
30
0.0
11
41.765000
21
-24.661800
31
0.0
0
LINE
8
0
6
CONTINUOUS
10
42.899000
20
-22.196900
30
0.0
11
42.342000
21
-23.648000
31
0.0
0
LINE
8
0
6
CONTINUOUS
10
43.058000
20
-22.336000
30
0.0
11
43.466000
21
-20.676200
31
0.0
0
LINE
8
0
6
CONTINUOUS
10
43.287000
20
-20.566800
30
0.0
11
42.899000
21
-22.196900
31
0.0
0
LINE
8
0
6
CONTINUOUS
10
43.466000
20
-20.676200
30
0.0
11
43.838000
21
-18.660200
31
0.0
0
LINE
8
0
6
CONTINUOUS
10
43.652000
20
-18.561800
30
0.0
11
43.287000
21
-20.566800
31
0.0
0
LINE
8
0
6
CONTINUOUS
10
43.838000
20
-18.660200
30
0.0
11
44.282000
21
-14.932900
31
0.0
0
LINE
8
0
6
CONTINUOUS
10
44.282000
20
-14.932900
30
0.0
11
44.825000
21
-10.376700
31
0.0
0
LINE
8
0
6
CONTINUOUS
10
44.825000
20
-10.376700
30
0.0
11
45.325000
21
-3.773200
31
0.0
0
LINE
8
0
6
CONTINUOUS
10
45.325000
20
-3.773200
30
0.0
11
45.740000
21
3.760700
31
0.0
0
LINE
8
0
6
CONTINUOUS
10
45.540000
20
3.793900
30
0.0
11
45.142000
21
-3.690200
31
0.0
0
LINE
8
0
6
CONTINUOUS
10
45.740000
20
3.760700
30
0.0
11
45.939000
21
9.577000
31
0.0
0
LINE
8
0
6
CONTINUOUS
10
45.740000
20
9.593600
30
0.0
11
45.540000
21
3.793900
31
0.0
0
LINE
8
0
6
CONTINUOUS
10
45.939000
20
9.577000
30
0.0
11
46.000000
21
13.500000
31
0.0
0
LINE
8
0
6
CONTINUOUS
10
45.822000
20
13.500000
30
0.0
11
45.740000
21
9.593600
31
0.0
0
LINE
8
0
6
CONTINUOUS
10
40.183000
20
-26.683200
30
0.0
11
41.019000
21
-25.725300
31
0.0
0
LINE
8
0
6
CONTINUOUS
10
40.761000
20
-25.445300
30
0.0
11
39.886000
21
-26.386500
31
0.0
0
LINE
8
0
6
CONTINUOUS
10
41.019000
20
-25.725300
30
0.0
11
41.765000
21
-24.661800
31
0.0
0
LINE
8
0
6
CONTINUOUS
10
41.459000
20
-24.339800
30
0.0
11
40.761000
21
-25.445300
31
0.0
0
LINE
8
0
6
CONTINUOUS
10
41.765000
20
-24.661800
30
0.0
11
42.342000
21
-23.648000
31
0.0
0
LINE
8
0
6
CONTINUOUS
10
42.036000
20
-23.354500
30
0.0
11
41.459000
21
-24.339800
31
0.0
0
LINE
8
0
6
CONTINUOUS
10
42.342000
20
-23.648000
30
0.0
11
42.899000
21
-22.196900
31
0.0
0
LINE
8
0
6
CONTINUOUS
10
42.565000
20
-21.936500
30
0.0
11
42.036000
21
-23.354500
31
0.0
0
LINE
8
0
6
CONTINUOUS
10
42.899000
20
-22.196900
30
0.0
11
43.287000
21
-20.566800
31
0.0
0
LINE
8
0
6
CONTINUOUS
10
42.950000
20
-20.326300
30
0.0
11
42.565000
21
-21.936500
31
0.0
0
LINE
8
0
6
CONTINUOUS
10
43.287000
20
-20.566800
30
0.0
11
43.652000
21
-18.561800
31
0.0
0
LINE
8
0
6
CONTINUOUS
10
43.291000
20
-18.310200
30
0.0
11
42.950000
21
-20.326300
31
0.0
0
LINE
8
0
6
CONTINUOUS
10
43.783000
20
-14.673800
30
0.0
11
43.291000
21
-18.310200
31
0.0
0
LINE
8
0
6
CONTINUOUS
10
44.296000
20
-10.136400
30
0.0
11
43.783000
21
-14.673800
31
0.0
0
LINE
8
0
6
CONTINUOUS
10
44.777000
20
-3.507700
30
0.0
11
44.296000
21
-10.136400
31
0.0
0
LINE
8
0
6
CONTINUOUS
10
45.142000
20
-3.690200
30
0.0
11
45.540000
21
3.793900
31
0.0
0
LINE
8
0
6
CONTINUOUS
10
45.159000
20
3.876900
30
0.0
11
44.777000
21
-3.507700
31
0.0
0
LINE
8
0
6
CONTINUOUS
10
45.540000
20
3.793900
30
0.0
11
45.740000
21
9.593600
31
0.0
0
LINE
8
0
6
CONTINUOUS
10
45.358000
20
9.643400
30
0.0
11
45.159000
21
3.876900
31
0.0
0
LINE
8
0
6
CONTINUOUS
10
45.740000
20
9.593600
30
0.0
11
45.822000
21
13.500000
31
0.0
0
LINE
8
0
6
CONTINUOUS
10
45.406000
20
13.500000
30
0.0
11
45.358000
21
9.643400
31
0.0
0
LINE
8
0
6
CONTINUOUS
10
43.058000
20
-22.336000
30
0.0
11
42.481000
21
-23.767300
31
0.0
0
LINE
8
0
6
CONTINUOUS
10
43.466000
20
-20.676200
30
0.0
11
43.058000
21
-22.336000
31
0.0
0
LINE
8
0
6
CONTINUOUS
10
44.825000
20
-10.376700
30
0.0
11
44.282000
21
-14.932900
31
0.0
0
LINE
8
0
6
CONTINUOUS
10
45.740000
20
3.760700
30
0.0
11
45.325000
21
-3.773200
31
0.0
0
LINE
8
0
6
CONTINUOUS
10
39.886000
20
-26.386500
30
0.0
11
40.761000
21
-25.445300
31
0.0
0
LINE
8
0
6
CONTINUOUS
10
40.761000
20
-25.445300
30
0.0
11
41.459000
21
-24.339800
31
0.0
0
LINE
8
0
6
CONTINUOUS
10
41.459000
20
-24.339800
30
0.0
11
42.036000
21
-23.354500
31
0.0
0
LINE
8
0
6
CONTINUOUS
10
42.036000
20
-23.354500
30
0.0
11
42.565000
21
-21.936500
31
0.0
0
LINE
8
0
6
CONTINUOUS
10
42.565000
20
-21.936500
30
0.0
11
42.950000
21
-20.326300
31
0.0
0
LINE
8
0
6
CONTINUOUS
10
42.950000
20
-20.326300
30
0.0
11
43.291000
21
-18.310200
31
0.0
0
LINE
8
0
6
CONTINUOUS
10
43.783000
20
-14.673800
30
0.0
11
44.296000
21
-10.136400
31
0.0
0
LINE
8
0
6
CONTINUOUS
10
44.296000
20
-10.136400
30
0.0
11
44.777000
21
-3.507700
31
0.0
0
LINE
8
0
6
CONTINUOUS
10
44.777000
20
-3.507700
30
0.0
11
45.159000
21
3.876900
31
0.0
0
LINE
8
0
6
CONTINUOUS
10
45.159000
20
3.876900
30
0.0
11
45.358000
21
9.643400
31
0.0
0
LINE
8
0
6
CONTINUOUS
10
45.358000
20
9.643400
30
0.0
11
45.406000
21
13.500000
31
0.0
0
LINE
8
0
6
CONTINUOUS
10
38.945000
20
-27.261500
30
0.0
11
39.886000
21
-26.386500
31
0.0
0
LINE
8
0
6
CONTINUOUS
10
36.854000
20
-28.535900
30
0.0
11
37.840000
21
-27.958800
31
0.0
0
LINE
8
0
6
CONTINUOUS
10
35.436000
20
-29.064900
30
0.0
11
36.854000
21
-28.535900
31
0.0
0
LINE
8
0
6
CONTINUOUS
10
33.826000
20
-29.449700
30
0.0
11
35.436000
21
-29.064900
31
0.0
0
LINE
8
0
6
CONTINUOUS
10
31.810000
20
-29.790800
30
0.0
11
33.826000
21
-29.449700
31
0.0
0
LINE
8
0
6
CONTINUOUS
10
28.174000
20
-30.283300
30
0.0
11
31.810000
21
-29.790800
31
0.0
0
LINE
8
0
6
CONTINUOUS
10
28.000000
20
-30.302970
30
0.0
11
28.174000
21
-30.283300
31
0.0
0
LINE
8
0
6
CONTINUOUS
10
39.384000
20
-27.668600
30
0.0
11
38.291000
21
-28.394600
31
0.0
0
LINE
8
0
6
CONTINUOUS
10
39.886000
20
-26.386500
30
0.0
11
38.945000
21
-27.261500
31
0.0
0
LINE
8
0
6
CONTINUOUS
10
39.225000
20
-27.519400
30
0.0
11
40.183000
21
-26.683200
31
0.0
0
LINE
8
0
6
CONTINUOUS
10
38.945000
20
-27.261500
30
0.0
11
37.840000
21
-27.958800
31
0.0
0
LINE
8
0
6
CONTINUOUS
10
38.162000
20
-28.265300
30
0.0
11
39.225000
21
-27.519400
31
0.0
0
LINE
8
0
6
CONTINUOUS
10
37.840000
20
-27.958800
30
0.0
11
36.854000
21
-28.535900
31
0.0
0
LINE
8
0
6
CONTINUOUS
10
37.148000
20
-28.842100
30
0.0
11
38.162000
21
-28.265300
31
0.0
0
LINE
8
0
6
CONTINUOUS
10
36.854000
20
-28.535900
30
0.0
11
35.436000
21
-29.064900
31
0.0
0
LINE
8
0
6
CONTINUOUS
10
35.697000
20
-29.399000
30
0.0
11
37.148000
21
-28.842100
31
0.0
0
LINE
8
0
6
CONTINUOUS
10
35.436000
20
-29.064900
30
0.0
11
33.826000
21
-29.449700
31
0.0
0
LINE
8
0
6
CONTINUOUS
10
34.067000
20
-29.786800
30
0.0
11
35.697000
21
-29.399000
31
0.0
0
LINE
8
0
6
CONTINUOUS
10
33.826000
20
-29.449700
30
0.0
11
31.810000
21
-29.790800
31
0.0
0
LINE
8
0
6
CONTINUOUS
10
32.062000
20
-30.151900
30
0.0
11
34.067000
21
-29.786800
31
0.0
0
LINE
8
0
6
CONTINUOUS
10
31.810000
20
-29.790800
30
0.0
11
28.174000
21
-30.283300
31
0.0
0
LINE
8
0
6
CONTINUOUS
10
28.174000
20
-30.283300
30
0.0
11
28.000000
21
-30.302970
31
0.0
0
LINE
8
0
6
CONTINUOUS
10
40.183000
20
-26.683200
30
0.0
11
39.225000
21
-27.519400
31
0.0
0
LINE
8
0
6
CONTINUOUS
10
38.162000
20
-28.265300
30
0.0
11
37.148000
21
-28.842100
31
0.0
0
LINE
8
0
6
CONTINUOUS
10
37.148000
20
-28.842100
30
0.0
11
35.697000
21
-29.399000
31
0.0
0
LINE
8
0
6
CONTINUOUS
10
35.697000
20
-29.399000
30
0.0
11
34.067000
21
-29.786800
31
0.0
0
LINE
8
0
6
CONTINUOUS
10
34.067000
20
-29.786800
30
0.0
11
32.062000
21
-30.151900
31
0.0
0
LINE
8
0
6
CONTINUOUS
10
40.332000
20
-26.831600
30
0.0
11
39.384000
21
-27.668600
31
0.0
0
LINE
8
0
6
CONTINUOUS
10
39.384000
20
-27.668600
30
0.0
11
38.291000
21
-28.394600
31
0.0
0
LINE
8
0
6
CONTINUOUS
10
38.291000
20
-28.394600
30
0.0
11
39.384000
21
-27.668600
31
0.0
0
LINE
8
0
6
CONTINUOUS
10
38.291000
20
-28.394600
30
0.0
11
37.267000
21
-28.981300
31
0.0
0
LINE
8
0
6
CONTINUOUS
10
37.267000
20
-28.981300
30
0.0
11
35.836000
21
-29.558100
31
0.0
0
LINE
8
0
6
CONTINUOUS
10
35.836000
20
-29.558100
30
0.0
11
34.176000
21
-29.965900
31
0.0
0
LINE
8
0
6
CONTINUOUS
10
34.176000
20
-29.965900
30
0.0
11
32.160000
21
-30.337900
31
0.0
0
LINE
8
0
6
CONTINUOUS
10
28.433000
20
-30.782000
30
0.0
11
28.000000
21
-30.833635
31
0.0
0
LINE
8
0
6
CONTINUOUS
10
65.000000
20
-35.500000
30
0.0
11
0.000000
21
-35.500000
31
0.0
0
LINE
8
0
6
CONTINUOUS
10
0.000000
20
-45.500000
30
0.0
11
65.000000
21
-45.500000
31
0.0
0
LINE
8
0
6
CONTINUOUS
10
183.954000
20
-35.500000
30
0.0
11
180.212000
21
-35.500000
31
0.0
0
LINE
8
0
6
CONTINUOUS
10
180.212000
20
-35.500000
30
0.0
11
176.147000
21
-35.500000
31
0.0
0
LINE
8
0
6
CONTINUOUS
10
176.147000
20
-35.500000
30
0.0
11
170.922000
21
-35.500000
31
0.0
0
LINE
8
0
6
CONTINUOUS
10
170.922000
20
-35.500000
30
0.0
11
164.679000
21
-35.500000
31
0.0
0
LINE
8
0
6
CONTINUOUS
10
164.679000
20
-35.500000
30
0.0
11
154.227000
21
-35.500000
31
0.0
0
LINE
8
0
6
CONTINUOUS
10
154.227000
20
-35.500000
30
0.0
11
138.259000
21
-35.500000
31
0.0
0
LINE
8
0
6
CONTINUOUS
10
138.259000
20
-35.500000
30
0.0
11
116.697000
21
-35.500000
31
0.0
0
LINE
8
0
6
CONTINUOUS
10
116.697000
20
-35.500000
30
0.0
11
92.605000
21
-35.500000
31
0.0
0
LINE
8
0
6
CONTINUOUS
10
92.605000
20
-35.500000
30
0.0
11
65.000000
21
-35.500000
31
0.0
0
LINE
8
0
6
CONTINUOUS
10
171.417000
20
-45.500000
30
0.0
11
174.874000
21
-45.500000
31
0.0
0
LINE
8
0
6
CONTINUOUS
10
167.663000
20
-45.500000
30
0.0
11
171.417000
21
-45.500000
31
0.0
0
LINE
8
0
6
CONTINUOUS
10
162.836000
20
-45.500000
30
0.0
11
167.663000
21
-45.500000
31
0.0
0
LINE
8
0
6
CONTINUOUS
10
157.070000
20
-45.500000
30
0.0
11
162.836000
21
-45.500000
31
0.0
0
LINE
8
0
6
CONTINUOUS
10
147.416000
20
-45.500000
30
0.0
11
157.070000
21
-45.500000
31
0.0
0
LINE
8
0
6
CONTINUOUS
10
132.667000
20
-45.500000
30
0.0
11
147.416000
21
-45.500000
31
0.0
0
LINE
8
0
6
CONTINUOUS
10
112.751000
20
-45.500000
30
0.0
11
132.667000
21
-45.500000
31
0.0
0
LINE
8
0
6
CONTINUOUS
10
90.498000
20
-45.500000
30
0.0
11
112.751000
21
-45.500000
31
0.0
0
LINE
8
0
6
CONTINUOUS
10
65.000000
20
-45.500000
30
0.0
11
90.498000
21
-45.500000
31
0.0
0
LINE
8
0
6
CONTINUOUS
10
183.954000
20
-35.500000
30
0.0
11
186.776000
21
-35.500000
31
0.0
0
LINE
8
0
6
CONTINUOUS
10
186.776000
20
-35.500000
30
0.0
11
188.955000
21
-35.500000
31
0.0
0
LINE
8
0
6
CONTINUOUS
10
188.955000
20
-35.500000
30
0.0
11
190.262000
21
-35.500000
31
0.0
0
LINE
8
0
6
CONTINUOUS
10
189.306000
20
-34.500000
30
0.0
11
188.009000
21
-34.500000
31
0.0
0
LINE
8
0
6
CONTINUOUS
10
190.262000
20
-35.500000
30
0.0
11
191.279000
21
-35.500000
31
0.0
0
LINE
8
0
6
CONTINUOUS
10
190.315000
20
-34.500000
30
0.0
11
189.306000
21
-34.500000
31
0.0
0
LINE
8
0
6
CONTINUOUS
10
191.279000
20
-35.500000
30
0.0
11
192.441000
21
-35.500000
31
0.0
0
LINE
8
0
6
CONTINUOUS
10
191.468000
20
-34.500000
30
0.0
11
190.315000
21
-34.500000
31
0.0
0
LINE
8
0
6
CONTINUOUS
10
192.441000
20
-35.500000
30
0.0
11
193.603000
21
-35.500000
31
0.0
0
LINE
8
0
6
CONTINUOUS
10
192.621000
20
-34.500000
30
0.0
11
191.468000
21
-34.500000
31
0.0
0
LINE
8
0
6
CONTINUOUS
10
193.603000
20
-35.500000
30
0.0
11
194.996000
21
-35.500000
31
0.0
0
LINE
8
0
6
CONTINUOUS
10
194.004000
20
-34.500000
30
0.0
11
192.621000
21
-34.500000
31
0.0
0
LINE
8
0
6
CONTINUOUS
10
194.996000
20
-35.500000
30
0.0
11
195.498000
21
-35.500000
31
0.0
0
LINE
8
0
6
CONTINUOUS
10
194.502000
20
-34.500000
30
0.0
11
194.004000
21
-34.500000
31
0.0
0
LINE
8
0
6
CONTINUOUS
10
196.000000
20
-35.500000
30
0.0
11
195.000000
21
-34.500000
31
0.0
0
LINE
8
0
6
CONTINUOUS
10
195.498000
20
-35.500000
30
0.0
11
196.000000
21
-35.500000
31
0.0
0
LINE
8
0
6
CONTINUOUS
10
195.000000
20
-34.500000
30
0.0
11
194.502000
21
-34.500000
31
0.0
0
LINE
8
0
6
CONTINUOUS
10
188.009000
20
-34.500000
30
0.0
11
189.306000
21
-34.500000
31
0.0
0
LINE
8
0
6
CONTINUOUS
10
189.306000
20
-34.500000
30
0.0
11
190.315000
21
-34.500000
31
0.0
0
LINE
8
0
6
CONTINUOUS
10
190.315000
20
-34.500000
30
0.0
11
191.468000
21
-34.500000
31
0.0
0
LINE
8
0
6
CONTINUOUS
10
191.468000
20
-34.500000
30
0.0
11
192.621000
21
-34.500000
31
0.0
0
LINE
8
0
6
CONTINUOUS
10
192.621000
20
-34.500000
30
0.0
11
194.004000
21
-34.500000
31
0.0
0
LINE
8
0
6
CONTINUOUS
10
194.004000
20
-34.500000
30
0.0
11
194.502000
21
-34.500000
31
0.0
0
LINE
8
0
6
CONTINUOUS
10
195.000000
20
-34.500000
30
0.0
11
186.000000
21
-33.500000
31
0.0
0
LINE
8
0
6
CONTINUOUS
10
194.502000
20
-34.500000
30
0.0
11
195.000000
21
-34.500000
31
0.0
0
LINE
8
0
6
CONTINUOUS
10
158.888000
20
-32.500000
30
0.0
11
156.713000
21
-32.500000
31
0.0
0
LINE
8
0
6
CONTINUOUS
10
160.568000
20
-32.500000
30
0.0
11
158.888000
21
-32.500000
31
0.0
0
LINE
8
0
6
CONTINUOUS
10
161.576000
20
-32.500000
30
0.0
11
160.568000
21
-32.500000
31
0.0
0
LINE
8
0
6
CONTINUOUS
10
162.360000
20
-32.500000
30
0.0
11
161.576000
21
-32.500000
31
0.0
0
LINE
8
0
6
CONTINUOUS
10
163.256000
20
-32.500000
30
0.0
11
162.360000
21
-32.500000
31
0.0
0
LINE
8
0
6
CONTINUOUS
10
164.152000
20
-32.500000
30
0.0
11
163.256000
21
-32.500000
31
0.0
0
LINE
8
0
6
CONTINUOUS
10
165.226000
20
-32.500000
30
0.0
11
164.152000
21
-32.500000
31
0.0
0
LINE
8
0
6
CONTINUOUS
10
165.613000
20
-32.500000
30
0.0
11
165.226000
21
-32.500000
31
0.0
0
LINE
8
0
6
CONTINUOUS
10
186.000000
20
-33.500000
30
0.0
11
166.000000
21
-32.500000
31
0.0
0
LINE
8
0
6
CONTINUOUS
10
166.000000
20
-32.500000
30
0.0
11
165.613000
21
-32.500000
31
0.0
0
LINE
8
0
6
CONTINUOUS
10
65.000000
20
-32.500000
30
0.0
11
0.000000
21
-32.500000
31
0.0
0
LINE
8
0
6
CONTINUOUS
10
0.000000
20
-34.500000
30
0.0
11
65.000000
21
-34.500000
31
0.0
0
LINE
8
0
6
CONTINUOUS
10
0.000000
20
-35.500000
30
0.0
11
65.000000
21
-35.500000
31
0.0
0
LINE
8
0
6
CONTINUOUS
10
65.000000
20
-34.500000
30
0.0
11
0.000000
21
-34.500000
31
0.0
0
LINE
8
0
6
CONTINUOUS
10
180.212000
20
-35.500000
30
0.0
11
183.954000
21
-35.500000
31
0.0
0
LINE
8
0
6
CONTINUOUS
10
176.147000
20
-35.500000
30
0.0
11
180.212000
21
-35.500000
31
0.0
0
LINE
8
0
6
CONTINUOUS
10
175.299000
20
-34.500000
30
0.0
11
170.113000
21
-34.500000
31
0.0
0
LINE
8
0
6
CONTINUOUS
10
170.922000
20
-35.500000
30
0.0
11
176.147000
21
-35.500000
31
0.0
0
LINE
8
0
6
CONTINUOUS
10
170.113000
20
-34.500000
30
0.0
11
163.918000
21
-34.500000
31
0.0
0
LINE
8
0
6
CONTINUOUS
10
164.679000
20
-35.500000
30
0.0
11
170.922000
21
-35.500000
31
0.0
0
LINE
8
0
6
CONTINUOUS
10
163.918000
20
-34.500000
30
0.0
11
153.546000
21
-34.500000
31
0.0
0
LINE
8
0
6
CONTINUOUS
10
154.227000
20
-35.500000
30
0.0
11
164.679000
21
-35.500000
31
0.0
0
LINE
8
0
6
CONTINUOUS
10
153.546000
20
-34.500000
30
0.0
11
137.700000
21
-34.500000
31
0.0
0
LINE
8
0
6
CONTINUOUS
10
138.259000
20
-35.500000
30
0.0
11
154.227000
21
-35.500000
31
0.0
0
LINE
8
0
6
CONTINUOUS
10
137.700000
20
-34.500000
30
0.0
11
116.303000
21
-34.500000
31
0.0
0
LINE
8
0
6
CONTINUOUS
10
116.697000
20
-35.500000
30
0.0
11
138.259000
21
-35.500000
31
0.0
0
LINE
8
0
6
CONTINUOUS
10
116.303000
20
-34.500000
30
0.0
11
92.395000
21
-34.500000
31
0.0
0
LINE
8
0
6
CONTINUOUS
10
92.605000
20
-35.500000
30
0.0
11
116.697000
21
-35.500000
31
0.0
0
LINE
8
0
6
CONTINUOUS
10
92.395000
20
-34.500000
30
0.0
11
65.000000
21
-34.500000
31
0.0
0
LINE
8
0
6
CONTINUOUS
10
65.000000
20
-35.500000
30
0.0
11
92.605000
21
-35.500000
31
0.0
0
LINE
8
0
6
CONTINUOUS
10
170.113000
20
-34.500000
30
0.0
11
175.299000
21
-34.500000
31
0.0
0
LINE
8
0
6
CONTINUOUS
10
163.918000
20
-34.500000
30
0.0
11
170.113000
21
-34.500000
31
0.0
0
LINE
8
0
6
CONTINUOUS
10
153.546000
20
-34.500000
30
0.0
11
163.918000
21
-34.500000
31
0.0
0
LINE
8
0
6
CONTINUOUS
10
137.700000
20
-34.500000
30
0.0
11
153.546000
21
-34.500000
31
0.0
0
LINE
8
0
6
CONTINUOUS
10
116.303000
20
-34.500000
30
0.0
11
137.700000
21
-34.500000
31
0.0
0
LINE
8
0
6
CONTINUOUS
10
92.395000
20
-34.500000
30
0.0
11
116.303000
21
-34.500000
31
0.0
0
LINE
8
0
6
CONTINUOUS
10
65.000000
20
-34.500000
30
0.0
11
92.395000
21
-34.500000
31
0.0
0
LINE
8
0
6
CONTINUOUS
10
156.713000
20
-32.500000
30
0.0
11
153.828000
21
-32.500000
31
0.0
0
LINE
8
0
6
CONTINUOUS
10
153.828000
20
-32.500000
30
0.0
11
150.694000
21
-32.500000
31
0.0
0
LINE
8
0
6
CONTINUOUS
10
150.694000
20
-32.500000
30
0.0
11
146.665000
21
-32.500000
31
0.0
0
LINE
8
0
6
CONTINUOUS
10
146.665000
20
-32.500000
30
0.0
11
141.852000
21
-32.500000
31
0.0
0
LINE
8
0
6
CONTINUOUS
10
141.852000
20
-32.500000
30
0.0
11
133.794000
21
-32.500000
31
0.0
0
LINE
8
0
6
CONTINUOUS
10
133.794000
20
-32.500000
30
0.0
11
121.482000
21
-32.500000
31
0.0
0
LINE
8
0
6
CONTINUOUS
10
121.482000
20
-32.500000
30
0.0
11
104.858000
21
-32.500000
31
0.0
0
LINE
8
0
6
CONTINUOUS
10
104.858000
20
-32.500000
30
0.0
11
86.284000
21
-32.500000
31
0.0
0
LINE
8
0
6
CONTINUOUS
10
86.284000
20
-32.500000
30
0.0
11
65.000000
21
-32.500000
31
0.0
0
LINE
8
0
6
CONTINUOUS
10
195.000000
20
-39.500000
30
0.0
11
196.000000
21
-36.500000
31
0.0
0
LINE
8
0
6
CONTINUOUS
10
186.776000
20
-35.500000
30
0.0
11
183.954000
21
-35.500000
31
0.0
0
LINE
8
0
6
CONTINUOUS
10
188.955000
20
-35.500000
30
0.0
11
186.776000
21
-35.500000
31
0.0
0
LINE
8
0
6
CONTINUOUS
10
190.262000
20
-35.500000
30
0.0
11
188.955000
21
-35.500000
31
0.0
0
LINE
8
0
6
CONTINUOUS
10
191.279000
20
-35.500000
30
0.0
11
190.262000
21
-35.500000
31
0.0
0
LINE
8
0
6
CONTINUOUS
10
192.441000
20
-35.500000
30
0.0
11
191.279000
21
-35.500000
31
0.0
0
LINE
8
0
6
CONTINUOUS
10
193.603000
20
-35.500000
30
0.0
11
192.441000
21
-35.500000
31
0.0
0
LINE
8
0
6
CONTINUOUS
10
194.996000
20
-35.500000
30
0.0
11
193.603000
21
-35.500000
31
0.0
0
LINE
8
0
6
CONTINUOUS
10
195.498000
20
-35.500000
30
0.0
11
194.996000
21
-35.500000
31
0.0
0
LINE
8
0
6
CONTINUOUS
10
196.000000
20
-36.500000
30
0.0
11
196.000000
21
-35.500000
31
0.0
0
LINE
8
0
6
CONTINUOUS
10
196.000000
20
-35.500000
30
0.0
11
195.498000
21
-35.500000
31
0.0
0
LINE
8
0
6
CONTINUOUS
10
174.874000
20
-45.500000
30
0.0
11
177.480000
21
-45.500000
31
0.0
0
LINE
8
0
6
CONTINUOUS
10
177.480000
20
-45.500000
30
0.0
11
179.493000
21
-45.500000
31
0.0
0
LINE
8
0
6
CONTINUOUS
10
179.493000
20
-45.500000
30
0.0
11
180.700000
21
-45.500000
31
0.0
0
LINE
8
0
6
CONTINUOUS
10
180.700000
20
-45.500000
30
0.0
11
181.639000
21
-45.500000
31
0.0
0
LINE
8
0
6
CONTINUOUS
10
182.712000
20
-45.500000
30
0.0
11
183.786000
21
-45.500000
31
0.0
0
LINE
8
0
6
CONTINUOUS
10
185.073000
20
-45.500000
30
0.0
11
185.536000
21
-45.500000
31
0.0
0
LINE
8
0
6
CONTINUOUS
10
186.000000
20
-45.500000
30
0.0
11
189.000000
21
-44.500000
31
0.0
0
LINE
8
0
6
CONTINUOUS
10
192.000000
20
-42.500000
30
0.0
11
195.000000
21
-39.500000
31
0.0
0
LINE
8
0
6
CONTINUOUS
10
189.000000
20
-44.500000
30
0.0
11
192.000000
21
-42.500000
31
0.0
0
LINE
8
0
6
CONTINUOUS
10
0.000000
20
-32.500000
30
0.0
11
-65.000000
21
-32.500000
31
0.0
0
LINE
8
0
6
CONTINUOUS
10
-65.000000
20
-34.500000
30
0.0
11
0.000000
21
-34.500000
31
0.0
0
LINE
8
0
6
CONTINUOUS
10
0.000000
20
-34.500000
30
0.0
11
-65.000000
21
-34.500000
31
0.0
0
LINE
8
0
6
CONTINUOUS
10
-65.000000
20
-35.500000
30
0.0
11
0.000000
21
-35.500000
31
0.0
0
LINE
8
0
6
CONTINUOUS
10
0.000000
20
-35.500000
30
0.0
11
-65.000000
21
-35.500000
31
0.0
0
LINE
8
0
6
CONTINUOUS
10
-65.000000
20
-45.500000
30
0.0
11
0.000000
21
-45.500000
31
0.0
0
LINE
8
0
6
CONTINUOUS
10
-180.212200
20
-35.500000
30
0.0
11
-183.954000
21
-35.500000
31
0.0
0
LINE
8
0
6
CONTINUOUS
10
-176.147500
20
-35.500000
30
0.0
11
-180.212200
21
-35.500000
31
0.0
0
LINE
8
0
6
CONTINUOUS
10
-170.921500
20
-35.500000
30
0.0
11
-176.147500
21
-35.500000
31
0.0
0
LINE
8
0
6
CONTINUOUS
10
-164.679400
20
-35.500000
30
0.0
11
-170.921500
21
-35.500000
31
0.0
0
LINE
8
0
6
CONTINUOUS
10
-154.227300
20
-35.500000
30
0.0
11
-164.679400
21
-35.500000
31
0.0
0
LINE
8
0
6
CONTINUOUS
10
-138.259000
20
-35.500000
30
0.0
11
-154.227300
21
-35.500000
31
0.0
0
LINE
8
0
6
CONTINUOUS
10
-116.697300
20
-35.500000
30
0.0
11
-138.259000
21
-35.500000
31
0.0
0
LINE
8
0
6
CONTINUOUS
10
-92.605000
20
-35.500000
30
0.0
11
-116.697300
21
-35.500000
31
0.0
0
LINE
8
0
6
CONTINUOUS
10
-65.000000
20
-35.500000
30
0.0
11
-92.605000
21
-35.500000
31
0.0
0
LINE
8
0
6
CONTINUOUS
10
-174.873600
20
-45.500000
30
0.0
11
-171.417400
21
-45.500000
31
0.0
0
LINE
8
0
6
CONTINUOUS
10
-171.417400
20
-45.500000
30
0.0
11
-167.663000
21
-45.500000
31
0.0
0
LINE
8
0
6
CONTINUOUS
10
-167.663000
20
-45.500000
30
0.0
11
-162.835900
21
-45.500000
31
0.0
0
LINE
8
0
6
CONTINUOUS
10
-162.835900
20
-45.500000
30
0.0
11
-157.070200
21
-45.500000
31
0.0
0
LINE
8
0
6
CONTINUOUS
10
-157.070200
20
-45.500000
30
0.0
11
-147.416100
21
-45.500000
31
0.0
0
LINE
8
0
6
CONTINUOUS
10
-147.416100
20
-45.500000
30
0.0
11
-132.666700
21
-45.500000
31
0.0
0
LINE
8
0
6
CONTINUOUS
10
-132.666700
20
-45.500000
30
0.0
11
-112.751000
21
-45.500000
31
0.0
0
LINE
8
0
6
CONTINUOUS
10
-112.751000
20
-45.500000
30
0.0
11
-90.498000
21
-45.500000
31
0.0
0
LINE
8
0
6
CONTINUOUS
10
-90.498000
20
-45.500000
30
0.0
11
-65.000000
21
-45.500000
31
0.0
0
LINE
8
0
6
CONTINUOUS
10
-183.954000
20
-35.500000
30
0.0
11
-180.212200
21
-35.500000
31
0.0
0
LINE
8
0
6
CONTINUOUS
10
-180.212200
20
-35.500000
30
0.0
11
-176.147500
21
-35.500000
31
0.0
0
LINE
8
0
6
CONTINUOUS
10
-176.147500
20
-35.500000
30
0.0
11
-170.921500
21
-35.500000
31
0.0
0
LINE
8
0
6
CONTINUOUS
10
-170.113000
20
-34.500000
30
0.0
11
-175.299100
21
-34.500000
31
0.0
0
LINE
8
0
6
CONTINUOUS
10
-170.921500
20
-35.500000
30
0.0
11
-164.679400
21
-35.500000
31
0.0
0
LINE
8
0
6
CONTINUOUS
10
-163.918400
20
-34.500000
30
0.0
11
-170.113000
21
-34.500000
31
0.0
0
LINE
8
0
6
CONTINUOUS
10
-164.679400
20
-35.500000
30
0.0
11
-154.227300
21
-35.500000
31
0.0
0
LINE
8
0
6
CONTINUOUS
10
-153.546200
20
-34.500000
30
0.0
11
-163.918400
21
-34.500000
31
0.0
0
LINE
8
0
6
CONTINUOUS
10
-154.227300
20
-35.500000
30
0.0
11
-138.259000
21
-35.500000
31
0.0
0
LINE
8
0
6
CONTINUOUS
10
-137.699700
20
-34.500000
30
0.0
11
-153.546200
21
-34.500000
31
0.0
0
LINE
8
0
6
CONTINUOUS
10
-138.259000
20
-35.500000
30
0.0
11
-116.697300
21
-35.500000
31
0.0
0
LINE
8
0
6
CONTINUOUS
10
-116.302700
20
-34.500000
30
0.0
11
-137.699700
21
-34.500000
31
0.0
0
LINE
8
0
6
CONTINUOUS
10
-116.697300
20
-35.500000
30
0.0
11
-92.605000
21
-35.500000
31
0.0
0
LINE
8
0
6
CONTINUOUS
10
-92.395000
20
-34.500000
30
0.0
11
-116.302700
21
-34.500000
31
0.0
0
LINE
8
0
6
CONTINUOUS
10
-92.605000
20
-35.500000
30
0.0
11
-65.000000
21
-35.500000
31
0.0
0
LINE
8
0
6
CONTINUOUS
10
-65.000000
20
-34.500000
30
0.0
11
-92.395000
21
-34.500000
31
0.0
0
LINE
8
0
6
CONTINUOUS
10
-175.299100
20
-34.500000
30
0.0
11
-170.113000
21
-34.500000
31
0.0
0
LINE
8
0
6
CONTINUOUS
10
-170.113000
20
-34.500000
30
0.0
11
-163.918400
21
-34.500000
31
0.0
0
LINE
8
0
6
CONTINUOUS
10
-163.918400
20
-34.500000
30
0.0
11
-153.546200
21
-34.500000
31
0.0
0
LINE
8
0
6
CONTINUOUS
10
-153.546200
20
-34.500000
30
0.0
11
-137.699700
21
-34.500000
31
0.0
0
LINE
8
0
6
CONTINUOUS
10
-137.699700
20
-34.500000
30
0.0
11
-116.302700
21
-34.500000
31
0.0
0
LINE
8
0
6
CONTINUOUS
10
-116.302700
20
-34.500000
30
0.0
11
-92.395000
21
-34.500000
31
0.0
0
LINE
8
0
6
CONTINUOUS
10
-92.395000
20
-34.500000
30
0.0
11
-65.000000
21
-34.500000
31
0.0
0
LINE
8
0
6
CONTINUOUS
10
-153.827700
20
-32.500000
30
0.0
11
-156.712600
21
-32.500000
31
0.0
0
LINE
8
0
6
CONTINUOUS
10
-150.693900
20
-32.500000
30
0.0
11
-153.827700
21
-32.500000
31
0.0
0
LINE
8
0
6
CONTINUOUS
10
-146.664700
20
-32.500000
30
0.0
11
-150.693900
21
-32.500000
31
0.0
0
LINE
8
0
6
CONTINUOUS
10
-141.852000
20
-32.500000
30
0.0
11
-146.664700
21
-32.500000
31
0.0
0
LINE
8
0
6
CONTINUOUS
10
-133.793600
20
-32.500000
30
0.0
11
-141.852000
21
-32.500000
31
0.0
0
LINE
8
0
6
CONTINUOUS
10
-121.482100
20
-32.500000
30
0.0
11
-133.793600
21
-32.500000
31
0.0
0
LINE
8
0
6
CONTINUOUS
10
-104.858200
20
-32.500000
30
0.0
11
-121.482100
21
-32.500000
31
0.0
0
LINE
8
0
6
CONTINUOUS
10
-86.284000
20
-32.500000
30
0.0
11
-104.858200
21
-32.500000
31
0.0
0
LINE
8
0
6
CONTINUOUS
10
-65.000000
20
-32.500000
30
0.0
11
-86.284000
21
-32.500000
31
0.0
0
LINE
8
0
6
CONTINUOUS
10
-186.776130
20
-35.500000
30
0.0
11
-183.954000
21
-35.500000
31
0.0
0
LINE
8
0
6
CONTINUOUS
10
-188.954840
20
-35.500000
30
0.0
11
-186.776130
21
-35.500000
31
0.0
0
LINE
8
0
6
CONTINUOUS
10
-188.008620
20
-34.500000
30
0.0
11
-189.305870
21
-34.500000
31
0.0
0
LINE
8
0
6
CONTINUOUS
10
-190.262070
20
-35.500000
30
0.0
11
-188.954840
21
-35.500000
31
0.0
0
LINE
8
0
6
CONTINUOUS
10
-189.305870
20
-34.500000
30
0.0
11
-190.314850
21
-34.500000
31
0.0
0
LINE
8
0
6
CONTINUOUS
10
-191.278810
20
-35.500000
30
0.0
11
-190.262070
21
-35.500000
31
0.0
0
LINE
8
0
6
CONTINUOUS
10
-190.314850
20
-34.500000
30
0.0
11
-191.467960
21
-34.500000
31
0.0
0
LINE
8
0
6
CONTINUOUS
10
-192.440790
20
-35.500000
30
0.0
11
-191.278810
21
-35.500000
31
0.0
0
LINE
8
0
6
CONTINUOUS
10
-191.467960
20
-34.500000
30
0.0
11
-192.621070
21
-34.500000
31
0.0
0
LINE
8
0
6
CONTINUOUS
10
-193.602770
20
-35.500000
30
0.0
11
-192.440790
21
-35.500000
31
0.0
0
LINE
8
0
6
CONTINUOUS
10
-192.621070
20
-34.500000
30
0.0
11
-194.003830
21
-34.500000
31
0.0
0
LINE
8
0
6
CONTINUOUS
10
-194.996170
20
-35.500000
30
0.0
11
-193.602770
21
-35.500000
31
0.0
0
LINE
8
0
6
CONTINUOUS
10
-194.003830
20
-34.500000
30
0.0
11
-194.501920
21
-34.500000
31
0.0
0
LINE
8
0
6
CONTINUOUS
10
-195.498084
20
-35.500000
30
0.0
11
-194.996170
21
-35.500000
31
0.0
0
LINE
8
0
6
CONTINUOUS
10
-195.000000
20
-34.500000
30
0.0
11
-196.000000
21
-35.500000
31
0.0
0
LINE
8
0
6
CONTINUOUS
10
-194.501920
20
-34.500000
30
0.0
11
-195.000000
21
-34.500000
31
0.0
0
LINE
8
0
6
CONTINUOUS
10
-196.000000
20
-35.500000
30
0.0
11
-195.498084
21
-35.500000
31
0.0
0
LINE
8
0
6
CONTINUOUS
10
-189.305870
20
-34.500000
30
0.0
11
-188.008620
21
-34.500000
31
0.0
0
LINE
8
0
6
CONTINUOUS
10
-190.314850
20
-34.500000
30
0.0
11
-189.305870
21
-34.500000
31
0.0
0
LINE
8
0
6
CONTINUOUS
10
-191.467960
20
-34.500000
30
0.0
11
-190.314850
21
-34.500000
31
0.0
0
LINE
8
0
6
CONTINUOUS
10
-192.621070
20
-34.500000
30
0.0
11
-191.467960
21
-34.500000
31
0.0
0
LINE
8
0
6
CONTINUOUS
10
-194.003830
20
-34.500000
30
0.0
11
-192.621070
21
-34.500000
31
0.0
0
LINE
8
0
6
CONTINUOUS
10
-194.501920
20
-34.500000
30
0.0
11
-194.003830
21
-34.500000
31
0.0
0
LINE
8
0
6
CONTINUOUS
10
-186.000000
20
-33.500000
30
0.0
11
-195.000000
21
-34.500000
31
0.0
0
LINE
8
0
6
CONTINUOUS
10
-195.000000
20
-34.500000
30
0.0
11
-194.501920
21
-34.500000
31
0.0
0
LINE
8
0
6
CONTINUOUS
10
-156.712600
20
-32.500000
30
0.0
11
-158.888500
21
-32.500000
31
0.0
0
LINE
8
0
6
CONTINUOUS
10
-158.888500
20
-32.500000
30
0.0
11
-160.568200
21
-32.500000
31
0.0
0
LINE
8
0
6
CONTINUOUS
10
-160.568200
20
-32.500000
30
0.0
11
-161.576100
21
-32.500000
31
0.0
0
LINE
8
0
6
CONTINUOUS
10
-161.576100
20
-32.500000
30
0.0
11
-162.360000
21
-32.500000
31
0.0
0
LINE
8
0
6
CONTINUOUS
10
-162.360000
20
-32.500000
30
0.0
11
-163.255900
21
-32.500000
31
0.0
0
LINE
8
0
6
CONTINUOUS
10
-163.255900
20
-32.500000
30
0.0
11
-164.151800
21
-32.500000
31
0.0
0
LINE
8
0
6
CONTINUOUS
10
-164.151800
20
-32.500000
30
0.0
11
-165.226100
21
-32.500000
31
0.0
0
LINE
8
0
6
CONTINUOUS
10
-165.226100
20
-32.500000
30
0.0
11
-165.613000
21
-32.500000
31
0.0
0
LINE
8
0
6
CONTINUOUS
10
-166.000000
20
-32.500000
30
0.0
11
-186.000000
21
-33.500000
31
0.0
0
LINE
8
0
6
CONTINUOUS
10
-165.613000
20
-32.500000
30
0.0
11
-166.000000
21
-32.500000
31
0.0
0
LINE
8
0
6
CONTINUOUS
10
-196.000000
20
-36.500000
30
0.0
11
-195.000000
21
-39.500000
31
0.0
0
LINE
8
0
6
CONTINUOUS
10
-183.954000
20
-35.500000
30
0.0
11
-186.776130
21
-35.500000
31
0.0
0
LINE
8
0
6
CONTINUOUS
10
-186.776130
20
-35.500000
30
0.0
11
-188.954840
21
-35.500000
31
0.0
0
LINE
8
0
6
CONTINUOUS
10
-188.954840
20
-35.500000
30
0.0
11
-190.262070
21
-35.500000
31
0.0
0
LINE
8
0
6
CONTINUOUS
10
-190.262070
20
-35.500000
30
0.0
11
-191.278810
21
-35.500000
31
0.0
0
LINE
8
0
6
CONTINUOUS
10
-191.278810
20
-35.500000
30
0.0
11
-192.440790
21
-35.500000
31
0.0
0
LINE
8
0
6
CONTINUOUS
10
-192.440790
20
-35.500000
30
0.0
11
-193.602770
21
-35.500000
31
0.0
0
LINE
8
0
6
CONTINUOUS
10
-193.602770
20
-35.500000
30
0.0
11
-194.996170
21
-35.500000
31
0.0
0
LINE
8
0
6
CONTINUOUS
10
-194.996170
20
-35.500000
30
0.0
11
-195.498084
21
-35.500000
31
0.0
0
LINE
8
0
6
CONTINUOUS
10
-196.000000
20
-35.500000
30
0.0
11
-196.000000
21
-36.500000
31
0.0
0
LINE
8
0
6
CONTINUOUS
10
-195.498084
20
-35.500000
30
0.0
11
-196.000000
21
-35.500000
31
0.0
0
LINE
8
0
6
CONTINUOUS
10
-177.480200
20
-45.500000
30
0.0
11
-174.873600
21
-45.500000
31
0.0
0
LINE
8
0
6
CONTINUOUS
10
-179.492600
20
-45.500000
30
0.0
11
-177.480200
21
-45.500000
31
0.0
0
LINE
8
0
6
CONTINUOUS
10
-180.700100
20
-45.500000
30
0.0
11
-179.492600
21
-45.500000
31
0.0
0
LINE
8
0
6
CONTINUOUS
10
-182.712500
20
-45.500000
30
0.0
11
-181.639200
21
-45.500000
31
0.0
0
LINE
8
0
6
CONTINUOUS
10
-185.072800
20
-45.500000
30
0.0
11
-183.785800
21
-45.500000
31
0.0
0
LINE
8
0
6
CONTINUOUS
10
-189.000000
20
-44.500000
30
0.0
11
-186.000000
21
-45.500000
31
0.0
0
LINE
8
0
6
CONTINUOUS
10
-186.000000
20
-45.500000
30
0.0
11
-185.536400
21
-45.500000
31
0.0
0
LINE
8
0
6
CONTINUOUS
10
-195.000000
20
-39.500000
30
0.0
11
-192.000000
21
-42.500000
31
0.0
0
LINE
8
0
6
CONTINUOUS
10
-192.000000
20
-42.500000
30
0.0
11
-189.000000
21
-44.500000
31
0.0
0
LINE
8
0
6
CONTINUOUS
10
102.050000
20
-59.198414
30
0.0
11
101.000000
21
-59.198414
31
0.0
0
LINE
8
0
6
CONTINUOUS
10
101.000000
20
-59.198414
30
0.0
11
99.950000
21
-59.198414
31
0.0
0
LINE
8
0
6
CONTINUOUS
10
99.950000
20
-59.198414
30
0.0
11
99.500000
21
-59.198414
31
0.0
0
LINE
8
0
6
CONTINUOUS
10
101.000000
20
-58.499057
30
0.0
11
101.000000
21
-59.198414
31
0.0
0
LINE
8
0
6
CONTINUOUS
10
101.000000
20
-59.198414
30
0.0
11
102.050000
21
-59.198414
31
0.0
0
LINE
8
0
6
CONTINUOUS
10
99.950000
20
-58.500000
30
0.0
11
99.950000
21
-59.198414
31
0.0
0
LINE
8
0
6
CONTINUOUS
10
101.000000
20
-59.198414
30
0.0
11
101.000000
21
-58.500000
31
0.0
0
LINE
8
0
6
CONTINUOUS
10
99.950000
20
-59.198414
30
0.0
11
101.000000
21
-59.198414
31
0.0
0
LINE
8
0
6
CONTINUOUS
10
99.500000
20
-58.500000
30
0.0
11
99.500000
21
-59.198414
31
0.0
0
LINE
8
0
6
CONTINUOUS
10
99.950000
20
-59.198414
30
0.0
11
99.950000
21
-58.500000
31
0.0
0
LINE
8
0
6
CONTINUOUS
10
99.500000
20
-59.198414
30
0.0
11
99.950000
21
-59.198414
31
0.0
0
LINE
8
0
6
CONTINUOUS
10
99.500000
20
-59.198414
30
0.0
11
99.500000
21
-58.500000
31
0.0
0
LINE
8
0
6
CONTINUOUS
10
84.950000
20
-59.500000
30
0.0
11
84.500000
21
-59.500000
31
0.0
0
LINE
8
0
6
CONTINUOUS
10
84.950000
20
-58.500000
30
0.0
11
84.950000
21
-59.500000
31
0.0
0
LINE
8
0
6
CONTINUOUS
10
84.500000
20
-58.500000
30
0.0
11
84.500000
21
-59.500000
31
0.0
0
LINE
8
0
6
CONTINUOUS
10
84.950000
20
-59.500000
30
0.0
11
84.950000
21
-58.500000
31
0.0
0
LINE
8
0
6
CONTINUOUS
10
84.500000
20
-59.500000
30
0.0
11
84.950000
21
-59.500000
31
0.0
0
LINE
8
0
6
CONTINUOUS
10
84.500000
20
-59.500000
30
0.0
11
84.500000
21
-58.500000
31
0.0
0
LINE
8
0
6
CONTINUOUS
10
71.000000
20
-59.500000
30
0.0
11
69.950000
21
-59.500000
31
0.0
0
LINE
8
0
6
CONTINUOUS
10
69.950000
20
-59.500000
30
0.0
11
69.500000
21
-59.500000
31
0.0
0
LINE
8
0
6
CONTINUOUS
10
71.000000
20
-58.500000
30
0.0
11
71.000000
21
-59.500000
31
0.0
0
LINE
8
0
6
CONTINUOUS
10
69.950000
20
-58.500000
30
0.0
11
69.950000
21
-59.500000
31
0.0
0
LINE
8
0
6
CONTINUOUS
10
71.000000
20
-59.500000
30
0.0
11
71.000000
21
-58.500000
31
0.0
0
LINE
8
0
6
CONTINUOUS
10
69.950000
20
-59.500000
30
0.0
11
71.000000
21
-59.500000
31
0.0
0
LINE
8
0
6
CONTINUOUS
10
69.500000
20
-58.500000
30
0.0
11
69.500000
21
-59.500000
31
0.0
0
LINE
8
0
6
CONTINUOUS
10
69.950000
20
-59.500000
30
0.0
11
69.950000
21
-58.500000
31
0.0
0
LINE
8
0
6
CONTINUOUS
10
69.500000
20
-59.500000
30
0.0
11
69.950000
21
-59.500000
31
0.0
0
LINE
8
0
6
CONTINUOUS
10
69.500000
20
-59.500000
30
0.0
11
69.500000
21
-58.500000
31
0.0
0
LINE
8
0
6
CONTINUOUS
10
41.000000
20
-59.500000
30
0.0
11
39.950000
21
-59.500000
31
0.0
0
LINE
8
0
6
CONTINUOUS
10
39.950000
20
-59.500000
30
0.0
11
39.500000
21
-59.500000
31
0.0
0
LINE
8
0
6
CONTINUOUS
10
41.000000
20
-58.500000
30
0.0
11
41.000000
21
-59.500000
31
0.0
0
LINE
8
0
6
CONTINUOUS
10
39.950000
20
-58.500000
30
0.0
11
39.950000
21
-59.500000
31
0.0
0
LINE
8
0
6
CONTINUOUS
10
41.000000
20
-59.500000
30
0.0
11
41.000000
21
-58.500000
31
0.0
0
LINE
8
0
6
CONTINUOUS
10
39.950000
20
-59.500000
30
0.0
11
41.000000
21
-59.500000
31
0.0
0
LINE
8
0
6
CONTINUOUS
10
39.500000
20
-58.500000
30
0.0
11
39.500000
21
-59.500000
31
0.0
0
LINE
8
0
6
CONTINUOUS
10
39.950000
20
-59.500000
30
0.0
11
39.950000
21
-58.500000
31
0.0
0
LINE
8
0
6
CONTINUOUS
10
39.500000
20
-59.500000
30
0.0
11
39.950000
21
-59.500000
31
0.0
0
LINE
8
0
6
CONTINUOUS
10
39.500000
20
-59.500000
30
0.0
11
39.500000
21
-58.500000
31
0.0
0
LINE
8
0
6
CONTINUOUS
10
56.000000
20
-59.500000
30
0.0
11
54.950000
21
-59.500000
31
0.0
0
LINE
8
0
6
CONTINUOUS
10
54.950000
20
-59.500000
30
0.0
11
54.500000
21
-59.500000
31
0.0
0
LINE
8
0
6
CONTINUOUS
10
56.000000
20
-58.500000
30
0.0
11
56.000000
21
-59.500000
31
0.0
0
LINE
8
0
6
CONTINUOUS
10
54.950000
20
-58.500000
30
0.0
11
54.950000
21
-59.500000
31
0.0
0
LINE
8
0
6
CONTINUOUS
10
56.000000
20
-59.500000
30
0.0
11
56.000000
21
-58.500000
31
0.0
0
LINE
8
0
6
CONTINUOUS
10
54.950000
20
-59.500000
30
0.0
11
56.000000
21
-59.500000
31
0.0
0
LINE
8
0
6
CONTINUOUS
10
54.500000
20
-58.500000
30
0.0
11
54.500000
21
-59.500000
31
0.0
0
LINE
8
0
6
CONTINUOUS
10
54.950000
20
-59.500000
30
0.0
11
54.950000
21
-58.500000
31
0.0
0
LINE
8
0
6
CONTINUOUS
10
54.500000
20
-59.500000
30
0.0
11
54.950000
21
-59.500000
31
0.0
0
LINE
8
0
6
CONTINUOUS
10
54.500000
20
-59.500000
30
0.0
11
54.500000
21
-58.500000
31
0.0
0
LINE
8
0
6
CONTINUOUS
10
26.000000
20
-59.500000
30
0.0
11
24.950000
21
-59.500000
31
0.0
0
LINE
8
0
6
CONTINUOUS
10
24.950000
20
-59.500000
30
0.0
11
24.500000
21
-59.500000
31
0.0
0
LINE
8
0
6
CONTINUOUS
10
26.000000
20
-58.500000
30
0.0
11
26.000000
21
-59.500000
31
0.0
0
LINE
8
0
6
CONTINUOUS
10
24.950000
20
-58.500000
30
0.0
11
24.950000
21
-59.500000
31
0.0
0
LINE
8
0
6
CONTINUOUS
10
26.000000
20
-59.500000
30
0.0
11
26.000000
21
-58.500000
31
0.0
0
LINE
8
0
6
CONTINUOUS
10
24.950000
20
-59.500000
30
0.0
11
26.000000
21
-59.500000
31
0.0
0
LINE
8
0
6
CONTINUOUS
10
24.500000
20
-58.500000
30
0.0
11
24.500000
21
-59.500000
31
0.0
0
LINE
8
0
6
CONTINUOUS
10
24.950000
20
-59.500000
30
0.0
11
24.950000
21
-58.500000
31
0.0
0
LINE
8
0
6
CONTINUOUS
10
24.500000
20
-59.500000
30
0.0
11
24.950000
21
-59.500000
31
0.0
0
LINE
8
0
6
CONTINUOUS
10
24.500000
20
-59.500000
30
0.0
11
24.500000
21
-58.500000
31
0.0
0
LINE
8
0
6
CONTINUOUS
10
-26.000000
20
-59.500000
30
0.0
11
-24.950000
21
-59.500000
31
0.0
0
LINE
8
0
6
CONTINUOUS
10
-24.950000
20
-59.500000
30
0.0
11
-24.500000
21
-59.500000
31
0.0
0
LINE
8
0
6
CONTINUOUS
10
-26.000000
20
-58.500000
30
0.0
11
-26.000000
21
-59.500000
31
0.0
0
LINE
8
0
6
CONTINUOUS
10
-24.950000
20
-58.500000
30
0.0
11
-24.950000
21
-59.500000
31
0.0
0
LINE
8
0
6
CONTINUOUS
10
-26.000000
20
-59.500000
30
0.0
11
-26.000000
21
-58.500000
31
0.0
0
LINE
8
0
6
CONTINUOUS
10
-24.950000
20
-59.500000
30
0.0
11
-26.000000
21
-59.500000
31
0.0
0
LINE
8
0
6
CONTINUOUS
10
-24.500000
20
-58.500000
30
0.0
11
-24.500000
21
-59.500000
31
0.0
0
LINE
8
0
6
CONTINUOUS
10
-24.950000
20
-59.500000
30
0.0
11
-24.950000
21
-58.500000
31
0.0
0
LINE
8
0
6
CONTINUOUS
10
-24.500000
20
-59.500000
30
0.0
11
-24.950000
21
-59.500000
31
0.0
0
LINE
8
0
6
CONTINUOUS
10
-24.500000
20
-59.500000
30
0.0
11
-24.500000
21
-58.500000
31
0.0
0
LINE
8
0
6
CONTINUOUS
10
-56.000000
20
-59.500000
30
0.0
11
-54.950000
21
-59.500000
31
0.0
0
LINE
8
0
6
CONTINUOUS
10
-54.950000
20
-59.500000
30
0.0
11
-54.500000
21
-59.500000
31
0.0
0
LINE
8
0
6
CONTINUOUS
10
-56.000000
20
-58.500000
30
0.0
11
-56.000000
21
-59.500000
31
0.0
0
LINE
8
0
6
CONTINUOUS
10
-54.950000
20
-58.500000
30
0.0
11
-54.950000
21
-59.500000
31
0.0
0
LINE
8
0
6
CONTINUOUS
10
-56.000000
20
-59.500000
30
0.0
11
-56.000000
21
-58.500000
31
0.0
0
LINE
8
0
6
CONTINUOUS
10
-54.950000
20
-59.500000
30
0.0
11
-56.000000
21
-59.500000
31
0.0
0
LINE
8
0
6
CONTINUOUS
10
-54.500000
20
-58.500000
30
0.0
11
-54.500000
21
-59.500000
31
0.0
0
LINE
8
0
6
CONTINUOUS
10
-54.950000
20
-59.500000
30
0.0
11
-54.950000
21
-58.500000
31
0.0
0
LINE
8
0
6
CONTINUOUS
10
-54.500000
20
-59.500000
30
0.0
11
-54.950000
21
-59.500000
31
0.0
0
LINE
8
0
6
CONTINUOUS
10
-54.500000
20
-59.500000
30
0.0
11
-54.500000
21
-58.500000
31
0.0
0
LINE
8
0
6
CONTINUOUS
10
-41.000000
20
-59.500000
30
0.0
11
-39.950000
21
-59.500000
31
0.0
0
LINE
8
0
6
CONTINUOUS
10
-39.950000
20
-59.500000
30
0.0
11
-39.500000
21
-59.500000
31
0.0
0
LINE
8
0
6
CONTINUOUS
10
-41.000000
20
-58.500000
30
0.0
11
-41.000000
21
-59.500000
31
0.0
0
LINE
8
0
6
CONTINUOUS
10
-39.950000
20
-58.500000
30
0.0
11
-39.950000
21
-59.500000
31
0.0
0
LINE
8
0
6
CONTINUOUS
10
-41.000000
20
-59.500000
30
0.0
11
-41.000000
21
-58.500000
31
0.0
0
LINE
8
0
6
CONTINUOUS
10
-39.950000
20
-59.500000
30
0.0
11
-41.000000
21
-59.500000
31
0.0
0
LINE
8
0
6
CONTINUOUS
10
-39.500000
20
-58.500000
30
0.0
11
-39.500000
21
-59.500000
31
0.0
0
LINE
8
0
6
CONTINUOUS
10
-39.950000
20
-59.500000
30
0.0
11
-39.950000
21
-58.500000
31
0.0
0
LINE
8
0
6
CONTINUOUS
10
-39.500000
20
-59.500000
30
0.0
11
-39.950000
21
-59.500000
31
0.0
0
LINE
8
0
6
CONTINUOUS
10
-39.500000
20
-59.500000
30
0.0
11
-39.500000
21
-58.500000
31
0.0
0
LINE
8
0
6
CONTINUOUS
10
-71.000000
20
-59.500000
30
0.0
11
-69.950000
21
-59.500000
31
0.0
0
LINE
8
0
6
CONTINUOUS
10
-69.950000
20
-59.500000
30
0.0
11
-69.500000
21
-59.500000
31
0.0
0
LINE
8
0
6
CONTINUOUS
10
-71.000000
20
-58.500000
30
0.0
11
-71.000000
21
-59.500000
31
0.0
0
LINE
8
0
6
CONTINUOUS
10
-69.950000
20
-58.500000
30
0.0
11
-69.950000
21
-59.500000
31
0.0
0
LINE
8
0
6
CONTINUOUS
10
-71.000000
20
-59.500000
30
0.0
11
-71.000000
21
-58.500000
31
0.0
0
LINE
8
0
6
CONTINUOUS
10
-69.950000
20
-59.500000
30
0.0
11
-71.000000
21
-59.500000
31
0.0
0
LINE
8
0
6
CONTINUOUS
10
-69.500000
20
-58.500000
30
0.0
11
-69.500000
21
-59.500000
31
0.0
0
LINE
8
0
6
CONTINUOUS
10
-69.950000
20
-59.500000
30
0.0
11
-69.950000
21
-58.500000
31
0.0
0
LINE
8
0
6
CONTINUOUS
10
-69.500000
20
-59.500000
30
0.0
11
-69.950000
21
-59.500000
31
0.0
0
LINE
8
0
6
CONTINUOUS
10
-69.500000
20
-59.500000
30
0.0
11
-69.500000
21
-58.500000
31
0.0
0
LINE
8
0
6
CONTINUOUS
10
-84.950000
20
-59.500000
30
0.0
11
-84.500000
21
-59.500000
31
0.0
0
LINE
8
0
6
CONTINUOUS
10
-84.950000
20
-58.500000
30
0.0
11
-84.950000
21
-59.500000
31
0.0
0
LINE
8
0
6
CONTINUOUS
10
-84.500000
20
-58.500000
30
0.0
11
-84.500000
21
-59.500000
31
0.0
0
LINE
8
0
6
CONTINUOUS
10
-84.950000
20
-59.500000
30
0.0
11
-84.950000
21
-58.500000
31
0.0
0
LINE
8
0
6
CONTINUOUS
10
-84.500000
20
-59.500000
30
0.0
11
-84.950000
21
-59.500000
31
0.0
0
LINE
8
0
6
CONTINUOUS
10
-84.500000
20
-59.500000
30
0.0
11
-84.500000
21
-58.500000
31
0.0
0
LINE
8
0
6
CONTINUOUS
10
-102.050000
20
-59.198414
30
0.0
11
-101.000000
21
-59.198414
31
0.0
0
LINE
8
0
6
CONTINUOUS
10
-101.000000
20
-59.198414
30
0.0
11
-99.950000
21
-59.198414
31
0.0
0
LINE
8
0
6
CONTINUOUS
10
-99.950000
20
-59.198414
30
0.0
11
-99.500000
21
-59.198414
31
0.0
0
LINE
8
0
6
CONTINUOUS
10
-101.000000
20
-58.499060
30
0.0
11
-101.000000
21
-59.198414
31
0.0
0
LINE
8
0
6
CONTINUOUS
10
-101.000000
20
-59.198414
30
0.0
11
-102.050000
21
-59.198414
31
0.0
0
LINE
8
0
6
CONTINUOUS
10
-99.950000
20
-58.500000
30
0.0
11
-99.950000
21
-59.198414
31
0.0
0
LINE
8
0
6
CONTINUOUS
10
-101.000000
20
-59.198414
30
0.0
11
-101.000000
21
-58.500000
31
0.0
0
LINE
8
0
6
CONTINUOUS
10
-99.950000
20
-59.198414
30
0.0
11
-101.000000
21
-59.198414
31
0.0
0
LINE
8
0
6
CONTINUOUS
10
-99.500000
20
-58.500000
30
0.0
11
-99.500000
21
-59.198414
31
0.0
0
LINE
8
0
6
CONTINUOUS
10
-99.950000
20
-59.198414
30
0.0
11
-99.950000
21
-58.500000
31
0.0
0
LINE
8
0
6
CONTINUOUS
10
-99.500000
20
-59.198414
30
0.0
11
-99.950000
21
-59.198414
31
0.0
0
LINE
8
0
6
CONTINUOUS
10
-99.500000
20
-59.198414
30
0.0
11
-99.500000
21
-58.500000
31
0.0
0
LINE
8
0
6
CONTINUOUS
10
7.480000
20
-59.500000
30
0.0
11
6.430000
21
-59.500000
31
0.0
0
LINE
8
0
6
CONTINUOUS
10
7.930000
20
-59.500000
30
0.0
11
7.480000
21
-59.500000
31
0.0
0
LINE
8
0
6
CONTINUOUS
10
5.380000
20
-59.500000
30
0.0
11
4.930000
21
-59.500000
31
0.0
0
LINE
8
0
6
CONTINUOUS
10
6.430000
20
-59.500000
30
0.0
11
5.380000
21
-59.500000
31
0.0
0
LINE
8
0
6
CONTINUOUS
10
7.480000
20
-59.500000
30
0.0
11
7.480000
21
-58.500000
31
0.0
0
LINE
8
0
6
CONTINUOUS
10
6.430000
20
-59.500000
30
0.0
11
7.480000
21
-59.500000
31
0.0
0
LINE
8
0
6
CONTINUOUS
10
6.430000
20
-58.500000
30
0.0
11
6.430000
21
-59.500000
31
0.0
0
LINE
8
0
6
CONTINUOUS
10
7.930000
20
-59.500000
30
0.0
11
7.930000
21
-58.500000
31
0.0
0
LINE
8
0
6
CONTINUOUS
10
7.480000
20
-59.500000
30
0.0
11
7.930000
21
-59.500000
31
0.0
0
LINE
8
0
6
CONTINUOUS
10
7.480000
20
-58.500000
30
0.0
11
7.480000
21
-59.500000
31
0.0
0
LINE
8
0
6
CONTINUOUS
10
7.930000
20
-58.500000
30
0.0
11
7.930000
21
-59.500000
31
0.0
0
LINE
8
0
6
CONTINUOUS
10
4.930000
20
-59.500000
30
0.0
11
4.930000
21
-58.500000
31
0.0
0
LINE
8
0
6
CONTINUOUS
10
5.380000
20
-59.500000
30
0.0
11
5.380000
21
-58.500000
31
0.0
0
LINE
8
0
6
CONTINUOUS
10
4.930000
20
-59.500000
30
0.0
11
5.380000
21
-59.500000
31
0.0
0
LINE
8
0
6
CONTINUOUS
10
4.930000
20
-58.500000
30
0.0
11
4.930000
21
-59.500000
31
0.0
0
LINE
8
0
6
CONTINUOUS
10
6.430000
20
-59.500000
30
0.0
11
6.430000
21
-58.500000
31
0.0
0
LINE
8
0
6
CONTINUOUS
10
5.380000
20
-59.500000
30
0.0
11
6.430000
21
-59.500000
31
0.0
0
LINE
8
0
6
CONTINUOUS
10
5.380000
20
-58.500000
30
0.0
11
5.380000
21
-59.500000
31
0.0
0
LINE
8
0
6
CONTINUOUS
10
8.082000
20
-58.956882
30
0.0
11
7.032000
21
-58.956882
31
0.0
0
LINE
8
0
6
CONTINUOUS
10
8.532000
20
-58.956882
30
0.0
11
8.082000
21
-58.956882
31
0.0
0
LINE
8
0
6
CONTINUOUS
10
5.982000
20
-58.956882
30
0.0
11
5.532000
21
-58.956882
31
0.0
0
LINE
8
0
6
CONTINUOUS
10
7.032000
20
-58.956882
30
0.0
11
5.982000
21
-58.956882
31
0.0
0
LINE
8
0
6
CONTINUOUS
10
8.082000
20
-58.956882
30
0.0
11
8.082000
21
-57.925817
31
0.0
0
LINE
8
0
6
CONTINUOUS
10
7.032000
20
-58.956882
30
0.0
11
8.082000
21
-58.956882
31
0.0
0
LINE
8
0
6
CONTINUOUS
10
7.032000
20
-58.500000
30
0.0
11
7.032000
21
-58.956882
31
0.0
0
LINE
8
0
6
CONTINUOUS
10
8.532000
20
-58.956882
30
0.0
11
8.532000
21
-57.962024
31
0.0
0
LINE
8
0
6
CONTINUOUS
10
8.082000
20
-58.956882
30
0.0
11
8.532000
21
-58.956882
31
0.0
0
LINE
8
0
6
CONTINUOUS
10
8.082000
20
-57.925817
30
0.0
11
8.082000
21
-58.956882
31
0.0
0
LINE
8
0
6
CONTINUOUS
10
8.532000
20
-57.962024
30
0.0
11
8.532000
21
-58.956882
31
0.0
0
LINE
8
0
6
CONTINUOUS
10
5.532000
20
-58.956882
30
0.0
11
5.532000
21
-58.500000
31
0.0
0
LINE
8
0
6
CONTINUOUS
10
5.982000
20
-58.956882
30
0.0
11
5.982000
21
-58.500000
31
0.0
0
LINE
8
0
6
CONTINUOUS
10
5.532000
20
-58.956882
30
0.0
11
5.982000
21
-58.956882
31
0.0
0
LINE
8
0
6
CONTINUOUS
10
5.532000
20
-58.500000
30
0.0
11
5.532000
21
-58.956882
31
0.0
0
LINE
8
0
6
CONTINUOUS
10
7.032000
20
-58.956882
30
0.0
11
7.032000
21
-58.500000
31
0.0
0
LINE
8
0
6
CONTINUOUS
10
5.982000
20
-58.956882
30
0.0
11
7.032000
21
-58.956882
31
0.0
0
LINE
8
0
6
CONTINUOUS
10
5.982000
20
-58.500000
30
0.0
11
5.982000
21
-58.956882
31
0.0
0
LINE
8
0
6
CONTINUOUS
10
1.716000
20
-59.500000
30
0.0
11
0.666000
21
-59.500000
31
0.0
0
LINE
8
0
6
CONTINUOUS
10
2.166000
20
-59.500000
30
0.0
11
1.716000
21
-59.500000
31
0.0
0
LINE
8
0
6
CONTINUOUS
10
-0.384000
20
-59.500000
30
0.0
11
-0.834000
21
-59.500000
31
0.0
0
LINE
8
0
6
CONTINUOUS
10
0.666000
20
-59.500000
30
0.0
11
-0.384000
21
-59.500000
31
0.0
0
LINE
8
0
6
CONTINUOUS
10
1.716000
20
-59.500000
30
0.0
11
1.716000
21
-58.398769
31
0.0
0
LINE
8
0
6
CONTINUOUS
10
0.666000
20
-59.500000
30
0.0
11
1.716000
21
-59.500000
31
0.0
0
LINE
8
0
6
CONTINUOUS
10
0.666000
20
-58.383252
30
0.0
11
0.666000
21
-59.500000
31
0.0
0
LINE
8
0
6
CONTINUOUS
10
2.166000
20
-59.500000
30
0.0
11
2.166000
21
-58.434976
31
0.0
0
LINE
8
0
6
CONTINUOUS
10
1.716000
20
-59.500000
30
0.0
11
2.166000
21
-59.500000
31
0.0
0
LINE
8
0
6
CONTINUOUS
10
1.716000
20
-58.398769
30
0.0
11
1.716000
21
-59.500000
31
0.0
0
LINE
8
0
6
CONTINUOUS
10
2.166000
20
-58.434976
30
0.0
11
2.166000
21
-59.500000
31
0.0
0
LINE
8
0
6
CONTINUOUS
10
-0.834000
20
-59.500000
30
0.0
11
-0.834000
21
-58.434976
31
0.0
0
LINE
8
0
6
CONTINUOUS
10
-0.384000
20
-59.500000
30
0.0
11
-0.384000
21
-58.398769
31
0.0
0
LINE
8
0
6
CONTINUOUS
10
-0.834000
20
-59.500000
30
0.0
11
-0.384000
21
-59.500000
31
0.0
0
LINE
8
0
6
CONTINUOUS
10
-0.834000
20
-58.434976
30
0.0
11
-0.834000
21
-59.500000
31
0.0
0
LINE
8
0
6
CONTINUOUS
10
0.666000
20
-59.500000
30
0.0
11
0.666000
21
-58.383252
31
0.0
0
LINE
8
0
6
CONTINUOUS
10
-0.384000
20
-59.500000
30
0.0
11
0.666000
21
-59.500000
31
0.0
0
LINE
8
0
6
CONTINUOUS
10
-0.384000
20
-58.398769
30
0.0
11
-0.384000
21
-59.500000
31
0.0
0
LINE
8
0
6
CONTINUOUS
10
6.879000
20
-58.474111
30
0.0
11
5.829000
21
-58.474111
31
0.0
0
LINE
8
0
6
CONTINUOUS
10
7.329000
20
-58.474111
30
0.0
11
6.879000
21
-58.474111
31
0.0
0
LINE
8
0
6
CONTINUOUS
10
4.779000
20
-58.474111
30
0.0
11
4.329000
21
-58.474111
31
0.0
0
LINE
8
0
6
CONTINUOUS
10
5.829000
20
-58.474111
30
0.0
11
4.779000
21
-58.474111
31
0.0
0
LINE
8
0
6
CONTINUOUS
10
6.879000
20
-58.474111
30
0.0
11
6.879000
21
-57.386111
31
0.0
0
LINE
8
0
6
CONTINUOUS
10
5.829000
20
-58.474111
30
0.0
11
6.879000
21
-58.474111
31
0.0
0
LINE
8
0
6
CONTINUOUS
10
5.829000
20
-57.361111
30
0.0
11
5.829000
21
-58.474111
31
0.0
0
LINE
8
0
6
CONTINUOUS
10
7.329000
20
-58.474111
30
0.0
11
7.329000
21
-57.444444
31
0.0
0
LINE
8
0
6
CONTINUOUS
10
6.879000
20
-58.474111
30
0.0
11
7.329000
21
-58.474111
31
0.0
0
LINE
8
0
6
CONTINUOUS
10
6.879000
20
-57.386111
30
0.0
11
6.879000
21
-58.474111
31
0.0
0
LINE
8
0
6
CONTINUOUS
10
7.329000
20
-57.444444
30
0.0
11
7.329000
21
-58.474111
31
0.0
0
LINE
8
0
6
CONTINUOUS
10
4.329000
20
-58.474111
30
0.0
11
4.329000
21
-57.444444
31
0.0
0
LINE
8
0
6
CONTINUOUS
10
4.779000
20
-58.474111
30
0.0
11
4.779000
21
-57.386111
31
0.0
0
LINE
8
0
6
CONTINUOUS
10
4.329000
20
-58.474111
30
0.0
11
4.779000
21
-58.474111
31
0.0
0
LINE
8
0
6
CONTINUOUS
10
4.329000
20
-57.444444
30
0.0
11
4.329000
21
-58.474111
31
0.0
0
LINE
8
0
6
CONTINUOUS
10
5.829000
20
-58.474111
30
0.0
11
5.829000
21
-57.361111
31
0.0
0
LINE
8
0
6
CONTINUOUS
10
4.779000
20
-58.474111
30
0.0
11
5.829000
21
-58.474111
31
0.0
0
LINE
8
0
6
CONTINUOUS
10
4.779000
20
-57.386111
30
0.0
11
4.779000
21
-58.474111
31
0.0
0
LINE
8
0
6
CONTINUOUS
10
7.179000
20
-56.030080
30
0.0
11
6.129000
21
-56.030080
31
0.0
0
LINE
8
0
6
CONTINUOUS
10
7.629000
20
-56.030080
30
0.0
11
7.179000
21
-56.030080
31
0.0
0
LINE
8
0
6
CONTINUOUS
10
5.079000
20
-56.030080
30
0.0
11
4.629000
21
-56.030080
31
0.0
0
LINE
8
0
6
CONTINUOUS
10
6.129000
20
-56.030080
30
0.0
11
5.079000
21
-56.030080
31
0.0
0
LINE
8
0
6
CONTINUOUS
10
7.179000
20
-56.030080
30
0.0
11
7.179000
21
-54.668587
31
0.0
0
LINE
8
0
6
CONTINUOUS
10
6.129000
20
-56.030080
30
0.0
11
7.179000
21
-56.030080
31
0.0
0
LINE
8
0
6
CONTINUOUS
10
6.129000
20
-54.612337
30
0.0
11
6.129000
21
-56.030080
31
0.0
0
LINE
8
0
6
CONTINUOUS
10
7.629000
20
-56.030080
30
0.0
11
7.629000
21
-54.799837
31
0.0
0
LINE
8
0
6
CONTINUOUS
10
7.179000
20
-56.030080
30
0.0
11
7.629000
21
-56.030080
31
0.0
0
LINE
8
0
6
CONTINUOUS
10
7.179000
20
-54.668587
30
0.0
11
7.179000
21
-56.030080
31
0.0
0
LINE
8
0
6
CONTINUOUS
10
7.629000
20
-54.799837
30
0.0
11
7.629000
21
-56.030080
31
0.0
0
LINE
8
0
6
CONTINUOUS
10
4.629000
20
-56.030080
30
0.0
11
4.629000
21
-54.799837
31
0.0
0
LINE
8
0
6
CONTINUOUS
10
5.079000
20
-56.030080
30
0.0
11
5.079000
21
-54.668587
31
0.0
0
LINE
8
0
6
CONTINUOUS
10
4.629000
20
-56.030080
30
0.0
11
5.079000
21
-56.030080
31
0.0
0
LINE
8
0
6
CONTINUOUS
10
4.629000
20
-54.799837
30
0.0
11
4.629000
21
-56.030080
31
0.0
0
LINE
8
0
6
CONTINUOUS
10
6.129000
20
-56.030080
30
0.0
11
6.129000
21
-54.612337
31
0.0
0
LINE
8
0
6
CONTINUOUS
10
5.079000
20
-56.030080
30
0.0
11
6.129000
21
-56.030080
31
0.0
0
LINE
8
0
6
CONTINUOUS
10
5.079000
20
-54.668587
30
0.0
11
5.079000
21
-56.030080
31
0.0
0
LINE
8
0
6
CONTINUOUS
10
0.834000
20
-57.780127
30
0.0
11
-0.216000
21
-57.780127
31
0.0
0
LINE
8
0
6
CONTINUOUS
10
1.284000
20
-57.780127
30
0.0
11
0.834000
21
-57.780127
31
0.0
0
LINE
8
0
6
CONTINUOUS
10
-1.266000
20
-57.780127
30
0.0
11
-1.716000
21
-57.780127
31
0.0
0
LINE
8
0
6
CONTINUOUS
10
-0.216000
20
-57.780127
30
0.0
11
-1.266000
21
-57.780127
31
0.0
0
LINE
8
0
6
CONTINUOUS
10
0.834000
20
-57.780127
30
0.0
11
0.834000
21
-56.529650
31
0.0
0
LINE
8
0
6
CONTINUOUS
10
-0.216000
20
-57.780127
30
0.0
11
0.834000
21
-57.780127
31
0.0
0
LINE
8
0
6
CONTINUOUS
10
-0.216000
20
-56.504650
30
0.0
11
-0.216000
21
-57.780127
31
0.0
0
LINE
8
0
6
CONTINUOUS
10
1.284000
20
-57.780127
30
0.0
11
1.284000
21
-56.587983
31
0.0
0
LINE
8
0
6
CONTINUOUS
10
0.834000
20
-57.780127
30
0.0
11
1.284000
21
-57.780127
31
0.0
0
LINE
8
0
6
CONTINUOUS
10
0.834000
20
-56.529650
30
0.0
11
0.834000
21
-57.780127
31
0.0
0
LINE
8
0
6
CONTINUOUS
10
1.284000
20
-56.587983
30
0.0
11
1.284000
21
-57.780127
31
0.0
0
LINE
8
0
6
CONTINUOUS
10
-1.716000
20
-57.780127
30
0.0
11
-1.716000
21
-56.587983
31
0.0
0
LINE
8
0
6
CONTINUOUS
10
-1.266000
20
-57.780127
30
0.0
11
-1.266000
21
-56.529650
31
0.0
0
LINE
8
0
6
CONTINUOUS
10
-1.716000
20
-57.780127
30
0.0
11
-1.266000
21
-57.780127
31
0.0
0
LINE
8
0
6
CONTINUOUS
10
-1.716000
20
-56.587983
30
0.0
11
-1.716000
21
-57.780127
31
0.0
0
LINE
8
0
6
CONTINUOUS
10
-0.216000
20
-57.780127
30
0.0
11
-0.216000
21
-56.504650
31
0.0
0
LINE
8
0
6
CONTINUOUS
10
-1.266000
20
-57.780127
30
0.0
11
-0.216000
21
-57.780127
31
0.0
0
LINE
8
0
6
CONTINUOUS
10
-1.266000
20
-56.529650
30
0.0
11
-1.266000
21
-57.780127
31
0.0
0
LINE
8
0
6
CONTINUOUS
10
24.950000
20
-59.500000
30
0.0
11
24.500000
21
-59.500000
31
0.0
0
LINE
8
0
6
CONTINUOUS
10
26.000000
20
-59.500000
30
0.0
11
24.950000
21
-59.500000
31
0.0
0
LINE
8
0
6
CONTINUOUS
10
24.500000
20
-59.500000
30
0.0
11
24.500000
21
-58.500000
31
0.0
0
LINE
8
0
6
CONTINUOUS
10
24.950000
20
-59.500000
30
0.0
11
24.950000
21
-58.500000
31
0.0
0
LINE
8
0
6
CONTINUOUS
10
24.500000
20
-59.500000
30
0.0
11
24.950000
21
-59.500000
31
0.0
0
LINE
8
0
6
CONTINUOUS
10
24.500000
20
-58.500000
30
0.0
11
24.500000
21
-59.500000
31
0.0
0
LINE
8
0
6
CONTINUOUS
10
26.000000
20
-59.500000
30
0.0
11
26.000000
21
-58.500000
31
0.0
0
LINE
8
0
6
CONTINUOUS
10
24.950000
20
-59.500000
30
0.0
11
26.000000
21
-59.500000
31
0.0
0
LINE
8
0
6
CONTINUOUS
10
24.950000
20
-58.500000
30
0.0
11
24.950000
21
-59.500000
31
0.0
0
LINE
8
0
6
CONTINUOUS
10
26.000000
20
-58.500000
30
0.0
11
26.000000
21
-59.500000
31
0.0
0
LINE
8
0
6
CONTINUOUS
10
54.950000
20
-59.500000
30
0.0
11
54.500000
21
-59.500000
31
0.0
0
LINE
8
0
6
CONTINUOUS
10
56.000000
20
-59.500000
30
0.0
11
54.950000
21
-59.500000
31
0.0
0
LINE
8
0
6
CONTINUOUS
10
54.500000
20
-59.500000
30
0.0
11
54.500000
21
-58.500000
31
0.0
0
LINE
8
0
6
CONTINUOUS
10
54.950000
20
-59.500000
30
0.0
11
54.950000
21
-58.500000
31
0.0
0
LINE
8
0
6
CONTINUOUS
10
54.500000
20
-59.500000
30
0.0
11
54.950000
21
-59.500000
31
0.0
0
LINE
8
0
6
CONTINUOUS
10
54.500000
20
-58.500000
30
0.0
11
54.500000
21
-59.500000
31
0.0
0
LINE
8
0
6
CONTINUOUS
10
56.000000
20
-59.500000
30
0.0
11
56.000000
21
-58.500000
31
0.0
0
LINE
8
0
6
CONTINUOUS
10
54.950000
20
-59.500000
30
0.0
11
56.000000
21
-59.500000
31
0.0
0
LINE
8
0
6
CONTINUOUS
10
54.950000
20
-58.500000
30
0.0
11
54.950000
21
-59.500000
31
0.0
0
LINE
8
0
6
CONTINUOUS
10
56.000000
20
-58.500000
30
0.0
11
56.000000
21
-59.500000
31
0.0
0
LINE
8
0
6
CONTINUOUS
10
39.950000
20
-59.500000
30
0.0
11
39.500000
21
-59.500000
31
0.0
0
LINE
8
0
6
CONTINUOUS
10
41.000000
20
-59.500000
30
0.0
11
39.950000
21
-59.500000
31
0.0
0
LINE
8
0
6
CONTINUOUS
10
39.500000
20
-59.500000
30
0.0
11
39.500000
21
-58.500000
31
0.0
0
LINE
8
0
6
CONTINUOUS
10
39.950000
20
-59.500000
30
0.0
11
39.950000
21
-58.500000
31
0.0
0
LINE
8
0
6
CONTINUOUS
10
39.500000
20
-59.500000
30
0.0
11
39.950000
21
-59.500000
31
0.0
0
LINE
8
0
6
CONTINUOUS
10
39.500000
20
-58.500000
30
0.0
11
39.500000
21
-59.500000
31
0.0
0
LINE
8
0
6
CONTINUOUS
10
41.000000
20
-59.500000
30
0.0
11
41.000000
21
-58.500000
31
0.0
0
LINE
8
0
6
CONTINUOUS
10
39.950000
20
-59.500000
30
0.0
11
41.000000
21
-59.500000
31
0.0
0
LINE
8
0
6
CONTINUOUS
10
39.950000
20
-58.500000
30
0.0
11
39.950000
21
-59.500000
31
0.0
0
LINE
8
0
6
CONTINUOUS
10
41.000000
20
-58.500000
30
0.0
11
41.000000
21
-59.500000
31
0.0
0
LINE
8
0
6
CONTINUOUS
10
69.950000
20
-59.500000
30
0.0
11
69.500000
21
-59.500000
31
0.0
0
LINE
8
0
6
CONTINUOUS
10
71.000000
20
-59.500000
30
0.0
11
69.950000
21
-59.500000
31
0.0
0
LINE
8
0
6
CONTINUOUS
10
69.500000
20
-59.500000
30
0.0
11
69.500000
21
-58.500000
31
0.0
0
LINE
8
0
6
CONTINUOUS
10
69.950000
20
-59.500000
30
0.0
11
69.950000
21
-58.500000
31
0.0
0
LINE
8
0
6
CONTINUOUS
10
69.500000
20
-59.500000
30
0.0
11
69.950000
21
-59.500000
31
0.0
0
LINE
8
0
6
CONTINUOUS
10
69.500000
20
-58.500000
30
0.0
11
69.500000
21
-59.500000
31
0.0
0
LINE
8
0
6
CONTINUOUS
10
71.000000
20
-59.500000
30
0.0
11
71.000000
21
-58.500000
31
0.0
0
LINE
8
0
6
CONTINUOUS
10
69.950000
20
-59.500000
30
0.0
11
71.000000
21
-59.500000
31
0.0
0
LINE
8
0
6
CONTINUOUS
10
69.950000
20
-58.500000
30
0.0
11
69.950000
21
-59.500000
31
0.0
0
LINE
8
0
6
CONTINUOUS
10
71.000000
20
-58.500000
30
0.0
11
71.000000
21
-59.500000
31
0.0
0
LINE
8
0
6
CONTINUOUS
10
84.950000
20
-59.500000
30
0.0
11
84.500000
21
-59.500000
31
0.0
0
LINE
8
0
6
CONTINUOUS
10
84.500000
20
-59.500000
30
0.0
11
84.500000
21
-58.500000
31
0.0
0
LINE
8
0
6
CONTINUOUS
10
84.950000
20
-59.500000
30
0.0
11
84.950000
21
-58.500000
31
0.0
0
LINE
8
0
6
CONTINUOUS
10
84.500000
20
-59.500000
30
0.0
11
84.950000
21
-59.500000
31
0.0
0
LINE
8
0
6
CONTINUOUS
10
84.500000
20
-58.500000
30
0.0
11
84.500000
21
-59.500000
31
0.0
0
LINE
8
0
6
CONTINUOUS
10
84.950000
20
-58.500000
30
0.0
11
84.950000
21
-59.500000
31
0.0
0
LINE
8
0
6
CONTINUOUS
10
99.950000
20
-59.198414
30
0.0
11
99.500000
21
-59.198414
31
0.0
0
LINE
8
0
6
CONTINUOUS
10
101.000000
20
-59.198414
30
0.0
11
99.950000
21
-59.198414
31
0.0
0
LINE
8
0
6
CONTINUOUS
10
102.050000
20
-59.198414
30
0.0
11
101.000000
21
-59.198414
31
0.0
0
LINE
8
0
6
CONTINUOUS
10
99.500000
20
-59.198414
30
0.0
11
99.500000
21
-58.500000
31
0.0
0
LINE
8
0
6
CONTINUOUS
10
99.950000
20
-59.198414
30
0.0
11
99.950000
21
-58.500000
31
0.0
0
LINE
8
0
6
CONTINUOUS
10
99.500000
20
-59.198414
30
0.0
11
99.950000
21
-59.198414
31
0.0
0
LINE
8
0
6
CONTINUOUS
10
99.500000
20
-58.500000
30
0.0
11
99.500000
21
-59.198414
31
0.0
0
LINE
8
0
6
CONTINUOUS
10
101.000000
20
-59.198414
30
0.0
11
101.000000
21
-58.500000
31
0.0
0
LINE
8
0
6
CONTINUOUS
10
99.950000
20
-59.198414
30
0.0
11
101.000000
21
-59.198414
31
0.0
0
LINE
8
0
6
CONTINUOUS
10
99.950000
20
-58.500000
30
0.0
11
99.950000
21
-59.198414
31
0.0
0
LINE
8
0
6
CONTINUOUS
10
101.000000
20
-59.198414
30
0.0
11
102.050000
21
-59.198414
31
0.0
0
LINE
8
0
6
CONTINUOUS
10
101.000000
20
-58.499057
30
0.0
11
101.000000
21
-59.198414
31
0.0
0
LINE
8
0
6
CONTINUOUS
10
147.562549
20
-56.516071
30
0.0
11
147.639000
21
-57.188280
31
0.0
0
LINE
8
0
6
CONTINUOUS
10
147.639000
20
-57.188280
30
0.0
11
147.563479
21
-56.524251
31
0.0
0
LINE
8
0
6
CONTINUOUS
10
162.621000
20
-55.692740
30
0.0
11
162.175000
21
-55.753040
31
0.0
0
LINE
8
0
6
CONTINUOUS
10
162.480789
20
-54.655824
30
0.0
11
162.621000
21
-55.692740
31
0.0
0
LINE
8
0
6
CONTINUOUS
10
162.621000
20
-55.692740
30
0.0
11
162.485320
21
-54.689335
31
0.0
0
LINE
8
0
6
CONTINUOUS
10
162.175000
20
-55.753040
30
0.0
11
162.621000
21
-55.692740
31
0.0
0
LINE
8
0
6
CONTINUOUS
10
133.039412
20
-57.318339
30
0.0
11
133.080000
21
-58.041989
31
0.0
0
LINE
8
0
6
CONTINUOUS
10
133.080000
20
-58.041989
30
0.0
11
133.040128
21
-57.331104
31
0.0
0
LINE
8
0
6
CONTINUOUS
10
11.820000
20
-59.500000
30
0.0
11
12.870000
21
-59.500000
31
0.0
0
LINE
8
0
6
CONTINUOUS
10
11.370000
20
-59.500000
30
0.0
11
11.820000
21
-59.500000
31
0.0
0
LINE
8
0
6
CONTINUOUS
10
13.920000
20
-59.500000
30
0.0
11
14.370000
21
-59.500000
31
0.0
0
LINE
8
0
6
CONTINUOUS
10
12.870000
20
-59.500000
30
0.0
11
13.920000
21
-59.500000
31
0.0
0
LINE
8
0
6
CONTINUOUS
10
11.820000
20
-59.500000
30
0.0
11
11.820000
21
-58.409134
31
0.0
0
LINE
8
0
6
CONTINUOUS
10
12.870000
20
-59.500000
30
0.0
11
11.820000
21
-59.500000
31
0.0
0
LINE
8
0
6
CONTINUOUS
10
12.870000
20
-58.393617
30
0.0
11
12.870000
21
-59.500000
31
0.0
0
LINE
8
0
6
CONTINUOUS
10
11.370000
20
-59.500000
30
0.0
11
11.370000
21
-58.445341
31
0.0
0
LINE
8
0
6
CONTINUOUS
10
11.820000
20
-59.500000
30
0.0
11
11.370000
21
-59.500000
31
0.0
0
LINE
8
0
6
CONTINUOUS
10
11.820000
20
-58.409134
30
0.0
11
11.820000
21
-59.500000
31
0.0
0
LINE
8
0
6
CONTINUOUS
10
11.370000
20
-58.445341
30
0.0
11
11.370000
21
-59.500000
31
0.0
0
LINE
8
0
6
CONTINUOUS
10
14.370000
20
-59.500000
30
0.0
11
14.370000
21
-58.445341
31
0.0
0
LINE
8
0
6
CONTINUOUS
10
13.920000
20
-59.500000
30
0.0
11
13.920000
21
-58.409134
31
0.0
0
LINE
8
0
6
CONTINUOUS
10
14.370000
20
-59.500000
30
0.0
11
13.920000
21
-59.500000
31
0.0
0
LINE
8
0
6
CONTINUOUS
10
14.370000
20
-58.445341
30
0.0
11
14.370000
21
-59.500000
31
0.0
0
LINE
8
0
6
CONTINUOUS
10
12.870000
20
-59.500000
30
0.0
11
12.870000
21
-58.393617
31
0.0
0
LINE
8
0
6
CONTINUOUS
10
13.920000
20
-59.500000
30
0.0
11
12.870000
21
-59.500000
31
0.0
0
LINE
8
0
6
CONTINUOUS
10
13.920000
20
-58.409134
30
0.0
11
13.920000
21
-59.500000
31
0.0
0
LINE
8
0
6
CONTINUOUS
10
33.950000
20
-59.500000
30
0.0
11
35.000000
21
-59.500000
31
0.0
0
LINE
8
0
6
CONTINUOUS
10
33.500000
20
-59.500000
30
0.0
11
33.950000
21
-59.500000
31
0.0
0
LINE
8
0
6
CONTINUOUS
10
36.050000
20
-59.500000
30
0.0
11
36.500000
21
-59.500000
31
0.0
0
LINE
8
0
6
CONTINUOUS
10
35.000000
20
-59.500000
30
0.0
11
36.050000
21
-59.500000
31
0.0
0
LINE
8
0
6
CONTINUOUS
10
33.950000
20
-59.500000
30
0.0
11
33.950000
21
-58.500000
31
0.0
0
LINE
8
0
6
CONTINUOUS
10
35.000000
20
-59.500000
30
0.0
11
33.950000
21
-59.500000
31
0.0
0
LINE
8
0
6
CONTINUOUS
10
35.000000
20
-58.500000
30
0.0
11
35.000000
21
-59.500000
31
0.0
0
LINE
8
0
6
CONTINUOUS
10
33.500000
20
-59.500000
30
0.0
11
33.500000
21
-58.500000
31
0.0
0
LINE
8
0
6
CONTINUOUS
10
33.950000
20
-59.500000
30
0.0
11
33.500000
21
-59.500000
31
0.0
0
LINE
8
0
6
CONTINUOUS
10
33.950000
20
-58.500000
30
0.0
11
33.950000
21
-59.500000
31
0.0
0
LINE
8
0
6
CONTINUOUS
10
33.500000
20
-58.500000
30
0.0
11
33.500000
21
-59.500000
31
0.0
0
LINE
8
0
6
CONTINUOUS
10
36.500000
20
-59.500000
30
0.0
11
36.500000
21
-58.500000
31
0.0
0
LINE
8
0
6
CONTINUOUS
10
36.050000
20
-59.500000
30
0.0
11
36.050000
21
-58.500000
31
0.0
0
LINE
8
0
6
CONTINUOUS
10
36.500000
20
-59.500000
30
0.0
11
36.050000
21
-59.500000
31
0.0
0
LINE
8
0
6
CONTINUOUS
10
36.500000
20
-58.500000
30
0.0
11
36.500000
21
-59.500000
31
0.0
0
LINE
8
0
6
CONTINUOUS
10
35.000000
20
-59.500000
30
0.0
11
35.000000
21
-58.500000
31
0.0
0
LINE
8
0
6
CONTINUOUS
10
36.050000
20
-59.500000
30
0.0
11
35.000000
21
-59.500000
31
0.0
0
LINE
8
0
6
CONTINUOUS
10
36.050000
20
-58.500000
30
0.0
11
36.050000
21
-59.500000
31
0.0
0
LINE
8
0
6
CONTINUOUS
10
48.950000
20
-59.500000
30
0.0
11
50.000000
21
-59.500000
31
0.0
0
LINE
8
0
6
CONTINUOUS
10
48.500000
20
-59.500000
30
0.0
11
48.950000
21
-59.500000
31
0.0
0
LINE
8
0
6
CONTINUOUS
10
51.050000
20
-59.500000
30
0.0
11
51.500000
21
-59.500000
31
0.0
0
LINE
8
0
6
CONTINUOUS
10
50.000000
20
-59.500000
30
0.0
11
51.050000
21
-59.500000
31
0.0
0
LINE
8
0
6
CONTINUOUS
10
48.950000
20
-59.500000
30
0.0
11
48.950000
21
-58.500000
31
0.0
0
LINE
8
0
6
CONTINUOUS
10
50.000000
20
-59.500000
30
0.0
11
48.950000
21
-59.500000
31
0.0
0
LINE
8
0
6
CONTINUOUS
10
50.000000
20
-58.500000
30
0.0
11
50.000000
21
-59.500000
31
0.0
0
LINE
8
0
6
CONTINUOUS
10
48.500000
20
-59.500000
30
0.0
11
48.500000
21
-58.500000
31
0.0
0
LINE
8
0
6
CONTINUOUS
10
48.950000
20
-59.500000
30
0.0
11
48.500000
21
-59.500000
31
0.0
0
LINE
8
0
6
CONTINUOUS
10
48.950000
20
-58.500000
30
0.0
11
48.950000
21
-59.500000
31
0.0
0
LINE
8
0
6
CONTINUOUS
10
48.500000
20
-58.500000
30
0.0
11
48.500000
21
-59.500000
31
0.0
0
LINE
8
0
6
CONTINUOUS
10
51.500000
20
-59.500000
30
0.0
11
51.500000
21
-58.500000
31
0.0
0
LINE
8
0
6
CONTINUOUS
10
51.050000
20
-59.500000
30
0.0
11
51.050000
21
-58.500000
31
0.0
0
LINE
8
0
6
CONTINUOUS
10
51.500000
20
-59.500000
30
0.0
11
51.050000
21
-59.500000
31
0.0
0
LINE
8
0
6
CONTINUOUS
10
51.500000
20
-58.500000
30
0.0
11
51.500000
21
-59.500000
31
0.0
0
LINE
8
0
6
CONTINUOUS
10
50.000000
20
-59.500000
30
0.0
11
50.000000
21
-58.500000
31
0.0
0
LINE
8
0
6
CONTINUOUS
10
51.050000
20
-59.500000
30
0.0
11
50.000000
21
-59.500000
31
0.0
0
LINE
8
0
6
CONTINUOUS
10
51.050000
20
-58.500000
30
0.0
11
51.050000
21
-59.500000
31
0.0
0
LINE
8
0
6
CONTINUOUS
10
62.017000
20
-59.500000
30
0.0
11
63.067000
21
-59.500000
31
0.0
0
LINE
8
0
6
CONTINUOUS
10
61.567000
20
-59.500000
30
0.0
11
62.017000
21
-59.500000
31
0.0
0
LINE
8
0
6
CONTINUOUS
10
64.117000
20
-59.500000
30
0.0
11
64.567000
21
-59.500000
31
0.0
0
LINE
8
0
6
CONTINUOUS
10
63.067000
20
-59.500000
30
0.0
11
64.117000
21
-59.500000
31
0.0
0
LINE
8
0
6
CONTINUOUS
10
62.017000
20
-59.500000
30
0.0
11
62.017000
21
-58.500000
31
0.0
0
LINE
8
0
6
CONTINUOUS
10
63.067000
20
-59.500000
30
0.0
11
62.017000
21
-59.500000
31
0.0
0
LINE
8
0
6
CONTINUOUS
10
63.067000
20
-58.500000
30
0.0
11
63.067000
21
-59.500000
31
0.0
0
LINE
8
0
6
CONTINUOUS
10
61.567000
20
-59.500000
30
0.0
11
61.567000
21
-58.500000
31
0.0
0
LINE
8
0
6
CONTINUOUS
10
62.017000
20
-59.500000
30
0.0
11
61.567000
21
-59.500000
31
0.0
0
LINE
8
0
6
CONTINUOUS
10
62.017000
20
-58.500000
30
0.0
11
62.017000
21
-59.500000
31
0.0
0
LINE
8
0
6
CONTINUOUS
10
61.567000
20
-58.500000
30
0.0
11
61.567000
21
-59.500000
31
0.0
0
LINE
8
0
6
CONTINUOUS
10
64.567000
20
-59.500000
30
0.0
11
64.567000
21
-58.500000
31
0.0
0
LINE
8
0
6
CONTINUOUS
10
64.117000
20
-59.500000
30
0.0
11
64.117000
21
-58.500000
31
0.0
0
LINE
8
0
6
CONTINUOUS
10
64.567000
20
-59.500000
30
0.0
11
64.117000
21
-59.500000
31
0.0
0
LINE
8
0
6
CONTINUOUS
10
64.567000
20
-58.500000
30
0.0
11
64.567000
21
-59.500000
31
0.0
0
LINE
8
0
6
CONTINUOUS
10
63.067000
20
-59.500000
30
0.0
11
63.067000
21
-58.500000
31
0.0
0
LINE
8
0
6
CONTINUOUS
10
64.117000
20
-59.500000
30
0.0
11
63.067000
21
-59.500000
31
0.0
0
LINE
8
0
6
CONTINUOUS
10
64.117000
20
-58.500000
30
0.0
11
64.117000
21
-59.500000
31
0.0
0
LINE
8
0
6
CONTINUOUS
10
26.820000
20
-59.500000
30
0.0
11
27.870000
21
-59.500000
31
0.0
0
LINE
8
0
6
CONTINUOUS
10
26.370000
20
-59.500000
30
0.0
11
26.820000
21
-59.500000
31
0.0
0
LINE
8
0
6
CONTINUOUS
10
28.920000
20
-59.500000
30
0.0
11
29.370000
21
-59.500000
31
0.0
0
LINE
8
0
6
CONTINUOUS
10
27.870000
20
-59.500000
30
0.0
11
28.920000
21
-59.500000
31
0.0
0
LINE
8
0
6
CONTINUOUS
10
26.820000
20
-59.500000
30
0.0
11
26.820000
21
-58.409134
31
0.0
0
LINE
8
0
6
CONTINUOUS
10
27.870000
20
-59.500000
30
0.0
11
26.820000
21
-59.500000
31
0.0
0
LINE
8
0
6
CONTINUOUS
10
27.870000
20
-58.393617
30
0.0
11
27.870000
21
-59.500000
31
0.0
0
LINE
8
0
6
CONTINUOUS
10
26.370000
20
-59.500000
30
0.0
11
26.370000
21
-58.445341
31
0.0
0
LINE
8
0
6
CONTINUOUS
10
26.820000
20
-59.500000
30
0.0
11
26.370000
21
-59.500000
31
0.0
0
LINE
8
0
6
CONTINUOUS
10
26.820000
20
-58.409134
30
0.0
11
26.820000
21
-59.500000
31
0.0
0
LINE
8
0
6
CONTINUOUS
10
26.370000
20
-58.445341
30
0.0
11
26.370000
21
-59.500000
31
0.0
0
LINE
8
0
6
CONTINUOUS
10
29.370000
20
-59.500000
30
0.0
11
29.370000
21
-58.445341
31
0.0
0
LINE
8
0
6
CONTINUOUS
10
28.920000
20
-59.500000
30
0.0
11
28.920000
21
-58.409134
31
0.0
0
LINE
8
0
6
CONTINUOUS
10
29.370000
20
-59.500000
30
0.0
11
28.920000
21
-59.500000
31
0.0
0
LINE
8
0
6
CONTINUOUS
10
29.370000
20
-58.445341
30
0.0
11
29.370000
21
-59.500000
31
0.0
0
LINE
8
0
6
CONTINUOUS
10
27.870000
20
-59.500000
30
0.0
11
27.870000
21
-58.393617
31
0.0
0
LINE
8
0
6
CONTINUOUS
10
28.920000
20
-59.500000
30
0.0
11
27.870000
21
-59.500000
31
0.0
0
LINE
8
0
6
CONTINUOUS
10
28.920000
20
-58.409134
30
0.0
11
28.920000
21
-59.500000
31
0.0
0
LINE
8
0
6
CONTINUOUS
10
41.820000
20
-59.500000
30
0.0
11
42.870000
21
-59.500000
31
0.0
0
LINE
8
0
6
CONTINUOUS
10
41.370000
20
-59.500000
30
0.0
11
41.820000
21
-59.500000
31
0.0
0
LINE
8
0
6
CONTINUOUS
10
43.920000
20
-59.500000
30
0.0
11
44.370000
21
-59.500000
31
0.0
0
LINE
8
0
6
CONTINUOUS
10
42.870000
20
-59.500000
30
0.0
11
43.920000
21
-59.500000
31
0.0
0
LINE
8
0
6
CONTINUOUS
10
41.820000
20
-59.500000
30
0.0
11
41.820000
21
-58.409134
31
0.0
0
LINE
8
0
6
CONTINUOUS
10
42.870000
20
-59.500000
30
0.0
11
41.820000
21
-59.500000
31
0.0
0
LINE
8
0
6
CONTINUOUS
10
42.870000
20
-58.393617
30
0.0
11
42.870000
21
-59.500000
31
0.0
0
LINE
8
0
6
CONTINUOUS
10
41.370000
20
-59.500000
30
0.0
11
41.370000
21
-58.445341
31
0.0
0
LINE
8
0
6
CONTINUOUS
10
41.820000
20
-59.500000
30
0.0
11
41.370000
21
-59.500000
31
0.0
0
LINE
8
0
6
CONTINUOUS
10
41.820000
20
-58.409134
30
0.0
11
41.820000
21
-59.500000
31
0.0
0
LINE
8
0
6
CONTINUOUS
10
41.370000
20
-58.445341
30
0.0
11
41.370000
21
-59.500000
31
0.0
0
LINE
8
0
6
CONTINUOUS
10
44.370000
20
-59.500000
30
0.0
11
44.370000
21
-58.445341
31
0.0
0
LINE
8
0
6
CONTINUOUS
10
43.920000
20
-59.500000
30
0.0
11
43.920000
21
-58.409134
31
0.0
0
LINE
8
0
6
CONTINUOUS
10
44.370000
20
-59.500000
30
0.0
11
43.920000
21
-59.500000
31
0.0
0
LINE
8
0
6
CONTINUOUS
10
44.370000
20
-58.445341
30
0.0
11
44.370000
21
-59.500000
31
0.0
0
LINE
8
0
6
CONTINUOUS
10
42.870000
20
-59.500000
30
0.0
11
42.870000
21
-58.393617
31
0.0
0
LINE
8
0
6
CONTINUOUS
10
43.920000
20
-59.500000
30
0.0
11
42.870000
21
-59.500000
31
0.0
0
LINE
8
0
6
CONTINUOUS
10
43.920000
20
-58.409134
30
0.0
11
43.920000
21
-59.500000
31
0.0
0
LINE
8
0
6
CONTINUOUS
10
56.820000
20
-59.500000
30
0.0
11
57.870000
21
-59.500000
31
0.0
0
LINE
8
0
6
CONTINUOUS
10
56.370000
20
-59.500000
30
0.0
11
56.820000
21
-59.500000
31
0.0
0
LINE
8
0
6
CONTINUOUS
10
58.920000
20
-59.500000
30
0.0
11
59.370000
21
-59.500000
31
0.0
0
LINE
8
0
6
CONTINUOUS
10
57.870000
20
-59.500000
30
0.0
11
58.920000
21
-59.500000
31
0.0
0
LINE
8
0
6
CONTINUOUS
10
56.820000
20
-59.500000
30
0.0
11
56.820000
21
-58.409134
31
0.0
0
LINE
8
0
6
CONTINUOUS
10
57.870000
20
-59.500000
30
0.0
11
56.820000
21
-59.500000
31
0.0
0
LINE
8
0
6
CONTINUOUS
10
57.870000
20
-58.393617
30
0.0
11
57.870000
21
-59.500000
31
0.0
0
LINE
8
0
6
CONTINUOUS
10
56.370000
20
-59.500000
30
0.0
11
56.370000
21
-58.445341
31
0.0
0
LINE
8
0
6
CONTINUOUS
10
56.820000
20
-59.500000
30
0.0
11
56.370000
21
-59.500000
31
0.0
0
LINE
8
0
6
CONTINUOUS
10
56.820000
20
-58.409134
30
0.0
11
56.820000
21
-59.500000
31
0.0
0
LINE
8
0
6
CONTINUOUS
10
56.370000
20
-58.445341
30
0.0
11
56.370000
21
-59.500000
31
0.0
0
LINE
8
0
6
CONTINUOUS
10
59.370000
20
-59.500000
30
0.0
11
59.370000
21
-58.445341
31
0.0
0
LINE
8
0
6
CONTINUOUS
10
58.920000
20
-59.500000
30
0.0
11
58.920000
21
-58.409134
31
0.0
0
LINE
8
0
6
CONTINUOUS
10
59.370000
20
-59.500000
30
0.0
11
58.920000
21
-59.500000
31
0.0
0
LINE
8
0
6
CONTINUOUS
10
59.370000
20
-58.445341
30
0.0
11
59.370000
21
-59.500000
31
0.0
0
LINE
8
0
6
CONTINUOUS
10
57.870000
20
-59.500000
30
0.0
11
57.870000
21
-58.393617
31
0.0
0
LINE
8
0
6
CONTINUOUS
10
58.920000
20
-59.500000
30
0.0
11
57.870000
21
-59.500000
31
0.0
0
LINE
8
0
6
CONTINUOUS
10
58.920000
20
-58.409134
30
0.0
11
58.920000
21
-59.500000
31
0.0
0
LINE
8
0
6
CONTINUOUS
10
71.820000
20
-59.500000
30
0.0
11
72.870000
21
-59.500000
31
0.0
0
LINE
8
0
6
CONTINUOUS
10
71.370000
20
-59.500000
30
0.0
11
71.820000
21
-59.500000
31
0.0
0
LINE
8
0
6
CONTINUOUS
10
73.920000
20
-59.500000
30
0.0
11
74.370000
21
-59.500000
31
0.0
0
LINE
8
0
6
CONTINUOUS
10
72.870000
20
-59.500000
30
0.0
11
73.920000
21
-59.500000
31
0.0
0
LINE
8
0
6
CONTINUOUS
10
71.820000
20
-59.500000
30
0.0
11
71.820000
21
-58.404859
31
0.0
0
LINE
8
0
6
CONTINUOUS
10
72.870000
20
-59.500000
30
0.0
11
71.820000
21
-59.500000
31
0.0
0
LINE
8
0
6
CONTINUOUS
10
72.870000
20
-58.388684
30
0.0
11
72.870000
21
-59.500000
31
0.0
0
LINE
8
0
6
CONTINUOUS
10
71.370000
20
-59.500000
30
0.0
11
71.370000
21
-58.441348
31
0.0
0
LINE
8
0
6
CONTINUOUS
10
71.820000
20
-59.500000
30
0.0
11
71.370000
21
-59.500000
31
0.0
0
LINE
8
0
6
CONTINUOUS
10
71.820000
20
-58.404859
30
0.0
11
71.820000
21
-59.500000
31
0.0
0
LINE
8
0
6
CONTINUOUS
10
71.370000
20
-58.441348
30
0.0
11
71.370000
21
-59.500000
31
0.0
0
LINE
8
0
6
CONTINUOUS
10
74.370000
20
-59.500000
30
0.0
11
74.370000
21
-58.439338
31
0.0
0
LINE
8
0
6
CONTINUOUS
10
73.920000
20
-59.500000
30
0.0
11
73.920000
21
-58.403475
31
0.0
0
LINE
8
0
6
CONTINUOUS
10
74.370000
20
-59.500000
30
0.0
11
73.920000
21
-59.500000
31
0.0
0
LINE
8
0
6
CONTINUOUS
10
74.370000
20
-58.439338
30
0.0
11
74.370000
21
-59.500000
31
0.0
0
LINE
8
0
6
CONTINUOUS
10
72.870000
20
-59.500000
30
0.0
11
72.870000
21
-58.388684
31
0.0
0
LINE
8
0
6
CONTINUOUS
10
73.920000
20
-59.500000
30
0.0
11
72.870000
21
-59.500000
31
0.0
0
LINE
8
0
6
CONTINUOUS
10
73.920000
20
-58.403475
30
0.0
11
73.920000
21
-59.500000
31
0.0
0
LINE
8
0
6
CONTINUOUS
10
18.950000
20
-59.500000
30
0.0
11
20.000000
21
-59.500000
31
0.0
0
LINE
8
0
6
CONTINUOUS
10
18.500000
20
-59.500000
30
0.0
11
18.950000
21
-59.500000
31
0.0
0
LINE
8
0
6
CONTINUOUS
10
21.050000
20
-59.500000
30
0.0
11
21.500000
21
-59.500000
31
0.0
0
LINE
8
0
6
CONTINUOUS
10
20.000000
20
-59.500000
30
0.0
11
21.050000
21
-59.500000
31
0.0
0
LINE
8
0
6
CONTINUOUS
10
18.950000
20
-59.500000
30
0.0
11
18.950000
21
-58.500000
31
0.0
0
LINE
8
0
6
CONTINUOUS
10
20.000000
20
-59.500000
30
0.0
11
18.950000
21
-59.500000
31
0.0
0
LINE
8
0
6
CONTINUOUS
10
20.000000
20
-58.500000
30
0.0
11
20.000000
21
-59.500000
31
0.0
0
LINE
8
0
6
CONTINUOUS
10
18.500000
20
-59.500000
30
0.0
11
18.500000
21
-58.500000
31
0.0
0
LINE
8
0
6
CONTINUOUS
10
18.950000
20
-59.500000
30
0.0
11
18.500000
21
-59.500000
31
0.0
0
LINE
8
0
6
CONTINUOUS
10
18.950000
20
-58.500000
30
0.0
11
18.950000
21
-59.500000
31
0.0
0
LINE
8
0
6
CONTINUOUS
10
18.500000
20
-58.500000
30
0.0
11
18.500000
21
-59.500000
31
0.0
0
LINE
8
0
6
CONTINUOUS
10
21.500000
20
-59.500000
30
0.0
11
21.500000
21
-58.500000
31
0.0
0
LINE
8
0
6
CONTINUOUS
10
21.050000
20
-59.500000
30
0.0
11
21.050000
21
-58.500000
31
0.0
0
LINE
8
0
6
CONTINUOUS
10
21.500000
20
-59.500000
30
0.0
11
21.050000
21
-59.500000
31
0.0
0
LINE
8
0
6
CONTINUOUS
10
21.500000
20
-58.500000
30
0.0
11
21.500000
21
-59.500000
31
0.0
0
LINE
8
0
6
CONTINUOUS
10
20.000000
20
-59.500000
30
0.0
11
20.000000
21
-58.500000
31
0.0
0
LINE
8
0
6
CONTINUOUS
10
21.050000
20
-59.500000
30
0.0
11
20.000000
21
-59.500000
31
0.0
0
LINE
8
0
6
CONTINUOUS
10
21.050000
20
-58.500000
30
0.0
11
21.050000
21
-59.500000
31
0.0
0
LINE
8
0
6
CONTINUOUS
10
12.101000
20
-57.780127
30
0.0
11
13.151000
21
-57.780127
31
0.0
0
LINE
8
0
6
CONTINUOUS
10
11.651000
20
-57.780127
30
0.0
11
12.101000
21
-57.780127
31
0.0
0
LINE
8
0
6
CONTINUOUS
10
14.201000
20
-57.780127
30
0.0
11
14.651000
21
-57.780127
31
0.0
0
LINE
8
0
6
CONTINUOUS
10
13.151000
20
-57.780127
30
0.0
11
14.201000
21
-57.780127
31
0.0
0
LINE
8
0
6
CONTINUOUS
10
12.101000
20
-57.780127
30
0.0
11
12.101000
21
-56.546350
31
0.0
0
LINE
8
0
6
CONTINUOUS
10
13.151000
20
-57.780127
30
0.0
11
12.101000
21
-57.780127
31
0.0
0
LINE
8
0
6
CONTINUOUS
10
13.151000
20
-56.521350
30
0.0
11
13.151000
21
-57.780127
31
0.0
0
LINE
8
0
6
CONTINUOUS
10
11.651000
20
-57.780127
30
0.0
11
11.651000
21
-56.604683
31
0.0
0
LINE
8
0
6
CONTINUOUS
10
12.101000
20
-57.780127
30
0.0
11
11.651000
21
-57.780127
31
0.0
0
LINE
8
0
6
CONTINUOUS
10
12.101000
20
-56.546350
30
0.0
11
12.101000
21
-57.780127
31
0.0
0
LINE
8
0
6
CONTINUOUS
10
11.651000
20
-56.604683
30
0.0
11
11.651000
21
-57.780127
31
0.0
0
LINE
8
0
6
CONTINUOUS
10
14.651000
20
-57.780127
30
0.0
11
14.651000
21
-56.604683
31
0.0
0
LINE
8
0
6
CONTINUOUS
10
14.201000
20
-57.780127
30
0.0
11
14.201000
21
-56.546350
31
0.0
0
LINE
8
0
6
CONTINUOUS
10
14.651000
20
-57.780127
30
0.0
11
14.201000
21
-57.780127
31
0.0
0
LINE
8
0
6
CONTINUOUS
10
14.651000
20
-56.604683
30
0.0
11
14.651000
21
-57.780127
31
0.0
0
LINE
8
0
6
CONTINUOUS
10
13.151000
20
-57.780127
30
0.0
11
13.151000
21
-56.521350
31
0.0
0
LINE
8
0
6
CONTINUOUS
10
14.201000
20
-57.780127
30
0.0
11
13.151000
21
-57.780127
31
0.0
0
LINE
8
0
6
CONTINUOUS
10
14.201000
20
-56.546350
30
0.0
11
14.201000
21
-57.780127
31
0.0
0
LINE
8
0
6
CONTINUOUS
10
33.950000
20
-58.474111
30
0.0
11
35.000000
21
-58.474111
31
0.0
0
LINE
8
0
6
CONTINUOUS
10
33.500000
20
-58.474111
30
0.0
11
33.950000
21
-58.474111
31
0.0
0
LINE
8
0
6
CONTINUOUS
10
36.050000
20
-58.474111
30
0.0
11
36.500000
21
-58.474111
31
0.0
0
LINE
8
0
6
CONTINUOUS
10
35.000000
20
-58.474111
30
0.0
11
36.050000
21
-58.474111
31
0.0
0
LINE
8
0
6
CONTINUOUS
10
33.950000
20
-58.474111
30
0.0
11
33.950000
21
-57.386111
31
0.0
0
LINE
8
0
6
CONTINUOUS
10
35.000000
20
-58.474111
30
0.0
11
33.950000
21
-58.474111
31
0.0
0
LINE
8
0
6
CONTINUOUS
10
35.000000
20
-57.361111
30
0.0
11
35.000000
21
-58.474111
31
0.0
0
LINE
8
0
6
CONTINUOUS
10
33.500000
20
-58.474111
30
0.0
11
33.500000
21
-57.444444
31
0.0
0
LINE
8
0
6
CONTINUOUS
10
33.950000
20
-58.474111
30
0.0
11
33.500000
21
-58.474111
31
0.0
0
LINE
8
0
6
CONTINUOUS
10
33.950000
20
-57.386111
30
0.0
11
33.950000
21
-58.474111
31
0.0
0
LINE
8
0
6
CONTINUOUS
10
33.500000
20
-57.444444
30
0.0
11
33.500000
21
-58.474111
31
0.0
0
LINE
8
0
6
CONTINUOUS
10
36.500000
20
-58.474111
30
0.0
11
36.500000
21
-57.444444
31
0.0
0
LINE
8
0
6
CONTINUOUS
10
36.050000
20
-58.474111
30
0.0
11
36.050000
21
-57.386111
31
0.0
0
LINE
8
0
6
CONTINUOUS
10
36.500000
20
-58.474111
30
0.0
11
36.050000
21
-58.474111
31
0.0
0
LINE
8
0
6
CONTINUOUS
10
36.500000
20
-57.444444
30
0.0
11
36.500000
21
-58.474111
31
0.0
0
LINE
8
0
6
CONTINUOUS
10
35.000000
20
-58.474111
30
0.0
11
35.000000
21
-57.361111
31
0.0
0
LINE
8
0
6
CONTINUOUS
10
36.050000
20
-58.474111
30
0.0
11
35.000000
21
-58.474111
31
0.0
0
LINE
8
0
6
CONTINUOUS
10
36.050000
20
-57.386111
30
0.0
11
36.050000
21
-58.474111
31
0.0
0
LINE
8
0
6
CONTINUOUS
10
48.950000
20
-58.474111
30
0.0
11
50.000000
21
-58.474111
31
0.0
0
LINE
8
0
6
CONTINUOUS
10
48.500000
20
-58.474111
30
0.0
11
48.950000
21
-58.474111
31
0.0
0
LINE
8
0
6
CONTINUOUS
10
51.050000
20
-58.474111
30
0.0
11
51.500000
21
-58.474111
31
0.0
0
LINE
8
0
6
CONTINUOUS
10
50.000000
20
-58.474111
30
0.0
11
51.050000
21
-58.474111
31
0.0
0
LINE
8
0
6
CONTINUOUS
10
48.950000
20
-58.474111
30
0.0
11
48.950000
21
-57.386111
31
0.0
0
LINE
8
0
6
CONTINUOUS
10
50.000000
20
-58.474111
30
0.0
11
48.950000
21
-58.474111
31
0.0
0
LINE
8
0
6
CONTINUOUS
10
50.000000
20
-57.361111
30
0.0
11
50.000000
21
-58.474111
31
0.0
0
LINE
8
0
6
CONTINUOUS
10
48.500000
20
-58.474111
30
0.0
11
48.500000
21
-57.444444
31
0.0
0
LINE
8
0
6
CONTINUOUS
10
48.950000
20
-58.474111
30
0.0
11
48.500000
21
-58.474111
31
0.0
0
LINE
8
0
6
CONTINUOUS
10
48.950000
20
-57.386111
30
0.0
11
48.950000
21
-58.474111
31
0.0
0
LINE
8
0
6
CONTINUOUS
10
48.500000
20
-57.444444
30
0.0
11
48.500000
21
-58.474111
31
0.0
0
LINE
8
0
6
CONTINUOUS
10
51.500000
20
-58.474111
30
0.0
11
51.500000
21
-57.444444
31
0.0
0
LINE
8
0
6
CONTINUOUS
10
51.050000
20
-58.474111
30
0.0
11
51.050000
21
-57.386111
31
0.0
0
LINE
8
0
6
CONTINUOUS
10
51.500000
20
-58.474111
30
0.0
11
51.050000
21
-58.474111
31
0.0
0
LINE
8
0
6
CONTINUOUS
10
51.500000
20
-57.444444
30
0.0
11
51.500000
21
-58.474111
31
0.0
0
LINE
8
0
6
CONTINUOUS
10
50.000000
20
-58.474111
30
0.0
11
50.000000
21
-57.361111
31
0.0
0
LINE
8
0
6
CONTINUOUS
10
51.050000
20
-58.474111
30
0.0
11
50.000000
21
-58.474111
31
0.0
0
LINE
8
0
6
CONTINUOUS
10
51.050000
20
-57.386111
30
0.0
11
51.050000
21
-58.474111
31
0.0
0
LINE
8
0
6
CONTINUOUS
10
63.950000
20
-58.474111
30
0.0
11
65.000000
21
-58.474111
31
0.0
0
LINE
8
0
6
CONTINUOUS
10
63.500000
20
-58.474111
30
0.0
11
63.950000
21
-58.474111
31
0.0
0
LINE
8
0
6
CONTINUOUS
10
66.050000
20
-58.474111
30
0.0
11
66.500000
21
-58.474111
31
0.0
0
LINE
8
0
6
CONTINUOUS
10
65.000000
20
-58.474111
30
0.0
11
66.050000
21
-58.474111
31
0.0
0
LINE
8
0
6
CONTINUOUS
10
63.950000
20
-58.474111
30
0.0
11
63.950000
21
-57.386111
31
0.0
0
LINE
8
0
6
CONTINUOUS
10
65.000000
20
-58.474111
30
0.0
11
63.950000
21
-58.474111
31
0.0
0
LINE
8
0
6
CONTINUOUS
10
65.000000
20
-57.361111
30
0.0
11
65.000000
21
-58.474111
31
0.0
0
LINE
8
0
6
CONTINUOUS
10
63.500000
20
-58.474111
30
0.0
11
63.500000
21
-57.444444
31
0.0
0
LINE
8
0
6
CONTINUOUS
10
63.950000
20
-58.474111
30
0.0
11
63.500000
21
-58.474111
31
0.0
0
LINE
8
0
6
CONTINUOUS
10
63.950000
20
-57.386111
30
0.0
11
63.950000
21
-58.474111
31
0.0
0
LINE
8
0
6
CONTINUOUS
10
63.500000
20
-57.444444
30
0.0
11
63.500000
21
-58.474111
31
0.0
0
LINE
8
0
6
CONTINUOUS
10
66.500000
20
-58.474111
30
0.0
11
66.500000
21
-57.442929
31
0.0
0
LINE
8
0
6
CONTINUOUS
10
66.050000
20
-58.474111
30
0.0
11
66.050000
21
-57.385050
31
0.0
0
LINE
8
0
6
CONTINUOUS
10
66.500000
20
-58.474111
30
0.0
11
66.050000
21
-58.474111
31
0.0
0
LINE
8
0
6
CONTINUOUS
10
66.500000
20
-57.442929
30
0.0
11
66.500000
21
-58.474111
31
0.0
0
LINE
8
0
6
CONTINUOUS
10
65.000000
20
-58.474111
30
0.0
11
65.000000
21
-57.361111
31
0.0
0
LINE
8
0
6
CONTINUOUS
10
66.050000
20
-58.474111
30
0.0
11
65.000000
21
-58.474111
31
0.0
0
LINE
8
0
6
CONTINUOUS
10
66.050000
20
-57.385050
30
0.0
11
66.050000
21
-58.474111
31
0.0
0
LINE
8
0
6
CONTINUOUS
10
27.101000
20
-57.780127
30
0.0
11
28.151000
21
-57.780127
31
0.0
0
LINE
8
0
6
CONTINUOUS
10
26.651000
20
-57.780127
30
0.0
11
27.101000
21
-57.780127
31
0.0
0
LINE
8
0
6
CONTINUOUS
10
29.201000
20
-57.780127
30
0.0
11
29.651000
21
-57.780127
31
0.0
0
LINE
8
0
6
CONTINUOUS
10
28.151000
20
-57.780127
30
0.0
11
29.201000
21
-57.780127
31
0.0
0
LINE
8
0
6
CONTINUOUS
10
27.101000
20
-57.780127
30
0.0
11
27.101000
21
-56.546350
31
0.0
0
LINE
8
0
6
CONTINUOUS
10
28.151000
20
-57.780127
30
0.0
11
27.101000
21
-57.780127
31
0.0
0
LINE
8
0
6
CONTINUOUS
10
28.151000
20
-56.521350
30
0.0
11
28.151000
21
-57.780127
31
0.0
0
LINE
8
0
6
CONTINUOUS
10
26.651000
20
-57.780127
30
0.0
11
26.651000
21
-56.604683
31
0.0
0
LINE
8
0
6
CONTINUOUS
10
27.101000
20
-57.780127
30
0.0
11
26.651000
21
-57.780127
31
0.0
0
LINE
8
0
6
CONTINUOUS
10
27.101000
20
-56.546350
30
0.0
11
27.101000
21
-57.780127
31
0.0
0
LINE
8
0
6
CONTINUOUS
10
26.651000
20
-56.604683
30
0.0
11
26.651000
21
-57.780127
31
0.0
0
LINE
8
0
6
CONTINUOUS
10
29.651000
20
-57.780127
30
0.0
11
29.651000
21
-56.604683
31
0.0
0
LINE
8
0
6
CONTINUOUS
10
29.201000
20
-57.780127
30
0.0
11
29.201000
21
-56.546350
31
0.0
0
LINE
8
0
6
CONTINUOUS
10
29.651000
20
-57.780127
30
0.0
11
29.201000
21
-57.780127
31
0.0
0
LINE
8
0
6
CONTINUOUS
10
29.651000
20
-56.604683
30
0.0
11
29.651000
21
-57.780127
31
0.0
0
LINE
8
0
6
CONTINUOUS
10
28.151000
20
-57.780127
30
0.0
11
28.151000
21
-56.521350
31
0.0
0
LINE
8
0
6
CONTINUOUS
10
29.201000
20
-57.780127
30
0.0
11
28.151000
21
-57.780127
31
0.0
0
LINE
8
0
6
CONTINUOUS
10
29.201000
20
-56.546350
30
0.0
11
29.201000
21
-57.780127
31
0.0
0
LINE
8
0
6
CONTINUOUS
10
42.101000
20
-57.780127
30
0.0
11
43.151000
21
-57.780127
31
0.0
0
LINE
8
0
6
CONTINUOUS
10
41.651000
20
-57.780127
30
0.0
11
42.101000
21
-57.780127
31
0.0
0
LINE
8
0
6
CONTINUOUS
10
44.201000
20
-57.780127
30
0.0
11
44.651000
21
-57.780127
31
0.0
0
LINE
8
0
6
CONTINUOUS
10
43.151000
20
-57.780127
30
0.0
11
44.201000
21
-57.780127
31
0.0
0
LINE
8
0
6
CONTINUOUS
10
42.101000
20
-57.780127
30
0.0
11
42.101000
21
-56.546350
31
0.0
0
LINE
8
0
6
CONTINUOUS
10
43.151000
20
-57.780127
30
0.0
11
42.101000
21
-57.780127
31
0.0
0
LINE
8
0
6
CONTINUOUS
10
43.151000
20
-56.521350
30
0.0
11
43.151000
21
-57.780127
31
0.0
0
LINE
8
0
6
CONTINUOUS
10
41.651000
20
-57.780127
30
0.0
11
41.651000
21
-56.604683
31
0.0
0
LINE
8
0
6
CONTINUOUS
10
42.101000
20
-57.780127
30
0.0
11
41.651000
21
-57.780127
31
0.0
0
LINE
8
0
6
CONTINUOUS
10
42.101000
20
-56.546350
30
0.0
11
42.101000
21
-57.780127
31
0.0
0
LINE
8
0
6
CONTINUOUS
10
41.651000
20
-56.604683
30
0.0
11
41.651000
21
-57.780127
31
0.0
0
LINE
8
0
6
CONTINUOUS
10
44.651000
20
-57.780127
30
0.0
11
44.651000
21
-56.604683
31
0.0
0
LINE
8
0
6
CONTINUOUS
10
44.201000
20
-57.780127
30
0.0
11
44.201000
21
-56.546350
31
0.0
0
LINE
8
0
6
CONTINUOUS
10
44.651000
20
-57.780127
30
0.0
11
44.201000
21
-57.780127
31
0.0
0
LINE
8
0
6
CONTINUOUS
10
44.651000
20
-56.604683
30
0.0
11
44.651000
21
-57.780127
31
0.0
0
LINE
8
0
6
CONTINUOUS
10
43.151000
20
-57.780127
30
0.0
11
43.151000
21
-56.521350
31
0.0
0
LINE
8
0
6
CONTINUOUS
10
44.201000
20
-57.780127
30
0.0
11
43.151000
21
-57.780127
31
0.0
0
LINE
8
0
6
CONTINUOUS
10
44.201000
20
-56.546350
30
0.0
11
44.201000
21
-57.780127
31
0.0
0
LINE
8
0
6
CONTINUOUS
10
57.101000
20
-57.780127
30
0.0
11
58.151000
21
-57.780127
31
0.0
0
LINE
8
0
6
CONTINUOUS
10
56.651000
20
-57.780127
30
0.0
11
57.101000
21
-57.780127
31
0.0
0
LINE
8
0
6
CONTINUOUS
10
59.201000
20
-57.780127
30
0.0
11
59.651000
21
-57.780127
31
0.0
0
LINE
8
0
6
CONTINUOUS
10
58.151000
20
-57.780127
30
0.0
11
59.201000
21
-57.780127
31
0.0
0
LINE
8
0
6
CONTINUOUS
10
57.101000
20
-57.780127
30
0.0
11
57.101000
21
-56.546350
31
0.0
0
LINE
8
0
6
CONTINUOUS
10
58.151000
20
-57.780127
30
0.0
11
57.101000
21
-57.780127
31
0.0
0
LINE
8
0
6
CONTINUOUS
10
58.151000
20
-56.521350
30
0.0
11
58.151000
21
-57.780127
31
0.0
0
LINE
8
0
6
CONTINUOUS
10
56.651000
20
-57.780127
30
0.0
11
56.651000
21
-56.604683
31
0.0
0
LINE
8
0
6
CONTINUOUS
10
57.101000
20
-57.780127
30
0.0
11
56.651000
21
-57.780127
31
0.0
0
LINE
8
0
6
CONTINUOUS
10
57.101000
20
-56.546350
30
0.0
11
57.101000
21
-57.780127
31
0.0
0
LINE
8
0
6
CONTINUOUS
10
56.651000
20
-56.604683
30
0.0
11
56.651000
21
-57.780127
31
0.0
0
LINE
8
0
6
CONTINUOUS
10
59.651000
20
-57.780127
30
0.0
11
59.651000
21
-56.604683
31
0.0
0
LINE
8
0
6
CONTINUOUS
10
59.201000
20
-57.780127
30
0.0
11
59.201000
21
-56.546350
31
0.0
0
LINE
8
0
6
CONTINUOUS
10
59.651000
20
-57.780127
30
0.0
11
59.201000
21
-57.780127
31
0.0
0
LINE
8
0
6
CONTINUOUS
10
59.651000
20
-56.604683
30
0.0
11
59.651000
21
-57.780127
31
0.0
0
LINE
8
0
6
CONTINUOUS
10
58.151000
20
-57.780127
30
0.0
11
58.151000
21
-56.521350
31
0.0
0
LINE
8
0
6
CONTINUOUS
10
59.201000
20
-57.780127
30
0.0
11
58.151000
21
-57.780127
31
0.0
0
LINE
8
0
6
CONTINUOUS
10
59.201000
20
-56.546350
30
0.0
11
59.201000
21
-57.780127
31
0.0
0
LINE
8
0
6
CONTINUOUS
10
72.101000
20
-57.780127
30
0.0
11
73.151000
21
-57.780127
31
0.0
0
LINE
8
0
6
CONTINUOUS
10
71.651000
20
-57.780127
30
0.0
11
72.101000
21
-57.780127
31
0.0
0
LINE
8
0
6
CONTINUOUS
10
74.201000
20
-57.780127
30
0.0
11
74.651000
21
-57.780127
31
0.0
0
LINE
8
0
6
CONTINUOUS
10
73.151000
20
-57.780127
30
0.0
11
74.201000
21
-57.780127
31
0.0
0
LINE
8
0
6
CONTINUOUS
10
72.101000
20
-57.780127
30
0.0
11
72.101000
21
-56.539177
31
0.0
0
LINE
8
0
6
CONTINUOUS
10
73.151000
20
-57.780127
30
0.0
11
72.101000
21
-57.780127
31
0.0
0
LINE
8
0
6
CONTINUOUS
10
73.151000
20
-56.513116
30
0.0
11
73.151000
21
-57.780127
31
0.0
0
LINE
8
0
6
CONTINUOUS
10
71.651000
20
-57.780127
30
0.0
11
71.651000
21
-56.597965
31
0.0
0
LINE
8
0
6
CONTINUOUS
10
72.101000
20
-57.780127
30
0.0
11
71.651000
21
-57.780127
31
0.0
0
LINE
8
0
6
CONTINUOUS
10
72.101000
20
-56.539177
30
0.0
11
72.101000
21
-57.780127
31
0.0
0
LINE
8
0
6
CONTINUOUS
10
71.651000
20
-56.597965
30
0.0
11
71.651000
21
-57.780127
31
0.0
0
LINE
8
0
6
CONTINUOUS
10
74.651000
20
-57.780127
30
0.0
11
74.651000
21
-56.594934
31
0.0
0
LINE
8
0
6
CONTINUOUS
10
74.201000
20
-57.780127
30
0.0
11
74.201000
21
-56.537056
31
0.0
0
LINE
8
0
6
CONTINUOUS
10
74.651000
20
-57.780127
30
0.0
11
74.201000
21
-57.780127
31
0.0
0
LINE
8
0
6
CONTINUOUS
10
74.651000
20
-56.594934
30
0.0
11
74.651000
21
-57.780127
31
0.0
0
LINE
8
0
6
CONTINUOUS
10
73.151000
20
-57.780127
30
0.0
11
73.151000
21
-56.513116
31
0.0
0
LINE
8
0
6
CONTINUOUS
10
74.201000
20
-57.780127
30
0.0
11
73.151000
21
-57.780127
31
0.0
0
LINE
8
0
6
CONTINUOUS
10
74.201000
20
-56.537056
30
0.0
11
74.201000
21
-57.780127
31
0.0
0
LINE
8
0
6
CONTINUOUS
10
18.950000
20
-58.474111
30
0.0
11
20.000000
21
-58.474111
31
0.0
0
LINE
8
0
6
CONTINUOUS
10
18.500000
20
-58.474111
30
0.0
11
18.950000
21
-58.474111
31
0.0
0
LINE
8
0
6
CONTINUOUS
10
21.050000
20
-58.474111
30
0.0
11
21.500000
21
-58.474111
31
0.0
0
LINE
8
0
6
CONTINUOUS
10
20.000000
20
-58.474111
30
0.0
11
21.050000
21
-58.474111
31
0.0
0
LINE
8
0
6
CONTINUOUS
10
18.950000
20
-58.474111
30
0.0
11
18.950000
21
-57.386111
31
0.0
0
LINE
8
0
6
CONTINUOUS
10
20.000000
20
-58.474111
30
0.0
11
18.950000
21
-58.474111
31
0.0
0
LINE
8
0
6
CONTINUOUS
10
20.000000
20
-57.361111
30
0.0
11
20.000000
21
-58.474111
31
0.0
0
LINE
8
0
6
CONTINUOUS
10
18.500000
20
-58.474111
30
0.0
11
18.500000
21
-57.444444
31
0.0
0
LINE
8
0
6
CONTINUOUS
10
18.950000
20
-58.474111
30
0.0
11
18.500000
21
-58.474111
31
0.0
0
LINE
8
0
6
CONTINUOUS
10
18.950000
20
-57.386111
30
0.0
11
18.950000
21
-58.474111
31
0.0
0
LINE
8
0
6
CONTINUOUS
10
18.500000
20
-57.444444
30
0.0
11
18.500000
21
-58.474111
31
0.0
0
LINE
8
0
6
CONTINUOUS
10
21.500000
20
-58.474111
30
0.0
11
21.500000
21
-57.444444
31
0.0
0
LINE
8
0
6
CONTINUOUS
10
21.050000
20
-58.474111
30
0.0
11
21.050000
21
-57.386111
31
0.0
0
LINE
8
0
6
CONTINUOUS
10
21.500000
20
-58.474111
30
0.0
11
21.050000
21
-58.474111
31
0.0
0
LINE
8
0
6
CONTINUOUS
10
21.500000
20
-57.444444
30
0.0
11
21.500000
21
-58.474111
31
0.0
0
LINE
8
0
6
CONTINUOUS
10
20.000000
20
-58.474111
30
0.0
11
20.000000
21
-57.361111
31
0.0
0
LINE
8
0
6
CONTINUOUS
10
21.050000
20
-58.474111
30
0.0
11
20.000000
21
-58.474111
31
0.0
0
LINE
8
0
6
CONTINUOUS
10
21.050000
20
-57.386111
30
0.0
11
21.050000
21
-58.474111
31
0.0
0
LINE
8
0
6
CONTINUOUS
10
18.950000
20
-58.956882
30
0.0
11
20.000000
21
-58.956882
31
0.0
0
LINE
8
0
6
CONTINUOUS
10
18.500000
20
-58.956882
30
0.0
11
18.950000
21
-58.956882
31
0.0
0
LINE
8
0
6
CONTINUOUS
10
21.050000
20
-58.956882
30
0.0
11
21.500000
21
-58.956882
31
0.0
0
LINE
8
0
6
CONTINUOUS
10
20.000000
20
-58.956882
30
0.0
11
21.050000
21
-58.956882
31
0.0
0
LINE
8
0
6
CONTINUOUS
10
18.950000
20
-58.956882
30
0.0
11
18.950000
21
-58.500000
31
0.0
0
LINE
8
0
6
CONTINUOUS
10
20.000000
20
-58.956882
30
0.0
11
18.950000
21
-58.956882
31
0.0
0
LINE
8
0
6
CONTINUOUS
10
20.000000
20
-58.500000
30
0.0
11
20.000000
21
-58.956882
31
0.0
0
LINE
8
0
6
CONTINUOUS
10
18.500000
20
-58.956882
30
0.0
11
18.500000
21
-58.500000
31
0.0
0
LINE
8
0
6
CONTINUOUS
10
18.950000
20
-58.956882
30
0.0
11
18.500000
21
-58.956882
31
0.0
0
LINE
8
0
6
CONTINUOUS
10
18.950000
20
-58.500000
30
0.0
11
18.950000
21
-58.956882
31
0.0
0
LINE
8
0
6
CONTINUOUS
10
18.500000
20
-58.500000
30
0.0
11
18.500000
21
-58.956882
31
0.0
0
LINE
8
0
6
CONTINUOUS
10
21.500000
20
-58.956882
30
0.0
11
21.500000
21
-58.500000
31
0.0
0
LINE
8
0
6
CONTINUOUS
10
21.050000
20
-58.956882
30
0.0
11
21.050000
21
-58.500000
31
0.0
0
LINE
8
0
6
CONTINUOUS
10
21.500000
20
-58.956882
30
0.0
11
21.050000
21
-58.956882
31
0.0
0
LINE
8
0
6
CONTINUOUS
10
21.500000
20
-58.500000
30
0.0
11
21.500000
21
-58.956882
31
0.0
0
LINE
8
0
6
CONTINUOUS
10
20.000000
20
-58.956882
30
0.0
11
20.000000
21
-58.500000
31
0.0
0
LINE
8
0
6
CONTINUOUS
10
21.050000
20
-58.956882
30
0.0
11
20.000000
21
-58.956882
31
0.0
0
LINE
8
0
6
CONTINUOUS
10
21.050000
20
-58.500000
30
0.0
11
21.050000
21
-58.956882
31
0.0
0
LINE
8
0
6
CONTINUOUS
10
33.950000
20
-58.956882
30
0.0
11
35.000000
21
-58.956882
31
0.0
0
LINE
8
0
6
CONTINUOUS
10
33.500000
20
-58.956882
30
0.0
11
33.950000
21
-58.956882
31
0.0
0
LINE
8
0
6
CONTINUOUS
10
36.050000
20
-58.956882
30
0.0
11
36.500000
21
-58.956882
31
0.0
0
LINE
8
0
6
CONTINUOUS
10
35.000000
20
-58.956882
30
0.0
11
36.050000
21
-58.956882
31
0.0
0
LINE
8
0
6
CONTINUOUS
10
33.950000
20
-58.956882
30
0.0
11
33.950000
21
-58.500000
31
0.0
0
LINE
8
0
6
CONTINUOUS
10
35.000000
20
-58.956882
30
0.0
11
33.950000
21
-58.956882
31
0.0
0
LINE
8
0
6
CONTINUOUS
10
35.000000
20
-58.500000
30
0.0
11
35.000000
21
-58.956882
31
0.0
0
LINE
8
0
6
CONTINUOUS
10
33.500000
20
-58.956882
30
0.0
11
33.500000
21
-58.500000
31
0.0
0
LINE
8
0
6
CONTINUOUS
10
33.950000
20
-58.956882
30
0.0
11
33.500000
21
-58.956882
31
0.0
0
LINE
8
0
6
CONTINUOUS
10
33.950000
20
-58.500000
30
0.0
11
33.950000
21
-58.956882
31
0.0
0
LINE
8
0
6
CONTINUOUS
10
33.500000
20
-58.500000
30
0.0
11
33.500000
21
-58.956882
31
0.0
0
LINE
8
0
6
CONTINUOUS
10
36.500000
20
-58.956882
30
0.0
11
36.500000
21
-58.500000
31
0.0
0
LINE
8
0
6
CONTINUOUS
10
36.050000
20
-58.956882
30
0.0
11
36.050000
21
-58.500000
31
0.0
0
LINE
8
0
6
CONTINUOUS
10
36.500000
20
-58.956882
30
0.0
11
36.050000
21
-58.956882
31
0.0
0
LINE
8
0
6
CONTINUOUS
10
36.500000
20
-58.500000
30
0.0
11
36.500000
21
-58.956882
31
0.0
0
LINE
8
0
6
CONTINUOUS
10
35.000000
20
-58.956882
30
0.0
11
35.000000
21
-58.500000
31
0.0
0
LINE
8
0
6
CONTINUOUS
10
36.050000
20
-58.956882
30
0.0
11
35.000000
21
-58.956882
31
0.0
0
LINE
8
0
6
CONTINUOUS
10
36.050000
20
-58.500000
30
0.0
11
36.050000
21
-58.956882
31
0.0
0
LINE
8
0
6
CONTINUOUS
10
48.950000
20
-58.956882
30
0.0
11
50.000000
21
-58.956882
31
0.0
0
LINE
8
0
6
CONTINUOUS
10
48.500000
20
-58.956882
30
0.0
11
48.950000
21
-58.956882
31
0.0
0
LINE
8
0
6
CONTINUOUS
10
51.050000
20
-58.956882
30
0.0
11
51.500000
21
-58.956882
31
0.0
0
LINE
8
0
6
CONTINUOUS
10
50.000000
20
-58.956882
30
0.0
11
51.050000
21
-58.956882
31
0.0
0
LINE
8
0
6
CONTINUOUS
10
48.950000
20
-58.956882
30
0.0
11
48.950000
21
-58.500000
31
0.0
0
LINE
8
0
6
CONTINUOUS
10
50.000000
20
-58.956882
30
0.0
11
48.950000
21
-58.956882
31
0.0
0
LINE
8
0
6
CONTINUOUS
10
50.000000
20
-58.500000
30
0.0
11
50.000000
21
-58.956882
31
0.0
0
LINE
8
0
6
CONTINUOUS
10
48.500000
20
-58.956882
30
0.0
11
48.500000
21
-58.500000
31
0.0
0
LINE
8
0
6
CONTINUOUS
10
48.950000
20
-58.956882
30
0.0
11
48.500000
21
-58.956882
31
0.0
0
LINE
8
0
6
CONTINUOUS
10
48.950000
20
-58.500000
30
0.0
11
48.950000
21
-58.956882
31
0.0
0
LINE
8
0
6
CONTINUOUS
10
48.500000
20
-58.500000
30
0.0
11
48.500000
21
-58.956882
31
0.0
0
LINE
8
0
6
CONTINUOUS
10
51.500000
20
-58.956882
30
0.0
11
51.500000
21
-58.500000
31
0.0
0
LINE
8
0
6
CONTINUOUS
10
51.050000
20
-58.956882
30
0.0
11
51.050000
21
-58.500000
31
0.0
0
LINE
8
0
6
CONTINUOUS
10
51.500000
20
-58.956882
30
0.0
11
51.050000
21
-58.956882
31
0.0
0
LINE
8
0
6
CONTINUOUS
10
51.500000
20
-58.500000
30
0.0
11
51.500000
21
-58.956882
31
0.0
0
LINE
8
0
6
CONTINUOUS
10
50.000000
20
-58.956882
30
0.0
11
50.000000
21
-58.500000
31
0.0
0
LINE
8
0
6
CONTINUOUS
10
51.050000
20
-58.956882
30
0.0
11
50.000000
21
-58.956882
31
0.0
0
LINE
8
0
6
CONTINUOUS
10
51.050000
20
-58.500000
30
0.0
11
51.050000
21
-58.956882
31
0.0
0
LINE
8
0
6
CONTINUOUS
10
63.950000
20
-58.956882
30
0.0
11
65.000000
21
-58.956882
31
0.0
0
LINE
8
0
6
CONTINUOUS
10
63.500000
20
-58.956882
30
0.0
11
63.950000
21
-58.956882
31
0.0
0
LINE
8
0
6
CONTINUOUS
10
66.050000
20
-58.956882
30
0.0
11
66.500000
21
-58.956882
31
0.0
0
LINE
8
0
6
CONTINUOUS
10
65.000000
20
-58.956882
30
0.0
11
66.050000
21
-58.956882
31
0.0
0
LINE
8
0
6
CONTINUOUS
10
63.950000
20
-58.956882
30
0.0
11
63.950000
21
-58.500000
31
0.0
0
LINE
8
0
6
CONTINUOUS
10
65.000000
20
-58.956882
30
0.0
11
63.950000
21
-58.956882
31
0.0
0
LINE
8
0
6
CONTINUOUS
10
65.000000
20
-58.500000
30
0.0
11
65.000000
21
-58.956882
31
0.0
0
LINE
8
0
6
CONTINUOUS
10
63.500000
20
-58.956882
30
0.0
11
63.500000
21
-58.500000
31
0.0
0
LINE
8
0
6
CONTINUOUS
10
63.950000
20
-58.956882
30
0.0
11
63.500000
21
-58.956882
31
0.0
0
LINE
8
0
6
CONTINUOUS
10
63.950000
20
-58.500000
30
0.0
11
63.950000
21
-58.956882
31
0.0
0
LINE
8
0
6
CONTINUOUS
10
63.500000
20
-58.500000
30
0.0
11
63.500000
21
-58.956882
31
0.0
0
LINE
8
0
6
CONTINUOUS
10
66.500000
20
-58.956882
30
0.0
11
66.050000
21
-58.956882
31
0.0
0
LINE
8
0
6
CONTINUOUS
10
65.000000
20
-58.956882
30
0.0
11
65.000000
21
-58.500000
31
0.0
0
LINE
8
0
6
CONTINUOUS
10
66.050000
20
-58.956882
30
0.0
11
65.000000
21
-58.956882
31
0.0
0
LINE
8
0
6
CONTINUOUS
10
33.950000
20
-56.030080
30
0.0
11
35.000000
21
-56.030080
31
0.0
0
LINE
8
0
6
CONTINUOUS
10
33.500000
20
-56.030080
30
0.0
11
33.950000
21
-56.030080
31
0.0
0
LINE
8
0
6
CONTINUOUS
10
36.050000
20
-56.030080
30
0.0
11
36.500000
21
-56.030080
31
0.0
0
LINE
8
0
6
CONTINUOUS
10
35.000000
20
-56.030080
30
0.0
11
36.050000
21
-56.030080
31
0.0
0
LINE
8
0
6
CONTINUOUS
10
33.950000
20
-56.030080
30
0.0
11
33.950000
21
-54.743750
31
0.0
0
LINE
8
0
6
CONTINUOUS
10
35.000000
20
-56.030080
30
0.0
11
33.950000
21
-56.030080
31
0.0
0
LINE
8
0
6
CONTINUOUS
10
35.000000
20
-54.687500
30
0.0
11
35.000000
21
-56.030080
31
0.0
0
LINE
8
0
6
CONTINUOUS
10
33.500000
20
-56.030080
30
0.0
11
33.500000
21
-54.875000
31
0.0
0
LINE
8
0
6
CONTINUOUS
10
33.950000
20
-56.030080
30
0.0
11
33.500000
21
-56.030080
31
0.0
0
LINE
8
0
6
CONTINUOUS
10
33.950000
20
-54.743750
30
0.0
11
33.950000
21
-56.030080
31
0.0
0
LINE
8
0
6
CONTINUOUS
10
33.500000
20
-54.875000
30
0.0
11
33.500000
21
-56.030080
31
0.0
0
LINE
8
0
6
CONTINUOUS
10
36.500000
20
-56.030080
30
0.0
11
36.500000
21
-54.875000
31
0.0
0
LINE
8
0
6
CONTINUOUS
10
36.050000
20
-56.030080
30
0.0
11
36.050000
21
-54.743750
31
0.0
0
LINE
8
0
6
CONTINUOUS
10
36.500000
20
-56.030080
30
0.0
11
36.050000
21
-56.030080
31
0.0
0
LINE
8
0
6
CONTINUOUS
10
36.500000
20
-54.875000
30
0.0
11
36.500000
21
-56.030080
31
0.0
0
LINE
8
0
6
CONTINUOUS
10
35.000000
20
-56.030080
30
0.0
11
35.000000
21
-54.687500
31
0.0
0
LINE
8
0
6
CONTINUOUS
10
36.050000
20
-56.030080
30
0.0
11
35.000000
21
-56.030080
31
0.0
0
LINE
8
0
6
CONTINUOUS
10
36.050000
20
-54.743750
30
0.0
11
36.050000
21
-56.030080
31
0.0
0
LINE
8
0
6
CONTINUOUS
10
63.950000
20
-56.030080
30
0.0
11
65.000000
21
-56.030080
31
0.0
0
LINE
8
0
6
CONTINUOUS
10
63.500000
20
-56.030080
30
0.0
11
63.950000
21
-56.030080
31
0.0
0
LINE
8
0
6
CONTINUOUS
10
66.050000
20
-56.030080
30
0.0
11
66.500000
21
-56.030080
31
0.0
0
LINE
8
0
6
CONTINUOUS
10
65.000000
20
-56.030080
30
0.0
11
66.050000
21
-56.030080
31
0.0
0
LINE
8
0
6
CONTINUOUS
10
63.950000
20
-56.030080
30
0.0
11
63.950000
21
-54.743750
31
0.0
0
LINE
8
0
6
CONTINUOUS
10
65.000000
20
-56.030080
30
0.0
11
63.950000
21
-56.030080
31
0.0
0
LINE
8
0
6
CONTINUOUS
10
65.000000
20
-54.687500
30
0.0
11
65.000000
21
-56.030080
31
0.0
0
LINE
8
0
6
CONTINUOUS
10
63.500000
20
-56.030080
30
0.0
11
63.500000
21
-54.875000
31
0.0
0
LINE
8
0
6
CONTINUOUS
10
63.950000
20
-56.030080
30
0.0
11
63.500000
21
-56.030080
31
0.0
0
LINE
8
0
6
CONTINUOUS
10
63.950000
20
-54.743750
30
0.0
11
63.950000
21
-56.030080
31
0.0
0
LINE
8
0
6
CONTINUOUS
10
63.500000
20
-54.875000
30
0.0
11
63.500000
21
-56.030080
31
0.0
0
LINE
8
0
6
CONTINUOUS
10
66.500000
20
-56.030080
30
0.0
11
66.500000
21
-54.871591
31
0.0
0
LINE
8
0
6
CONTINUOUS
10
66.050000
20
-56.030080
30
0.0
11
66.050000
21
-54.741364
31
0.0
0
LINE
8
0
6
CONTINUOUS
10
66.500000
20
-56.030080
30
0.0
11
66.050000
21
-56.030080
31
0.0
0
LINE
8
0
6
CONTINUOUS
10
66.500000
20
-54.871591
30
0.0
11
66.500000
21
-56.030080
31
0.0
0
LINE
8
0
6
CONTINUOUS
10
65.000000
20
-56.030080
30
0.0
11
65.000000
21
-54.687500
31
0.0
0
LINE
8
0
6
CONTINUOUS
10
66.050000
20
-56.030080
30
0.0
11
65.000000
21
-56.030080
31
0.0
0
LINE
8
0
6
CONTINUOUS
10
66.050000
20
-54.741364
30
0.0
11
66.050000
21
-56.030080
31
0.0
0
LINE
8
0
6
CONTINUOUS
10
48.950000
20
-56.030080
30
0.0
11
50.000000
21
-56.030080
31
0.0
0
LINE
8
0
6
CONTINUOUS
10
48.500000
20
-56.030080
30
0.0
11
48.950000
21
-56.030080
31
0.0
0
LINE
8
0
6
CONTINUOUS
10
51.050000
20
-56.030080
30
0.0
11
51.500000
21
-56.030080
31
0.0
0
LINE
8
0
6
CONTINUOUS
10
50.000000
20
-56.030080
30
0.0
11
51.050000
21
-56.030080
31
0.0
0
LINE
8
0
6
CONTINUOUS
10
48.950000
20
-56.030080
30
0.0
11
48.950000
21
-54.743750
31
0.0
0
LINE
8
0
6
CONTINUOUS
10
50.000000
20
-56.030080
30
0.0
11
48.950000
21
-56.030080
31
0.0
0
LINE
8
0
6
CONTINUOUS
10
50.000000
20
-54.687500
30
0.0
11
50.000000
21
-56.030080
31
0.0
0
LINE
8
0
6
CONTINUOUS
10
48.500000
20
-56.030080
30
0.0
11
48.500000
21
-54.875000
31
0.0
0
LINE
8
0
6
CONTINUOUS
10
48.950000
20
-56.030080
30
0.0
11
48.500000
21
-56.030080
31
0.0
0
LINE
8
0
6
CONTINUOUS
10
48.950000
20
-54.743750
30
0.0
11
48.950000
21
-56.030080
31
0.0
0
LINE
8
0
6
CONTINUOUS
10
48.500000
20
-54.875000
30
0.0
11
48.500000
21
-56.030080
31
0.0
0
LINE
8
0
6
CONTINUOUS
10
51.500000
20
-56.030080
30
0.0
11
51.500000
21
-54.875000
31
0.0
0
LINE
8
0
6
CONTINUOUS
10
51.050000
20
-56.030080
30
0.0
11
51.050000
21
-54.743750
31
0.0
0
LINE
8
0
6
CONTINUOUS
10
51.500000
20
-56.030080
30
0.0
11
51.050000
21
-56.030080
31
0.0
0
LINE
8
0
6
CONTINUOUS
10
51.500000
20
-54.875000
30
0.0
11
51.500000
21
-56.030080
31
0.0
0
LINE
8
0
6
CONTINUOUS
10
50.000000
20
-56.030080
30
0.0
11
50.000000
21
-54.687500
31
0.0
0
LINE
8
0
6
CONTINUOUS
10
51.050000
20
-56.030080
30
0.0
11
50.000000
21
-56.030080
31
0.0
0
LINE
8
0
6
CONTINUOUS
10
51.050000
20
-54.743750
30
0.0
11
51.050000
21
-56.030080
31
0.0
0
LINE
8
0
6
CONTINUOUS
10
18.950000
20
-56.030080
30
0.0
11
20.000000
21
-56.030080
31
0.0
0
LINE
8
0
6
CONTINUOUS
10
18.500000
20
-56.030080
30
0.0
11
18.950000
21
-56.030080
31
0.0
0
LINE
8
0
6
CONTINUOUS
10
21.050000
20
-56.030080
30
0.0
11
21.500000
21
-56.030080
31
0.0
0
LINE
8
0
6
CONTINUOUS
10
20.000000
20
-56.030080
30
0.0
11
21.050000
21
-56.030080
31
0.0
0
LINE
8
0
6
CONTINUOUS
10
18.950000
20
-56.030080
30
0.0
11
18.950000
21
-54.743750
31
0.0
0
LINE
8
0
6
CONTINUOUS
10
20.000000
20
-56.030080
30
0.0
11
18.950000
21
-56.030080
31
0.0
0
LINE
8
0
6
CONTINUOUS
10
20.000000
20
-54.687500
30
0.0
11
20.000000
21
-56.030080
31
0.0
0
LINE
8
0
6
CONTINUOUS
10
18.500000
20
-56.030080
30
0.0
11
18.500000
21
-54.875000
31
0.0
0
LINE
8
0
6
CONTINUOUS
10
18.950000
20
-56.030080
30
0.0
11
18.500000
21
-56.030080
31
0.0
0
LINE
8
0
6
CONTINUOUS
10
18.950000
20
-54.743750
30
0.0
11
18.950000
21
-56.030080
31
0.0
0
LINE
8
0
6
CONTINUOUS
10
18.500000
20
-54.875000
30
0.0
11
18.500000
21
-56.030080
31
0.0
0
LINE
8
0
6
CONTINUOUS
10
21.500000
20
-56.030080
30
0.0
11
21.500000
21
-54.875000
31
0.0
0
LINE
8
0
6
CONTINUOUS
10
21.050000
20
-56.030080
30
0.0
11
21.050000
21
-54.743750
31
0.0
0
LINE
8
0
6
CONTINUOUS
10
21.500000
20
-56.030080
30
0.0
11
21.050000
21
-56.030080
31
0.0
0
LINE
8
0
6
CONTINUOUS
10
21.500000
20
-54.875000
30
0.0
11
21.500000
21
-56.030080
31
0.0
0
LINE
8
0
6
CONTINUOUS
10
20.000000
20
-56.030080
30
0.0
11
20.000000
21
-54.687500
31
0.0
0
LINE
8
0
6
CONTINUOUS
10
21.050000
20
-56.030080
30
0.0
11
20.000000
21
-56.030080
31
0.0
0
LINE
8
0
6
CONTINUOUS
10
21.050000
20
-54.743750
30
0.0
11
21.050000
21
-56.030080
31
0.0
0
LINE
8
0
6
CONTINUOUS
10
78.139000
20
-59.500000
30
0.0
11
77.689000
21
-59.500000
31
0.0
0
LINE
8
0
6
CONTINUOUS
10
79.189000
20
-59.500000
30
0.0
11
78.139000
21
-59.500000
31
0.0
0
LINE
8
0
6
CONTINUOUS
10
80.239000
20
-59.500000
30
0.0
11
79.189000
21
-59.500000
31
0.0
0
LINE
8
0
6
CONTINUOUS
10
80.689000
20
-59.500000
30
0.0
11
80.239000
21
-59.500000
31
0.0
0
LINE
8
0
6
CONTINUOUS
10
80.689000
20
-58.500000
30
0.0
11
80.689000
21
-59.500000
31
0.0
0
LINE
8
0
6
CONTINUOUS
10
77.689000
20
-59.500000
30
0.0
11
77.689000
21
-58.500000
31
0.0
0
LINE
8
0
6
CONTINUOUS
10
78.139000
20
-59.500000
30
0.0
11
78.139000
21
-58.500000
31
0.0
0
LINE
8
0
6
CONTINUOUS
10
77.689000
20
-59.500000
30
0.0
11
78.139000
21
-59.500000
31
0.0
0
LINE
8
0
6
CONTINUOUS
10
77.689000
20
-58.500000
30
0.0
11
77.689000
21
-59.500000
31
0.0
0
LINE
8
0
6
CONTINUOUS
10
79.189000
20
-59.500000
30
0.0
11
79.189000
21
-58.500000
31
0.0
0
LINE
8
0
6
CONTINUOUS
10
78.139000
20
-59.500000
30
0.0
11
79.189000
21
-59.500000
31
0.0
0
LINE
8
0
6
CONTINUOUS
10
78.139000
20
-58.500000
30
0.0
11
78.139000
21
-59.500000
31
0.0
0
LINE
8
0
6
CONTINUOUS
10
80.239000
20
-59.500000
30
0.0
11
80.239000
21
-58.500000
31
0.0
0
LINE
8
0
6
CONTINUOUS
10
79.189000
20
-59.500000
30
0.0
11
80.239000
21
-59.500000
31
0.0
0
LINE
8
0
6
CONTINUOUS
10
79.189000
20
-58.500000
30
0.0
11
79.189000
21
-59.500000
31
0.0
0
LINE
8
0
6
CONTINUOUS
10
80.689000
20
-59.500000
30
0.0
11
80.689000
21
-58.500000
31
0.0
0
LINE
8
0
6
CONTINUOUS
10
80.239000
20
-59.500000
30
0.0
11
80.689000
21
-59.500000
31
0.0
0
LINE
8
0
6
CONTINUOUS
10
80.239000
20
-58.500000
30
0.0
11
80.239000
21
-59.500000
31
0.0
0
LINE
8
0
6
CONTINUOUS
10
95.101000
20
-59.198414
30
0.0
11
94.651000
21
-59.198414
31
0.0
0
LINE
8
0
6
CONTINUOUS
10
96.151000
20
-59.198414
30
0.0
11
95.101000
21
-59.198414
31
0.0
0
LINE
8
0
6
CONTINUOUS
10
97.201000
20
-59.198414
30
0.0
11
96.151000
21
-59.198414
31
0.0
0
LINE
8
0
6
CONTINUOUS
10
97.651000
20
-59.198414
30
0.0
11
97.201000
21
-59.198414
31
0.0
0
LINE
8
0
6
CONTINUOUS
10
97.651000
20
-58.500000
30
0.0
11
97.651000
21
-59.198414
31
0.0
0
LINE
8
0
6
CONTINUOUS
10
94.651000
20
-59.198414
30
0.0
11
94.651000
21
-58.500000
31
0.0
0
LINE
8
0
6
CONTINUOUS
10
95.101000
20
-59.198414
30
0.0
11
95.101000
21
-58.500000
31
0.0
0
LINE
8
0
6
CONTINUOUS
10
94.651000
20
-59.198414
30
0.0
11
95.101000
21
-59.198414
31
0.0
0
LINE
8
0
6
CONTINUOUS
10
94.651000
20
-58.500000
30
0.0
11
94.651000
21
-59.198414
31
0.0
0
LINE
8
0
6
CONTINUOUS
10
96.151000
20
-59.198414
30
0.0
11
96.151000
21
-58.500000
31
0.0
0
LINE
8
0
6
CONTINUOUS
10
95.101000
20
-59.198414
30
0.0
11
96.151000
21
-59.198414
31
0.0
0
LINE
8
0
6
CONTINUOUS
10
95.101000
20
-58.500000
30
0.0
11
95.101000
21
-59.198414
31
0.0
0
LINE
8
0
6
CONTINUOUS
10
97.201000
20
-59.198414
30
0.0
11
97.201000
21
-58.500000
31
0.0
0
LINE
8
0
6
CONTINUOUS
10
96.151000
20
-59.198414
30
0.0
11
97.201000
21
-59.198414
31
0.0
0
LINE
8
0
6
CONTINUOUS
10
96.151000
20
-58.500000
30
0.0
11
96.151000
21
-59.198414
31
0.0
0
LINE
8
0
6
CONTINUOUS
10
97.651000
20
-59.198414
30
0.0
11
97.651000
21
-58.500000
31
0.0
0
LINE
8
0
6
CONTINUOUS
10
97.201000
20
-59.198414
30
0.0
11
97.651000
21
-59.198414
31
0.0
0
LINE
8
0
6
CONTINUOUS
10
97.201000
20
-58.500000
30
0.0
11
97.201000
21
-59.198414
31
0.0
0
LINE
8
0
6
CONTINUOUS
10
118.474000
20
-58.586425
30
0.0
11
118.024000
21
-58.598319
31
0.0
0
LINE
8
0
6
CONTINUOUS
10
118.454842
20
-57.863717
30
0.0
11
118.474000
21
-58.586425
31
0.0
0
LINE
8
0
6
CONTINUOUS
10
118.474000
20
-58.586425
30
0.0
11
118.455752
21
-57.898078
31
0.0
0
LINE
8
0
6
CONTINUOUS
10
118.024000
20
-58.598319
30
0.0
11
118.474000
21
-58.586425
31
0.0
0
LINE
8
0
6
CONTINUOUS
10
85.810000
20
-59.500000
30
0.0
11
86.860000
21
-59.500000
31
0.0
0
LINE
8
0
6
CONTINUOUS
10
85.360000
20
-59.500000
30
0.0
11
85.810000
21
-59.500000
31
0.0
0
LINE
8
0
6
CONTINUOUS
10
87.910000
20
-59.500000
30
0.0
11
88.360000
21
-59.500000
31
0.0
0
LINE
8
0
6
CONTINUOUS
10
86.860000
20
-59.500000
30
0.0
11
87.910000
21
-59.500000
31
0.0
0
LINE
8
0
6
CONTINUOUS
10
85.810000
20
-59.500000
30
0.0
11
85.810000
21
-58.421504
31
0.0
0
LINE
8
0
6
CONTINUOUS
10
86.860000
20
-59.500000
30
0.0
11
85.810000
21
-59.500000
31
0.0
0
LINE
8
0
6
CONTINUOUS
10
86.860000
20
-58.403913
30
0.0
11
86.860000
21
-59.500000
31
0.0
0
LINE
8
0
6
CONTINUOUS
10
85.360000
20
-59.500000
30
0.0
11
85.360000
21
-58.458061
31
0.0
0
LINE
8
0
6
CONTINUOUS
10
85.810000
20
-59.500000
30
0.0
11
85.360000
21
-59.500000
31
0.0
0
LINE
8
0
6
CONTINUOUS
10
85.810000
20
-58.421504
30
0.0
11
85.810000
21
-59.500000
31
0.0
0
LINE
8
0
6
CONTINUOUS
10
85.360000
20
-58.458061
30
0.0
11
85.360000
21
-59.500000
31
0.0
0
LINE
8
0
6
CONTINUOUS
10
88.360000
20
-59.500000
30
0.0
11
88.360000
21
-58.450823
31
0.0
0
LINE
8
0
6
CONTINUOUS
10
87.910000
20
-59.500000
30
0.0
11
87.910000
21
-58.416513
31
0.0
0
LINE
8
0
6
CONTINUOUS
10
88.360000
20
-59.500000
30
0.0
11
87.910000
21
-59.500000
31
0.0
0
LINE
8
0
6
CONTINUOUS
10
88.360000
20
-58.450823
30
0.0
11
88.360000
21
-59.500000
31
0.0
0
LINE
8
0
6
CONTINUOUS
10
86.860000
20
-59.500000
30
0.0
11
86.860000
21
-58.403913
31
0.0
0
LINE
8
0
6
CONTINUOUS
10
87.910000
20
-59.500000
30
0.0
11
86.860000
21
-59.500000
31
0.0
0
LINE
8
0
6
CONTINUOUS
10
87.910000
20
-58.416513
30
0.0
11
87.910000
21
-59.500000
31
0.0
0
LINE
8
0
6
CONTINUOUS
10
115.634000
20
-58.661533
30
0.0
11
115.184000
21
-58.673427
31
0.0
0
LINE
8
0
6
CONTINUOUS
10
116.683000
20
-58.633780
30
0.0
11
115.634000
21
-58.661533
31
0.0
0
LINE
8
0
6
CONTINUOUS
10
117.733000
20
-58.606027
30
0.0
11
116.683000
21
-58.633780
31
0.0
0
LINE
8
0
6
CONTINUOUS
10
118.183000
20
-58.594133
30
0.0
11
117.733000
21
-58.606027
31
0.0
0
LINE
8
0
6
CONTINUOUS
10
118.162699
20
-57.828312
30
0.0
11
118.183000
21
-58.594133
31
0.0
0
LINE
8
0
6
CONTINUOUS
10
115.184000
20
-58.673427
30
0.0
11
115.164011
21
-57.919404
31
0.0
0
LINE
8
0
6
CONTINUOUS
10
115.634000
20
-58.661533
30
0.0
11
115.613765
21
-57.898197
31
0.0
0
LINE
8
0
6
CONTINUOUS
10
115.184000
20
-58.673427
30
0.0
11
115.634000
21
-58.661533
31
0.0
0
LINE
8
0
6
CONTINUOUS
10
115.164011
20
-57.919404
30
0.0
11
115.184000
21
-58.673427
31
0.0
0
LINE
8
0
6
CONTINUOUS
10
116.683000
20
-58.633780
30
0.0
11
116.662584
21
-57.863628
31
0.0
0
LINE
8
0
6
CONTINUOUS
10
115.634000
20
-58.661533
30
0.0
11
116.683000
21
-58.633780
31
0.0
0
LINE
8
0
6
CONTINUOUS
10
115.613765
20
-57.898197
30
0.0
11
115.634000
21
-58.661533
31
0.0
0
LINE
8
0
6
CONTINUOUS
10
117.733000
20
-58.606027
30
0.0
11
117.712580
21
-57.835726
31
0.0
0
LINE
8
0
6
CONTINUOUS
10
116.683000
20
-58.633780
30
0.0
11
117.733000
21
-58.606027
31
0.0
0
LINE
8
0
6
CONTINUOUS
10
116.662584
20
-57.863628
30
0.0
11
116.683000
21
-58.633780
31
0.0
0
LINE
8
0
6
CONTINUOUS
10
118.183000
20
-58.594133
30
0.0
11
118.162699
21
-57.828312
31
0.0
0
LINE
8
0
6
CONTINUOUS
10
117.733000
20
-58.606027
30
0.0
11
118.183000
21
-58.594133
31
0.0
0
LINE
8
0
6
CONTINUOUS
10
117.712580
20
-57.835726
30
0.0
11
117.733000
21
-58.606027
31
0.0
0
LINE
8
0
6
CONTINUOUS
10
102.008000
20
-59.198414
30
0.0
11
101.558000
21
-59.198414
31
0.0
0
LINE
8
0
6
CONTINUOUS
10
103.058000
20
-59.198414
30
0.0
11
102.008000
21
-59.198414
31
0.0
0
LINE
8
0
6
CONTINUOUS
10
104.108000
20
-59.198414
30
0.0
11
103.058000
21
-59.198414
31
0.0
0
LINE
8
0
6
CONTINUOUS
10
104.558000
20
-59.198414
30
0.0
11
104.108000
21
-59.198414
31
0.0
0
LINE
8
0
6
CONTINUOUS
10
104.558000
20
-58.280178
30
0.0
11
104.558000
21
-59.198414
31
0.0
0
LINE
8
0
6
CONTINUOUS
10
101.558000
20
-59.198414
30
0.0
11
101.558000
21
-58.344478
31
0.0
0
LINE
8
0
6
CONTINUOUS
10
102.008000
20
-59.198414
30
0.0
11
102.008000
21
-58.314398
31
0.0
0
LINE
8
0
6
CONTINUOUS
10
101.558000
20
-59.198414
30
0.0
11
102.008000
21
-59.198414
31
0.0
0
LINE
8
0
6
CONTINUOUS
10
101.558000
20
-58.344478
30
0.0
11
101.558000
21
-59.198414
31
0.0
0
LINE
8
0
6
CONTINUOUS
10
103.058000
20
-59.198414
30
0.0
11
103.058000
21
-58.287516
31
0.0
0
LINE
8
0
6
CONTINUOUS
10
102.008000
20
-59.198414
30
0.0
11
103.058000
21
-59.198414
31
0.0
0
LINE
8
0
6
CONTINUOUS
10
102.008000
20
-58.314398
30
0.0
11
102.008000
21
-59.198414
31
0.0
0
LINE
8
0
6
CONTINUOUS
10
104.108000
20
-59.198414
30
0.0
11
104.108000
21
-58.274257
31
0.0
0
LINE
8
0
6
CONTINUOUS
10
103.058000
20
-59.198414
30
0.0
11
104.108000
21
-59.198414
31
0.0
0
LINE
8
0
6
CONTINUOUS
10
103.058000
20
-58.287516
30
0.0
11
103.058000
21
-59.198414
31
0.0
0
LINE
8
0
6
CONTINUOUS
10
104.558000
20
-59.198414
30
0.0
11
104.558000
21
-58.280178
31
0.0
0
LINE
8
0
6
CONTINUOUS
10
104.108000
20
-59.198414
30
0.0
11
104.558000
21
-59.198414
31
0.0
0
LINE
8
0
6
CONTINUOUS
10
104.108000
20
-58.274257
30
0.0
11
104.108000
21
-59.198414
31
0.0
0
LINE
8
0
6
CONTINUOUS
10
147.434021
20
-56.508221
30
0.0
11
147.513000
21
-57.202650
31
0.0
0
LINE
8
0
6
CONTINUOUS
10
147.513000
20
-57.202650
30
0.0
11
147.436646
21
-56.531297
31
0.0
0
LINE
8
0
6
CONTINUOUS
10
162.294000
20
-55.736950
30
0.0
11
161.848000
21
-55.797250
31
0.0
0
LINE
8
0
6
CONTINUOUS
10
162.148360
20
-54.659884
30
0.0
11
162.294000
21
-55.736950
31
0.0
0
LINE
8
0
6
CONTINUOUS
10
161.848000
20
-55.797250
30
0.0
11
161.701387
21
-54.712989
31
0.0
0
LINE
8
0
6
CONTINUOUS
10
162.294000
20
-55.736950
30
0.0
11
162.148360
21
-54.659884
31
0.0
0
LINE
8
0
6
CONTINUOUS
10
161.848000
20
-55.797250
30
0.0
11
162.294000
21
-55.736950
31
0.0
0
LINE
8
0
6
CONTINUOUS
10
161.701387
20
-54.712989
30
0.0
11
161.848000
21
-55.797250
31
0.0
0
LINE
8
0
6
CONTINUOUS
10
147.261000
20
-57.231400
30
0.0
11
146.814000
21
-57.282360
31
0.0
0
LINE
8
0
6
CONTINUOUS
10
147.164726
20
-56.388633
30
0.0
11
147.261000
21
-57.231400
31
0.0
0
LINE
8
0
6
CONTINUOUS
10
146.814000
20
-57.282360
30
0.0
11
146.717090
21
-56.434024
31
0.0
0
LINE
8
0
6
CONTINUOUS
10
147.261000
20
-57.231400
30
0.0
11
147.164726
21
-56.388633
31
0.0
0
LINE
8
0
6
CONTINUOUS
10
146.814000
20
-57.282360
30
0.0
11
147.261000
21
-57.231400
31
0.0
0
LINE
8
0
6
CONTINUOUS
10
146.717090
20
-56.434024
30
0.0
11
146.814000
21
-57.282360
31
0.0
0
LINE
8
0
6
CONTINUOUS
10
160.977000
20
-55.915120
30
0.0
11
159.936000
21
-56.055820
31
0.0
0
LINE
8
0
6
CONTINUOUS
10
161.423000
20
-55.854830
30
0.0
11
160.977000
21
-55.915120
31
0.0
0
LINE
8
0
6
CONTINUOUS
10
161.265882
20
-54.692875
30
0.0
11
161.423000
21
-55.854830
31
0.0
0
LINE
8
0
6
CONTINUOUS
10
160.977000
20
-55.915120
30
0.0
11
160.818039
21
-54.739541
31
0.0
0
LINE
8
0
6
CONTINUOUS
10
159.936000
20
-56.055820
30
0.0
11
160.977000
21
-55.915120
31
0.0
0
LINE
8
0
6
CONTINUOUS
10
161.423000
20
-55.854830
30
0.0
11
161.265882
21
-54.692875
31
0.0
0
LINE
8
0
6
CONTINUOUS
10
160.977000
20
-55.915120
30
0.0
11
161.423000
21
-55.854830
31
0.0
0
LINE
8
0
6
CONTINUOUS
10
160.818039
20
-54.739541
30
0.0
11
160.977000
21
-55.915120
31
0.0
0
LINE
8
0
6
CONTINUOUS
10
147.304709
20
-56.496664
30
0.0
11
147.387000
21
-57.217030
31
0.0
0
LINE
8
0
6
CONTINUOUS
10
147.387000
20
-57.217030
30
0.0
11
147.304709
21
-56.496664
31
0.0
0
LINE
8
0
6
CONTINUOUS
10
131.000000
20
-58.158559
30
0.0
11
129.952000
21
-58.217313
31
0.0
0
LINE
8
0
6
CONTINUOUS
10
132.049000
20
-58.099806
30
0.0
11
131.000000
21
-58.158559
31
0.0
0
LINE
8
0
6
CONTINUOUS
10
132.498000
20
-58.074625
30
0.0
11
132.049000
21
-58.099806
31
0.0
0
LINE
8
0
6
CONTINUOUS
10
132.454000
20
-57.290151
30
0.0
11
132.498000
21
-58.074625
31
0.0
0
LINE
8
0
6
CONTINUOUS
10
131.000000
20
-58.158559
30
0.0
11
130.955527
21
-57.365649
31
0.0
0
LINE
8
0
6
CONTINUOUS
10
129.952000
20
-58.217313
30
0.0
11
131.000000
21
-58.158559
31
0.0
0
LINE
8
0
6
CONTINUOUS
10
132.049000
20
-58.099806
30
0.0
11
132.004725
21
-57.310415
31
0.0
0
LINE
8
0
6
CONTINUOUS
10
131.000000
20
-58.158559
30
0.0
11
132.049000
21
-58.099806
31
0.0
0
LINE
8
0
6
CONTINUOUS
10
130.955527
20
-57.365649
30
0.0
11
131.000000
21
-58.158559
31
0.0
0
LINE
8
0
6
CONTINUOUS
10
132.498000
20
-58.074625
30
0.0
11
132.454000
21
-57.290151
31
0.0
0
LINE
8
0
6
CONTINUOUS
10
132.049000
20
-58.099806
30
0.0
11
132.498000
21
-58.074625
31
0.0
0
LINE
8
0
6
CONTINUOUS
10
132.004725
20
-57.310415
30
0.0
11
132.049000
21
-58.099806
31
0.0
0
LINE
8
0
6
CONTINUOUS
10
132.935000
20
-58.050148
30
0.0
11
132.485000
21
-58.075328
31
0.0
0
LINE
8
0
6
CONTINUOUS
10
132.893443
20
-57.309229
30
0.0
11
132.935000
21
-58.050148
31
0.0
0
LINE
8
0
6
CONTINUOUS
10
132.935000
20
-58.050148
30
0.0
11
132.895122
21
-57.339160
31
0.0
0
LINE
8
0
6
CONTINUOUS
10
132.485000
20
-58.075328
30
0.0
11
132.935000
21
-58.050148
31
0.0
0
LINE
8
0
6
CONTINUOUS
10
76.629000
20
-58.474111
30
0.0
11
77.679000
21
-58.474111
31
0.0
0
LINE
8
0
6
CONTINUOUS
10
76.179000
20
-58.474111
30
0.0
11
76.629000
21
-58.474111
31
0.0
0
LINE
8
0
6
CONTINUOUS
10
78.729000
20
-58.474111
30
0.0
11
79.179000
21
-58.474111
31
0.0
0
LINE
8
0
6
CONTINUOUS
10
77.679000
20
-58.474111
30
0.0
11
78.729000
21
-58.474111
31
0.0
0
LINE
8
0
6
CONTINUOUS
10
76.629000
20
-58.474111
30
0.0
11
76.629000
21
-57.341960
31
0.0
0
LINE
8
0
6
CONTINUOUS
10
77.679000
20
-58.474111
30
0.0
11
76.629000
21
-58.474111
31
0.0
0
LINE
8
0
6
CONTINUOUS
10
77.679000
20
-57.315899
30
0.0
11
77.679000
21
-58.474111
31
0.0
0
LINE
8
0
6
CONTINUOUS
10
76.179000
20
-58.474111
30
0.0
11
76.179000
21
-57.400748
31
0.0
0
LINE
8
0
6
CONTINUOUS
10
76.629000
20
-58.474111
30
0.0
11
76.179000
21
-58.474111
31
0.0
0
LINE
8
0
6
CONTINUOUS
10
76.629000
20
-57.341960
30
0.0
11
76.629000
21
-58.474111
31
0.0
0
LINE
8
0
6
CONTINUOUS
10
76.179000
20
-57.400748
30
0.0
11
76.179000
21
-58.474111
31
0.0
0
LINE
8
0
6
CONTINUOUS
10
79.179000
20
-58.474111
30
0.0
11
79.179000
21
-57.397705
31
0.0
0
LINE
8
0
6
CONTINUOUS
10
78.729000
20
-58.474111
30
0.0
11
78.729000
21
-57.339839
31
0.0
0
LINE
8
0
6
CONTINUOUS
10
79.179000
20
-58.474111
30
0.0
11
78.729000
21
-58.474111
31
0.0
0
LINE
8
0
6
CONTINUOUS
10
79.179000
20
-57.397705
30
0.0
11
79.179000
21
-58.474111
31
0.0
0
LINE
8
0
6
CONTINUOUS
10
77.679000
20
-58.474111
30
0.0
11
77.679000
21
-57.315899
31
0.0
0
LINE
8
0
6
CONTINUOUS
10
78.729000
20
-58.474111
30
0.0
11
77.679000
21
-58.474111
31
0.0
0
LINE
8
0
6
CONTINUOUS
10
78.729000
20
-57.339839
30
0.0
11
78.729000
21
-58.474111
31
0.0
0
LINE
8
0
6
CONTINUOUS
10
91.202000
20
-58.172525
30
0.0
11
92.252000
21
-58.172525
31
0.0
0
LINE
8
0
6
CONTINUOUS
10
90.752000
20
-58.172525
30
0.0
11
91.202000
21
-58.172525
31
0.0
0
LINE
8
0
6
CONTINUOUS
10
93.302000
20
-58.172525
30
0.0
11
93.752000
21
-58.172525
31
0.0
0
LINE
8
0
6
CONTINUOUS
10
92.252000
20
-58.172525
30
0.0
11
93.302000
21
-58.172525
31
0.0
0
LINE
8
0
6
CONTINUOUS
10
91.202000
20
-58.172525
30
0.0
11
91.202000
21
-57.333597
31
0.0
0
LINE
8
0
6
CONTINUOUS
10
92.252000
20
-58.172525
30
0.0
11
91.202000
21
-58.172525
31
0.0
0
LINE
8
0
6
CONTINUOUS
10
92.252000
20
-57.306837
30
0.0
11
92.252000
21
-58.172525
31
0.0
0
LINE
8
0
6
CONTINUOUS
10
90.752000
20
-58.172525
30
0.0
11
90.752000
21
-57.392418
31
0.0
0
LINE
8
0
6
CONTINUOUS
10
91.202000
20
-58.172525
30
0.0
11
90.752000
21
-58.172525
31
0.0
0
LINE
8
0
6
CONTINUOUS
10
91.202000
20
-57.333597
30
0.0
11
91.202000
21
-58.172525
31
0.0
0
LINE
8
0
6
CONTINUOUS
10
90.752000
20
-57.392418
30
0.0
11
90.752000
21
-58.172525
31
0.0
0
LINE
8
0
6
CONTINUOUS
10
93.752000
20
-58.172525
30
0.0
11
93.752000
21
-57.383419
31
0.0
0
LINE
8
0
6
CONTINUOUS
10
93.302000
20
-58.172525
30
0.0
11
93.302000
21
-57.327695
31
0.0
0
LINE
8
0
6
CONTINUOUS
10
93.752000
20
-58.172525
30
0.0
11
93.302000
21
-58.172525
31
0.0
0
LINE
8
0
6
CONTINUOUS
10
93.752000
20
-57.383419
30
0.0
11
93.752000
21
-58.172525
31
0.0
0
LINE
8
0
6
CONTINUOUS
10
92.252000
20
-58.172525
30
0.0
11
92.252000
21
-57.306837
31
0.0
0
LINE
8
0
6
CONTINUOUS
10
93.302000
20
-58.172525
30
0.0
11
92.252000
21
-58.172525
31
0.0
0
LINE
8
0
6
CONTINUOUS
10
93.302000
20
-57.327695
30
0.0
11
93.302000
21
-58.172525
31
0.0
0
LINE
8
0
6
CONTINUOUS
10
105.884000
20
-57.921203
30
0.0
11
106.934000
21
-57.921203
31
0.0
0
LINE
8
0
6
CONTINUOUS
10
105.434000
20
-57.921203
30
0.0
11
105.884000
21
-57.921203
31
0.0
0
LINE
8
0
6
CONTINUOUS
10
107.984000
20
-57.921203
30
0.0
11
108.434000
21
-57.921203
31
0.0
0
LINE
8
0
6
CONTINUOUS
10
106.934000
20
-57.921203
30
0.0
11
107.984000
21
-57.921203
31
0.0
0
LINE
8
0
6
CONTINUOUS
10
105.884000
20
-57.921203
30
0.0
11
105.884000
21
-57.285974
31
0.0
0
LINE
8
0
6
CONTINUOUS
10
106.934000
20
-57.921203
30
0.0
11
105.884000
21
-57.921203
31
0.0
0
LINE
8
0
6
CONTINUOUS
10
106.934000
20
-57.257370
30
0.0
11
106.934000
21
-57.921203
31
0.0
0
LINE
8
0
6
CONTINUOUS
10
105.434000
20
-57.921203
30
0.0
11
105.434000
21
-57.344809
31
0.0
0
LINE
8
0
6
CONTINUOUS
10
105.884000
20
-57.921203
30
0.0
11
105.434000
21
-57.921203
31
0.0
0
LINE
8
0
6
CONTINUOUS
10
105.884000
20
-57.285974
30
0.0
11
105.884000
21
-57.921203
31
0.0
0
LINE
8
0
6
CONTINUOUS
10
105.434000
20
-57.344809
30
0.0
11
105.434000
21
-57.921203
31
0.0
0
LINE
8
0
6
CONTINUOUS
10
108.434000
20
-57.921203
30
0.0
11
108.434000
21
-57.332947
31
0.0
0
LINE
8
0
6
CONTINUOUS
10
107.984000
20
-57.921203
30
0.0
11
107.984000
21
-57.277671
31
0.0
0
LINE
8
0
6
CONTINUOUS
10
108.434000
20
-57.921203
30
0.0
11
107.984000
21
-57.921203
31
0.0
0
LINE
8
0
6
CONTINUOUS
10
108.434000
20
-57.332947
30
0.0
11
108.434000
21
-57.921203
31
0.0
0
LINE
8
0
6
CONTINUOUS
10
106.934000
20
-57.921203
30
0.0
11
106.934000
21
-57.257370
31
0.0
0
LINE
8
0
6
CONTINUOUS
10
107.984000
20
-57.921203
30
0.0
11
106.934000
21
-57.921203
31
0.0
0
LINE
8
0
6
CONTINUOUS
10
107.984000
20
-57.277671
30
0.0
11
107.984000
21
-57.921203
31
0.0
0
LINE
8
0
6
CONTINUOUS
10
119.494000
20
-58.494713
30
0.0
11
120.544000
21
-58.494713
31
0.0
0
LINE
8
0
6
CONTINUOUS
10
119.044000
20
-58.494713
30
0.0
11
119.494000
21
-58.494713
31
0.0
0
LINE
8
0
6
CONTINUOUS
10
121.594000
20
-58.494713
30
0.0
11
122.044000
21
-58.494713
31
0.0
0
LINE
8
0
6
CONTINUOUS
10
120.544000
20
-58.494713
30
0.0
11
121.594000
21
-58.494713
31
0.0
0
LINE
8
0
6
CONTINUOUS
10
119.494000
20
-58.494713
30
0.0
11
119.494000
21
-57.304302
31
0.0
0
LINE
8
0
6
CONTINUOUS
10
120.544000
20
-58.494713
30
0.0
11
119.494000
21
-58.494713
31
0.0
0
LINE
8
0
6
CONTINUOUS
10
120.544000
20
-57.272588
30
0.0
11
120.544000
21
-58.494713
31
0.0
0
LINE
8
0
6
CONTINUOUS
10
119.044000
20
-58.494713
30
0.0
11
119.044000
21
-57.361664
31
0.0
0
LINE
8
0
6
CONTINUOUS
10
119.494000
20
-58.494713
30
0.0
11
119.044000
21
-58.494713
31
0.0
0
LINE
8
0
6
CONTINUOUS
10
119.494000
20
-57.304302
30
0.0
11
119.494000
21
-58.494713
31
0.0
0
LINE
8
0
6
CONTINUOUS
10
119.044000
20
-57.361664
30
0.0
11
119.044000
21
-58.494713
31
0.0
0
LINE
8
0
6
CONTINUOUS
10
122.044000
20
-58.494713
30
0.0
11
122.044000
21
-57.327878
31
0.0
0
LINE
8
0
6
CONTINUOUS
10
121.594000
20
-58.494713
30
0.0
11
121.594000
21
-57.282919
31
0.0
0
LINE
8
0
6
CONTINUOUS
10
122.044000
20
-58.494713
30
0.0
11
121.594000
21
-58.494713
31
0.0
0
LINE
8
0
6
CONTINUOUS
10
122.044000
20
-57.327878
30
0.0
11
122.044000
21
-58.494713
31
0.0
0
LINE
8
0
6
CONTINUOUS
10
120.544000
20
-58.494713
30
0.0
11
120.544000
21
-57.272588
31
0.0
0
LINE
8
0
6
CONTINUOUS
10
121.594000
20
-58.494713
30
0.0
11
120.544000
21
-58.494713
31
0.0
0
LINE
8
0
6
CONTINUOUS
10
121.594000
20
-57.282919
30
0.0
11
121.594000
21
-58.494713
31
0.0
0
LINE
8
0
6
CONTINUOUS
10
86.237000
20
-57.780127
30
0.0
11
87.287000
21
-57.780127
31
0.0
0
LINE
8
0
6
CONTINUOUS
10
85.787000
20
-57.780127
30
0.0
11
86.237000
21
-57.780127
31
0.0
0
LINE
8
0
6
CONTINUOUS
10
88.337000
20
-57.780127
30
0.0
11
88.787000
21
-57.780127
31
0.0
0
LINE
8
0
6
CONTINUOUS
10
87.287000
20
-57.780127
30
0.0
11
88.337000
21
-57.780127
31
0.0
0
LINE
8
0
6
CONTINUOUS
10
86.237000
20
-57.780127
30
0.0
11
86.237000
21
-56.531387
31
0.0
0
LINE
8
0
6
CONTINUOUS
10
87.287000
20
-57.780127
30
0.0
11
86.237000
21
-57.780127
31
0.0
0
LINE
8
0
6
CONTINUOUS
10
87.287000
20
-56.505186
30
0.0
11
87.287000
21
-57.780127
31
0.0
0
LINE
8
0
6
CONTINUOUS
10
85.787000
20
-57.780127
30
0.0
11
85.787000
21
-56.590208
31
0.0
0
LINE
8
0
6
CONTINUOUS
10
86.237000
20
-57.780127
30
0.0
11
85.787000
21
-57.780127
31
0.0
0
LINE
8
0
6
CONTINUOUS
10
86.237000
20
-56.531387
30
0.0
11
86.237000
21
-57.780127
31
0.0
0
LINE
8
0
6
CONTINUOUS
10
85.787000
20
-56.590208
30
0.0
11
85.787000
21
-57.780127
31
0.0
0
LINE
8
0
6
CONTINUOUS
10
88.787000
20
-57.780127
30
0.0
11
88.787000
21
-56.586737
31
0.0
0
LINE
8
0
6
CONTINUOUS
10
88.337000
20
-57.780127
30
0.0
11
88.337000
21
-56.528957
31
0.0
0
LINE
8
0
6
CONTINUOUS
10
88.787000
20
-57.780127
30
0.0
11
88.337000
21
-57.780127
31
0.0
0
LINE
8
0
6
CONTINUOUS
10
88.787000
20
-56.586737
30
0.0
11
88.787000
21
-57.780127
31
0.0
0
LINE
8
0
6
CONTINUOUS
10
87.287000
20
-57.780127
30
0.0
11
87.287000
21
-56.505186
31
0.0
0
LINE
8
0
6
CONTINUOUS
10
88.337000
20
-57.780127
30
0.0
11
87.287000
21
-57.780127
31
0.0
0
LINE
8
0
6
CONTINUOUS
10
88.337000
20
-56.528957
30
0.0
11
88.337000
21
-57.780127
31
0.0
0
LINE
8
0
6
CONTINUOUS
10
98.041000
20
-57.931140
30
0.0
11
99.091000
21
-57.931140
31
0.0
0
LINE
8
0
6
CONTINUOUS
10
97.591000
20
-57.931140
30
0.0
11
98.041000
21
-57.931140
31
0.0
0
LINE
8
0
6
CONTINUOUS
10
100.141000
20
-57.931140
30
0.0
11
100.591000
21
-57.931140
31
0.0
0
LINE
8
0
6
CONTINUOUS
10
99.091000
20
-57.931140
30
0.0
11
100.141000
21
-57.931140
31
0.0
0
LINE
8
0
6
CONTINUOUS
10
98.041000
20
-57.931140
30
0.0
11
98.041000
21
-56.522028
31
0.0
0
LINE
8
0
6
CONTINUOUS
10
99.091000
20
-57.931140
30
0.0
11
98.041000
21
-57.931140
31
0.0
0
LINE
8
0
6
CONTINUOUS
10
99.091000
20
-56.485971
30
0.0
11
99.091000
21
-57.931140
31
0.0
0
LINE
8
0
6
CONTINUOUS
10
97.591000
20
-57.931140
30
0.0
11
97.591000
21
-56.580926
31
0.0
0
LINE
8
0
6
CONTINUOUS
10
98.041000
20
-57.931140
30
0.0
11
97.591000
21
-57.931140
31
0.0
0
LINE
8
0
6
CONTINUOUS
10
98.041000
20
-56.522028
30
0.0
11
98.041000
21
-57.931140
31
0.0
0
LINE
8
0
6
CONTINUOUS
10
97.591000
20
-56.580926
30
0.0
11
97.591000
21
-57.931140
31
0.0
0
LINE
8
0
6
CONTINUOUS
10
100.591000
20
-57.931140
30
0.0
11
100.591000
21
-56.570344
31
0.0
0
LINE
8
0
6
CONTINUOUS
10
100.141000
20
-57.931140
30
0.0
11
100.141000
21
-56.514620
31
0.0
0
LINE
8
0
6
CONTINUOUS
10
100.591000
20
-57.931140
30
0.0
11
100.141000
21
-57.931140
31
0.0
0
LINE
8
0
6
CONTINUOUS
10
100.591000
20
-56.570344
30
0.0
11
100.591000
21
-57.931140
31
0.0
0
LINE
8
0
6
CONTINUOUS
10
99.091000
20
-57.931140
30
0.0
11
99.091000
21
-56.485971
31
0.0
0
LINE
8
0
6
CONTINUOUS
10
100.141000
20
-57.931140
30
0.0
11
99.091000
21
-57.931140
31
0.0
0
LINE
8
0
6
CONTINUOUS
10
100.141000
20
-56.514620
30
0.0
11
100.141000
21
-57.931140
31
0.0
0
LINE
8
0
6
CONTINUOUS
10
113.444000
20
-57.844403
30
0.0
11
114.494000
21
-57.816650
31
0.0
0
LINE
8
0
6
CONTINUOUS
10
112.994000
20
-57.856297
30
0.0
11
113.444000
21
-57.844403
31
0.0
0
LINE
8
0
6
CONTINUOUS
10
115.543000
20
-57.788897
30
0.0
11
115.993000
21
-57.777003
31
0.0
0
LINE
8
0
6
CONTINUOUS
10
114.494000
20
-57.816650
30
0.0
11
115.543000
21
-57.788897
31
0.0
0
LINE
8
0
6
CONTINUOUS
10
113.444000
20
-57.844403
30
0.0
11
113.406809
21
-56.441464
31
0.0
0
LINE
8
0
6
CONTINUOUS
10
114.494000
20
-57.816650
30
0.0
11
113.444000
21
-57.844403
31
0.0
0
LINE
8
0
6
CONTINUOUS
10
114.455839
20
-56.377113
30
0.0
11
114.494000
21
-57.816650
31
0.0
0
LINE
8
0
6
CONTINUOUS
10
112.994000
20
-57.856297
30
0.0
11
112.958915
21
-56.532810
31
0.0
0
LINE
8
0
6
CONTINUOUS
10
113.444000
20
-57.844403
30
0.0
11
112.994000
21
-57.856297
31
0.0
0
LINE
8
0
6
CONTINUOUS
10
113.406809
20
-56.441464
30
0.0
11
113.444000
21
-57.844403
31
0.0
0
LINE
8
0
6
CONTINUOUS
10
112.958915
20
-56.532810
30
0.0
11
112.994000
21
-57.856297
31
0.0
0
LINE
8
0
6
CONTINUOUS
10
115.993000
20
-57.777003
30
0.0
11
115.959703
21
-56.520945
31
0.0
0
LINE
8
0
6
CONTINUOUS
10
115.543000
20
-57.788897
30
0.0
11
115.506785
21
-56.422780
31
0.0
0
LINE
8
0
6
CONTINUOUS
10
115.993000
20
-57.777003
30
0.0
11
115.543000
21
-57.788897
31
0.0
0
LINE
8
0
6
CONTINUOUS
10
115.959703
20
-56.520945
30
0.0
11
115.993000
21
-57.777003
31
0.0
0
LINE
8
0
6
CONTINUOUS
10
114.494000
20
-57.816650
30
0.0
11
114.455839
21
-56.377113
31
0.0
0
LINE
8
0
6
CONTINUOUS
10
115.543000
20
-57.788897
30
0.0
11
114.494000
21
-57.816650
31
0.0
0
LINE
8
0
6
CONTINUOUS
10
115.506785
20
-56.422780
30
0.0
11
115.543000
21
-57.788897
31
0.0
0
LINE
8
0
6
CONTINUOUS
10
127.776000
20
-57.796144
30
0.0
11
128.824000
21
-57.737391
31
0.0
0
LINE
8
0
6
CONTINUOUS
10
127.327000
20
-57.821324
30
0.0
11
127.776000
21
-57.796144
31
0.0
0
LINE
8
0
6
CONTINUOUS
10
129.873000
20
-57.678637
30
0.0
11
130.322000
21
-57.653457
31
0.0
0
LINE
8
0
6
CONTINUOUS
10
128.824000
20
-57.737391
30
0.0
11
129.873000
21
-57.678637
31
0.0
0
LINE
8
0
6
CONTINUOUS
10
127.776000
20
-57.796144
30
0.0
11
127.697289
21
-56.392788
31
0.0
0
LINE
8
0
6
CONTINUOUS
10
128.824000
20
-57.737391
30
0.0
11
127.776000
21
-57.796144
31
0.0
0
LINE
8
0
6
CONTINUOUS
10
128.744797
20
-56.325260
30
0.0
11
128.824000
21
-57.737391
31
0.0
0
LINE
8
0
6
CONTINUOUS
10
127.327000
20
-57.821324
30
0.0
11
127.253484
21
-56.510598
31
0.0
0
LINE
8
0
6
CONTINUOUS
10
127.776000
20
-57.796144
30
0.0
11
127.327000
21
-57.821324
31
0.0
0
LINE
8
0
6
CONTINUOUS
10
127.697289
20
-56.392788
30
0.0
11
127.776000
21
-57.796144
31
0.0
0
LINE
8
0
6
CONTINUOUS
10
127.253484
20
-56.510598
30
0.0
11
127.327000
21
-57.821324
31
0.0
0
LINE
8
0
6
CONTINUOUS
10
130.322000
20
-57.653457
30
0.0
11
130.255744
21
-56.472160
31
0.0
0
LINE
8
0
6
CONTINUOUS
10
129.873000
20
-57.678637
30
0.0
11
129.799044
21
-56.360061
31
0.0
0
LINE
8
0
6
CONTINUOUS
10
130.322000
20
-57.653457
30
0.0
11
129.873000
21
-57.678637
31
0.0
0
LINE
8
0
6
CONTINUOUS
10
130.255744
20
-56.472160
30
0.0
11
130.322000
21
-57.653457
31
0.0
0
LINE
8
0
6
CONTINUOUS
10
128.824000
20
-57.737391
30
0.0
11
128.744797
21
-56.325260
31
0.0
0
LINE
8
0
6
CONTINUOUS
10
129.873000
20
-57.678637
30
0.0
11
128.824000
21
-57.737391
31
0.0
0
LINE
8
0
6
CONTINUOUS
10
129.799044
20
-56.360061
30
0.0
11
129.873000
21
-57.678637
31
0.0
0
LINE
8
0
6
CONTINUOUS
10
143.877000
20
-57.617097
30
0.0
11
143.430000
21
-57.668054
31
0.0
0
LINE
8
0
6
CONTINUOUS
10
144.920000
20
-57.498200
30
0.0
11
143.877000
21
-57.617097
31
0.0
0
LINE
8
0
6
CONTINUOUS
10
145.963000
20
-57.379300
30
0.0
11
144.920000
21
-57.498200
31
0.0
0
LINE
8
0
6
CONTINUOUS
10
146.410000
20
-57.328340
30
0.0
11
145.963000
21
-57.379300
31
0.0
0
LINE
8
0
6
CONTINUOUS
10
146.297322
20
-56.337599
30
0.0
11
146.410000
21
-57.328340
31
0.0
0
LINE
8
0
6
CONTINUOUS
10
143.430000
20
-57.668054
30
0.0
11
143.305872
21
-56.581449
31
0.0
0
LINE
8
0
6
CONTINUOUS
10
143.877000
20
-57.617097
30
0.0
11
143.755075
21
-56.549780
31
0.0
0
LINE
8
0
6
CONTINUOUS
10
143.430000
20
-57.668054
30
0.0
11
143.877000
21
-57.617097
31
0.0
0
LINE
8
0
6
CONTINUOUS
10
143.305872
20
-56.581449
30
0.0
11
143.430000
21
-57.668054
31
0.0
0
LINE
8
0
6
CONTINUOUS
10
144.920000
20
-57.498200
30
0.0
11
144.804538
21
-56.482982
31
0.0
0
LINE
8
0
6
CONTINUOUS
10
143.877000
20
-57.617097
30
0.0
11
144.920000
21
-57.498200
31
0.0
0
LINE
8
0
6
CONTINUOUS
10
143.755075
20
-56.549780
30
0.0
11
143.877000
21
-57.617097
31
0.0
0
LINE
8
0
6
CONTINUOUS
10
145.963000
20
-57.379300
30
0.0
11
145.848377
21
-56.371456
31
0.0
0
LINE
8
0
6
CONTINUOUS
10
144.920000
20
-57.498200
30
0.0
11
145.963000
21
-57.379300
31
0.0
0
LINE
8
0
6
CONTINUOUS
10
144.804538
20
-56.482982
30
0.0
11
144.920000
21
-57.498200
31
0.0
0
LINE
8
0
6
CONTINUOUS
10
146.410000
20
-57.328340
30
0.0
11
146.297322
21
-56.337599
31
0.0
0
LINE
8
0
6
CONTINUOUS
10
145.963000
20
-57.379300
30
0.0
11
146.410000
21
-57.328340
31
0.0
0
LINE
8
0
6
CONTINUOUS
10
145.848377
20
-56.371456
30
0.0
11
145.963000
21
-57.379300
31
0.0
0
LINE
8
0
6
CONTINUOUS
10
157.915000
20
-56.329140
30
0.0
11
157.469000
21
-56.389440
31
0.0
0
LINE
8
0
6
CONTINUOUS
10
158.955000
20
-56.188440
30
0.0
11
157.915000
21
-56.329140
31
0.0
0
LINE
8
0
6
CONTINUOUS
10
159.996000
20
-56.047740
30
0.0
11
158.955000
21
-56.188440
31
0.0
0
LINE
8
0
6
CONTINUOUS
10
160.442000
20
-55.987440
30
0.0
11
159.996000
21
-56.047740
31
0.0
0
LINE
8
0
6
CONTINUOUS
10
160.267571
20
-54.697471
30
0.0
11
160.442000
21
-55.987440
31
0.0
0
LINE
8
0
6
CONTINUOUS
10
157.469000
20
-56.389440
30
0.0
11
157.915000
21
-56.329140
31
0.0
0
LINE
8
0
6
CONTINUOUS
10
157.915000
20
-56.329140
30
0.0
11
158.955000
21
-56.188440
31
0.0
0
LINE
8
0
6
CONTINUOUS
10
159.996000
20
-56.047740
30
0.0
11
159.819562
21
-54.742907
31
0.0
0
LINE
8
0
6
CONTINUOUS
10
158.955000
20
-56.188440
30
0.0
11
159.996000
21
-56.047740
31
0.0
0
LINE
8
0
6
CONTINUOUS
10
160.442000
20
-55.987440
30
0.0
11
160.267571
21
-54.697471
31
0.0
0
LINE
8
0
6
CONTINUOUS
10
159.996000
20
-56.047740
30
0.0
11
160.442000
21
-55.987440
31
0.0
0
LINE
8
0
6
CONTINUOUS
10
159.819562
20
-54.742907
30
0.0
11
159.996000
21
-56.047740
31
0.0
0
LINE
8
0
6
CONTINUOUS
10
139.631000
20
-57.888127
30
0.0
11
139.182000
21
-57.924123
31
0.0
0
LINE
8
0
6
CONTINUOUS
10
140.677000
20
-57.804137
30
0.0
11
139.631000
21
-57.888127
31
0.0
0
LINE
8
0
6
CONTINUOUS
10
141.724000
20
-57.720148
30
0.0
11
140.677000
21
-57.804137
31
0.0
0
LINE
8
0
6
CONTINUOUS
10
142.173000
20
-57.684152
30
0.0
11
141.724000
21
-57.720148
31
0.0
0
LINE
8
0
6
CONTINUOUS
10
142.069072
20
-56.389214
30
0.0
11
142.173000
21
-57.684152
31
0.0
0
LINE
8
0
6
CONTINUOUS
10
139.182000
20
-57.924123
30
0.0
11
139.071515
21
-56.547487
31
0.0
0
LINE
8
0
6
CONTINUOUS
10
139.631000
20
-57.888127
30
0.0
11
139.519427
21
-56.497942
31
0.0
0
LINE
8
0
6
CONTINUOUS
10
139.182000
20
-57.924123
30
0.0
11
139.631000
21
-57.888127
31
0.0
0
LINE
8
0
6
CONTINUOUS
10
139.071515
20
-56.547487
30
0.0
11
139.182000
21
-57.924123
31
0.0
0
LINE
8
0
6
CONTINUOUS
10
140.677000
20
-57.804137
30
0.0
11
140.564371
21
-56.400786
31
0.0
0
LINE
8
0
6
CONTINUOUS
10
139.631000
20
-57.888127
30
0.0
11
140.677000
21
-57.804137
31
0.0
0
LINE
8
0
6
CONTINUOUS
10
139.519427
20
-56.497942
30
0.0
11
139.631000
21
-57.888127
31
0.0
0
LINE
8
0
6
CONTINUOUS
10
141.724000
20
-57.720148
30
0.0
11
141.615055
21
-56.362707
31
0.0
0
LINE
8
0
6
CONTINUOUS
10
140.677000
20
-57.804137
30
0.0
11
141.724000
21
-57.720148
31
0.0
0
LINE
8
0
6
CONTINUOUS
10
140.564371
20
-56.400786
30
0.0
11
140.677000
21
-57.804137
31
0.0
0
LINE
8
0
6
CONTINUOUS
10
142.173000
20
-57.684152
30
0.0
11
142.069072
21
-56.389214
31
0.0
0
LINE
8
0
6
CONTINUOUS
10
141.724000
20
-57.720148
30
0.0
11
142.173000
21
-57.684152
31
0.0
0
LINE
8
0
6
CONTINUOUS
10
141.615055
20
-56.362707
30
0.0
11
141.724000
21
-57.720148
31
0.0
0
LINE
8
0
6
CONTINUOUS
10
156.607000
20
-56.083530
30
0.0
11
156.161000
21
-56.143830
31
0.0
0
LINE
8
0
6
CONTINUOUS
10
157.648000
20
-55.942830
30
0.0
11
156.607000
21
-56.083530
31
0.0
0
LINE
8
0
6
CONTINUOUS
10
158.688000
20
-55.802130
30
0.0
11
157.648000
21
-55.942830
31
0.0
0
LINE
8
0
6
CONTINUOUS
10
159.134000
20
-55.741830
30
0.0
11
158.688000
21
-55.802130
31
0.0
0
LINE
8
0
6
CONTINUOUS
10
158.988982
20
-54.669370
30
0.0
11
159.134000
21
-55.741830
31
0.0
0
LINE
8
0
6
CONTINUOUS
10
156.161000
20
-56.143830
30
0.0
11
156.007943
21
-55.011915
31
0.0
0
LINE
8
0
6
CONTINUOUS
10
156.607000
20
-56.083530
30
0.0
11
156.452532
21
-54.941184
31
0.0
0
LINE
8
0
6
CONTINUOUS
10
156.161000
20
-56.143830
30
0.0
11
156.607000
21
-56.083530
31
0.0
0
LINE
8
0
6
CONTINUOUS
10
156.007943
20
-55.011915
30
0.0
11
156.161000
21
-56.143830
31
0.0
0
LINE
8
0
6
CONTINUOUS
10
157.648000
20
-55.942830
30
0.0
11
157.495218
21
-54.812952
31
0.0
0
LINE
8
0
6
CONTINUOUS
10
156.607000
20
-56.083530
30
0.0
11
157.648000
21
-55.942830
31
0.0
0
LINE
8
0
6
CONTINUOUS
10
156.452532
20
-54.941184
30
0.0
11
156.607000
21
-56.083530
31
0.0
0
LINE
8
0
6
CONTINUOUS
10
158.688000
20
-55.802130
30
0.0
11
158.539162
21
-54.701414
31
0.0
0
LINE
8
0
6
CONTINUOUS
10
157.648000
20
-55.942830
30
0.0
11
158.688000
21
-55.802130
31
0.0
0
LINE
8
0
6
CONTINUOUS
10
157.495218
20
-54.812952
30
0.0
11
157.648000
21
-55.942830
31
0.0
0
LINE
8
0
6
CONTINUOUS
10
159.134000
20
-55.741830
30
0.0
11
158.988982
21
-54.669370
31
0.0
0
LINE
8
0
6
CONTINUOUS
10
158.688000
20
-55.802130
30
0.0
11
159.134000
21
-55.741830
31
0.0
0
LINE
8
0
6
CONTINUOUS
10
158.539162
20
-54.701414
30
0.0
11
158.688000
21
-55.802130
31
0.0
0
LINE
8
0
6
CONTINUOUS
10
80.855000
20
-58.956882
30
0.0
11
81.905000
21
-58.956882
31
0.0
0
LINE
8
0
6
CONTINUOUS
10
80.405000
20
-58.956882
30
0.0
11
80.855000
21
-58.956882
31
0.0
0
LINE
8
0
6
CONTINUOUS
10
82.955000
20
-58.956882
30
0.0
11
83.405000
21
-58.956882
31
0.0
0
LINE
8
0
6
CONTINUOUS
10
81.905000
20
-58.956882
30
0.0
11
82.955000
21
-58.956882
31
0.0
0
LINE
8
0
6
CONTINUOUS
10
80.855000
20
-58.956882
30
0.0
11
80.855000
21
-57.921096
31
0.0
0
LINE
8
0
6
CONTINUOUS
10
81.905000
20
-58.956882
30
0.0
11
80.855000
21
-58.956882
31
0.0
0
LINE
8
0
6
CONTINUOUS
10
81.905000
20
-57.904834
30
0.0
11
81.905000
21
-58.956882
31
0.0
0
LINE
8
0
6
CONTINUOUS
10
80.405000
20
-58.956882
30
0.0
11
80.405000
21
-57.957606
31
0.0
0
LINE
8
0
6
CONTINUOUS
10
80.855000
20
-58.956882
30
0.0
11
80.405000
21
-58.956882
31
0.0
0
LINE
8
0
6
CONTINUOUS
10
80.855000
20
-57.921096
30
0.0
11
80.855000
21
-58.956882
31
0.0
0
LINE
8
0
6
CONTINUOUS
10
80.405000
20
-57.957606
30
0.0
11
80.405000
21
-58.956882
31
0.0
0
LINE
8
0
6
CONTINUOUS
10
83.405000
20
-58.956882
30
0.0
11
83.405000
21
-57.955452
31
0.0
0
LINE
8
0
6
CONTINUOUS
10
82.955000
20
-58.956882
30
0.0
11
82.955000
21
-57.919588
31
0.0
0
LINE
8
0
6
CONTINUOUS
10
83.405000
20
-58.956882
30
0.0
11
82.955000
21
-58.956882
31
0.0
0
LINE
8
0
6
CONTINUOUS
10
83.405000
20
-57.955452
30
0.0
11
83.405000
21
-58.956882
31
0.0
0
LINE
8
0
6
CONTINUOUS
10
81.905000
20
-58.956882
30
0.0
11
81.905000
21
-57.904834
31
0.0
0
LINE
8
0
6
CONTINUOUS
10
82.955000
20
-58.956882
30
0.0
11
81.905000
21
-58.956882
31
0.0
0
LINE
8
0
6
CONTINUOUS
10
82.955000
20
-57.919588
30
0.0
11
82.955000
21
-58.956882
31
0.0
0
LINE
8
0
6
CONTINUOUS
10
94.408000
20
-58.775989
30
0.0
11
95.458000
21
-58.775989
31
0.0
0
LINE
8
0
6
CONTINUOUS
10
93.958000
20
-58.775989
30
0.0
11
94.408000
21
-58.775989
31
0.0
0
LINE
8
0
6
CONTINUOUS
10
96.508000
20
-58.775989
30
0.0
11
96.958000
21
-58.775989
31
0.0
0
LINE
8
0
6
CONTINUOUS
10
95.458000
20
-58.775989
30
0.0
11
96.508000
21
-58.775989
31
0.0
0
LINE
8
0
6
CONTINUOUS
10
94.408000
20
-58.775989
30
0.0
11
94.408000
21
-57.879045
31
0.0
0
LINE
8
0
6
CONTINUOUS
10
95.458000
20
-58.775989
30
0.0
11
94.408000
21
-58.775989
31
0.0
0
LINE
8
0
6
CONTINUOUS
10
95.458000
20
-57.861501
30
0.0
11
95.458000
21
-58.775989
31
0.0
0
LINE
8
0
6
CONTINUOUS
10
93.958000
20
-58.775989
30
0.0
11
93.958000
21
-57.915603
31
0.0
0
LINE
8
0
6
CONTINUOUS
10
94.408000
20
-58.775989
30
0.0
11
93.958000
21
-58.775989
31
0.0
0
LINE
8
0
6
CONTINUOUS
10
94.408000
20
-57.879045
30
0.0
11
94.408000
21
-58.775989
31
0.0
0
LINE
8
0
6
CONTINUOUS
10
93.958000
20
-57.915603
30
0.0
11
93.958000
21
-58.775989
31
0.0
0
LINE
8
0
6
CONTINUOUS
10
96.958000
20
-58.775989
30
0.0
11
96.958000
21
-57.908419
31
0.0
0
LINE
8
0
6
CONTINUOUS
10
96.508000
20
-58.775989
30
0.0
11
96.508000
21
-57.874110
31
0.0
0
LINE
8
0
6
CONTINUOUS
10
96.958000
20
-58.775989
30
0.0
11
96.508000
21
-58.775989
31
0.0
0
LINE
8
0
6
CONTINUOUS
10
96.958000
20
-57.908419
30
0.0
11
96.958000
21
-58.775989
31
0.0
0
LINE
8
0
6
CONTINUOUS
10
95.458000
20
-58.775989
30
0.0
11
95.458000
21
-57.861501
31
0.0
0
LINE
8
0
6
CONTINUOUS
10
96.508000
20
-58.775989
30
0.0
11
95.458000
21
-58.775989
31
0.0
0
LINE
8
0
6
CONTINUOUS
10
96.508000
20
-57.874110
30
0.0
11
96.508000
21
-58.775989
31
0.0
0
LINE
8
0
6
CONTINUOUS
10
108.107000
20
-58.947092
30
0.0
11
109.157000
21
-58.947092
31
0.0
0
LINE
8
0
6
CONTINUOUS
10
107.657000
20
-58.947092
30
0.0
11
108.107000
21
-58.947092
31
0.0
0
LINE
8
0
6
CONTINUOUS
10
110.207000
20
-58.947092
30
0.0
11
110.657000
21
-58.947092
31
0.0
0
LINE
8
0
6
CONTINUOUS
10
109.157000
20
-58.947092
30
0.0
11
110.207000
21
-58.947092
31
0.0
0
LINE
8
0
6
CONTINUOUS
10
108.107000
20
-58.947092
30
0.0
11
108.107000
21
-57.845904
31
0.0
0
LINE
8
0
6
CONTINUOUS
10
109.157000
20
-58.947092
30
0.0
11
108.107000
21
-58.947092
31
0.0
0
LINE
8
0
6
CONTINUOUS
10
109.157000
20
-57.826219
30
0.0
11
109.157000
21
-58.947092
31
0.0
0
LINE
8
0
6
CONTINUOUS
10
107.657000
20
-58.947092
30
0.0
11
107.657000
21
-57.881509
31
0.0
0
LINE
8
0
6
CONTINUOUS
10
108.107000
20
-58.947092
30
0.0
11
107.657000
21
-58.947092
31
0.0
0
LINE
8
0
6
CONTINUOUS
10
108.107000
20
-57.845904
30
0.0
11
108.107000
21
-58.947092
31
0.0
0
LINE
8
0
6
CONTINUOUS
10
107.657000
20
-57.881509
30
0.0
11
107.657000
21
-58.947092
31
0.0
0
LINE
8
0
6
CONTINUOUS
10
110.657000
20
-58.947092
30
0.0
11
110.657000
21
-57.861652
31
0.0
0
LINE
8
0
6
CONTINUOUS
10
110.207000
20
-58.947092
30
0.0
11
110.207000
21
-57.833746
31
0.0
0
LINE
8
0
6
CONTINUOUS
10
110.657000
20
-58.947092
30
0.0
11
110.207000
21
-58.947092
31
0.0
0
LINE
8
0
6
CONTINUOUS
10
110.657000
20
-57.861652
30
0.0
11
110.657000
21
-58.947092
31
0.0
0
LINE
8
0
6
CONTINUOUS
10
109.157000
20
-58.947092
30
0.0
11
109.157000
21
-57.826219
31
0.0
0
LINE
8
0
6
CONTINUOUS
10
110.207000
20
-58.947092
30
0.0
11
109.157000
21
-58.947092
31
0.0
0
LINE
8
0
6
CONTINUOUS
10
110.207000
20
-57.833746
30
0.0
11
110.207000
21
-58.947092
31
0.0
0
LINE
8
0
6
CONTINUOUS
10
128.205000
20
-58.315223
30
0.0
11
127.756000
21
-58.340403
31
0.0
0
LINE
8
0
6
CONTINUOUS
10
129.253000
20
-58.256469
30
0.0
11
128.205000
21
-58.315223
31
0.0
0
LINE
8
0
6
CONTINUOUS
10
130.302000
20
-58.197715
30
0.0
11
129.253000
21
-58.256469
31
0.0
0
LINE
8
0
6
CONTINUOUS
10
130.751000
20
-58.172535
30
0.0
11
130.302000
21
-58.197715
31
0.0
0
LINE
8
0
6
CONTINUOUS
10
130.702814
20
-57.313427
30
0.0
11
130.751000
21
-58.172535
31
0.0
0
LINE
8
0
6
CONTINUOUS
10
127.756000
20
-58.340403
30
0.0
11
127.713286
21
-57.578852
31
0.0
0
LINE
8
0
6
CONTINUOUS
10
128.205000
20
-58.315223
30
0.0
11
128.162829
21
-57.563351
31
0.0
0
LINE
8
0
6
CONTINUOUS
10
127.756000
20
-58.340403
30
0.0
11
128.205000
21
-58.315223
31
0.0
0
LINE
8
0
6
CONTINUOUS
10
127.713286
20
-57.578852
30
0.0
11
127.756000
21
-58.340403
31
0.0
0
LINE
8
0
6
CONTINUOUS
10
129.253000
20
-58.256469
30
0.0
11
129.212095
21
-57.527169
31
0.0
0
LINE
8
0
6
CONTINUOUS
10
128.205000
20
-58.315223
30
0.0
11
129.253000
21
-58.256469
31
0.0
0
LINE
8
0
6
CONTINUOUS
10
128.162829
20
-57.563351
30
0.0
11
128.205000
21
-58.315223
31
0.0
0
LINE
8
0
6
CONTINUOUS
10
130.302000
20
-58.197715
30
0.0
11
130.262050
21
-57.485442
31
0.0
0
LINE
8
0
6
CONTINUOUS
10
129.253000
20
-58.256469
30
0.0
11
130.302000
21
-58.197715
31
0.0
0
LINE
8
0
6
CONTINUOUS
10
129.212095
20
-57.527169
30
0.0
11
129.253000
21
-58.256469
31
0.0
0
LINE
8
0
6
CONTINUOUS
10
130.751000
20
-58.172535
30
0.0
11
130.702814
21
-57.313427
31
0.0
0
LINE
8
0
6
CONTINUOUS
10
130.302000
20
-58.197715
30
0.0
11
130.751000
21
-58.172535
31
0.0
0
LINE
8
0
6
CONTINUOUS
10
130.262050
20
-57.485442
30
0.0
11
130.302000
21
-58.197715
31
0.0
0
LINE
8
0
6
CONTINUOUS
10
94.060000
20
-55.728490
30
0.0
11
95.110000
21
-55.728490
31
0.0
0
LINE
8
0
6
CONTINUOUS
10
93.610000
20
-55.728490
30
0.0
11
94.060000
21
-55.728490
31
0.0
0
LINE
8
0
6
CONTINUOUS
10
96.160000
20
-55.728490
30
0.0
11
96.610000
21
-55.728490
31
0.0
0
LINE
8
0
6
CONTINUOUS
10
95.110000
20
-55.728490
30
0.0
11
96.160000
21
-55.728490
31
0.0
0
LINE
8
0
6
CONTINUOUS
10
94.060000
20
-55.728490
30
0.0
11
94.060000
21
-54.716106
31
0.0
0
LINE
8
0
6
CONTINUOUS
10
95.110000
20
-55.728490
30
0.0
11
94.060000
21
-55.728490
31
0.0
0
LINE
8
0
6
CONTINUOUS
10
95.110000
20
-54.657154
30
0.0
11
95.110000
21
-55.728490
31
0.0
0
LINE
8
0
6
CONTINUOUS
10
93.610000
20
-55.728490
30
0.0
11
93.610000
21
-54.848453
31
0.0
0
LINE
8
0
6
CONTINUOUS
10
94.060000
20
-55.728490
30
0.0
11
93.610000
21
-55.728490
31
0.0
0
LINE
8
0
6
CONTINUOUS
10
94.060000
20
-54.716106
30
0.0
11
94.060000
21
-55.728490
31
0.0
0
LINE
8
0
6
CONTINUOUS
10
93.610000
20
-54.848453
30
0.0
11
93.610000
21
-55.728490
31
0.0
0
LINE
8
0
6
CONTINUOUS
10
96.610000
20
-55.728490
30
0.0
11
96.610000
21
-54.840646
31
0.0
0
LINE
8
0
6
CONTINUOUS
10
96.160000
20
-55.728490
30
0.0
11
96.160000
21
-54.710640
31
0.0
0
LINE
8
0
6
CONTINUOUS
10
96.610000
20
-55.728490
30
0.0
11
96.160000
21
-55.728490
31
0.0
0
LINE
8
0
6
CONTINUOUS
10
96.610000
20
-54.840646
30
0.0
11
96.610000
21
-55.728490
31
0.0
0
LINE
8
0
6
CONTINUOUS
10
95.110000
20
-55.728490
30
0.0
11
95.110000
21
-54.657154
31
0.0
0
LINE
8
0
6
CONTINUOUS
10
96.160000
20
-55.728490
30
0.0
11
95.110000
21
-55.728490
31
0.0
0
LINE
8
0
6
CONTINUOUS
10
96.160000
20
-54.710640
30
0.0
11
96.160000
21
-55.728490
31
0.0
0
LINE
8
0
6
CONTINUOUS
10
78.950000
20
-56.030080
30
0.0
11
80.000000
21
-56.030080
31
0.0
0
LINE
8
0
6
CONTINUOUS
10
78.500000
20
-56.030080
30
0.0
11
78.950000
21
-56.030080
31
0.0
0
LINE
8
0
6
CONTINUOUS
10
81.050000
20
-56.030080
30
0.0
11
81.500000
21
-56.030080
31
0.0
0
LINE
8
0
6
CONTINUOUS
10
80.000000
20
-56.030080
30
0.0
11
81.050000
21
-56.030080
31
0.0
0
LINE
8
0
6
CONTINUOUS
10
78.950000
20
-56.030080
30
0.0
11
78.950000
21
-54.712046
31
0.0
0
LINE
8
0
6
CONTINUOUS
10
80.000000
20
-56.030080
30
0.0
11
78.950000
21
-56.030080
31
0.0
0
LINE
8
0
6
CONTINUOUS
10
80.000000
20
-54.653410
30
0.0
11
80.000000
21
-56.030080
31
0.0
0
LINE
8
0
6
CONTINUOUS
10
78.500000
20
-56.030080
30
0.0
11
78.500000
21
-54.844319
31
0.0
0
LINE
8
0
6
CONTINUOUS
10
78.950000
20
-56.030080
30
0.0
11
78.500000
21
-56.030080
31
0.0
0
LINE
8
0
6
CONTINUOUS
10
78.950000
20
-54.712046
30
0.0
11
78.950000
21
-56.030080
31
0.0
0
LINE
8
0
6
CONTINUOUS
10
78.500000
20
-54.844319
30
0.0
11
78.500000
21
-56.030080
31
0.0
0
LINE
8
0
6
CONTINUOUS
10
81.500000
20
-56.030080
30
0.0
11
81.500000
21
-54.837501
31
0.0
0
LINE
8
0
6
CONTINUOUS
10
81.050000
20
-56.030080
30
0.0
11
81.050000
21
-54.707274
31
0.0
0
LINE
8
0
6
CONTINUOUS
10
81.500000
20
-56.030080
30
0.0
11
81.050000
21
-56.030080
31
0.0
0
LINE
8
0
6
CONTINUOUS
10
81.500000
20
-54.837501
30
0.0
11
81.500000
21
-56.030080
31
0.0
0
LINE
8
0
6
CONTINUOUS
10
80.000000
20
-56.030080
30
0.0
11
80.000000
21
-54.653410
31
0.0
0
LINE
8
0
6
CONTINUOUS
10
81.050000
20
-56.030080
30
0.0
11
80.000000
21
-56.030080
31
0.0
0
LINE
8
0
6
CONTINUOUS
10
81.050000
20
-54.707274
30
0.0
11
81.050000
21
-56.030080
31
0.0
0
LINE
8
0
6
CONTINUOUS
10
109.280000
20
-55.959940
30
0.0
11
110.330000
21
-55.959940
31
0.0
0
LINE
8
0
6
CONTINUOUS
10
108.830000
20
-55.959940
30
0.0
11
109.280000
21
-55.959940
31
0.0
0
LINE
8
0
6
CONTINUOUS
10
111.380000
20
-55.959940
30
0.0
11
111.830000
21
-55.959940
31
0.0
0
LINE
8
0
6
CONTINUOUS
10
110.330000
20
-55.959940
30
0.0
11
111.380000
21
-55.959940
31
0.0
0
LINE
8
0
6
CONTINUOUS
10
109.280000
20
-55.959940
30
0.0
11
109.280000
21
-54.753514
31
0.0
0
LINE
8
0
6
CONTINUOUS
10
110.330000
20
-55.959940
30
0.0
11
109.280000
21
-55.959940
31
0.0
0
LINE
8
0
6
CONTINUOUS
10
110.330000
20
-54.689917
30
0.0
11
110.330000
21
-55.959940
31
0.0
0
LINE
8
0
6
CONTINUOUS
10
108.830000
20
-55.959940
30
0.0
11
108.830000
21
-54.886034
31
0.0
0
LINE
8
0
6
CONTINUOUS
10
109.280000
20
-55.959940
30
0.0
11
108.830000
21
-55.959940
31
0.0
0
LINE
8
0
6
CONTINUOUS
10
109.280000
20
-54.753514
30
0.0
11
109.280000
21
-55.959940
31
0.0
0
LINE
8
0
6
CONTINUOUS
10
108.830000
20
-54.886034
30
0.0
11
108.830000
21
-55.959940
31
0.0
0
LINE
8
0
6
CONTINUOUS
10
111.830000
20
-55.959940
30
0.0
11
111.830000
21
-54.862225
31
0.0
0
LINE
8
0
6
CONTINUOUS
10
111.380000
20
-55.959940
30
0.0
11
111.380000
21
-54.736847
31
0.0
0
LINE
8
0
6
CONTINUOUS
10
111.830000
20
-55.959940
30
0.0
11
111.380000
21
-55.959940
31
0.0
0
LINE
8
0
6
CONTINUOUS
10
111.830000
20
-54.862225
30
0.0
11
111.830000
21
-55.959940
31
0.0
0
LINE
8
0
6
CONTINUOUS
10
110.330000
20
-55.959940
30
0.0
11
110.330000
21
-54.689917
31
0.0
0
LINE
8
0
6
CONTINUOUS
10
111.380000
20
-55.959940
30
0.0
11
110.330000
21
-55.959940
31
0.0
0
LINE
8
0
6
CONTINUOUS
10
111.380000
20
-54.736847
30
0.0
11
111.380000
21
-55.959940
31
0.0
0
LINE
8
0
6
CONTINUOUS
10
123.510000
20
-55.869640
30
0.0
11
124.560000
21
-55.869640
31
0.0
0
LINE
8
0
6
CONTINUOUS
10
123.060000
20
-55.869640
30
0.0
11
123.510000
21
-55.869640
31
0.0
0
LINE
8
0
6
CONTINUOUS
10
125.610000
20
-55.869640
30
0.0
11
126.060000
21
-55.869640
31
0.0
0
LINE
8
0
6
CONTINUOUS
10
124.560000
20
-55.869640
30
0.0
11
125.610000
21
-55.869640
31
0.0
0
LINE
8
0
6
CONTINUOUS
10
123.510000
20
-55.869640
30
0.0
11
123.510000
21
-54.761493
31
0.0
0
LINE
8
0
6
CONTINUOUS
10
124.560000
20
-55.869640
30
0.0
11
123.510000
21
-55.869640
31
0.0
0
LINE
8
0
6
CONTINUOUS
10
124.560000
20
-54.697134
30
0.0
11
124.560000
21
-55.869640
31
0.0
0
LINE
8
0
6
CONTINUOUS
10
123.060000
20
-55.869640
30
0.0
11
123.060000
21
-54.893871
31
0.0
0
LINE
8
0
6
CONTINUOUS
10
123.510000
20
-55.869640
30
0.0
11
123.060000
21
-55.869640
31
0.0
0
LINE
8
0
6
CONTINUOUS
10
123.510000
20
-54.761493
30
0.0
11
123.510000
21
-55.869640
31
0.0
0
LINE
8
0
6
CONTINUOUS
10
123.060000
20
-54.893871
30
0.0
11
123.060000
21
-55.869640
31
0.0
0
LINE
8
0
6
CONTINUOUS
10
126.060000
20
-55.869640
30
0.0
11
126.060000
21
-54.867179
31
0.0
0
LINE
8
0
6
CONTINUOUS
10
125.610000
20
-55.869640
30
0.0
11
125.610000
21
-54.742809
31
0.0
0
LINE
8
0
6
CONTINUOUS
10
126.060000
20
-55.869640
30
0.0
11
125.610000
21
-55.869640
31
0.0
0
LINE
8
0
6
CONTINUOUS
10
126.060000
20
-54.867179
30
0.0
11
126.060000
21
-55.869640
31
0.0
0
LINE
8
0
6
CONTINUOUS
10
124.560000
20
-55.869640
30
0.0
11
124.560000
21
-54.697134
31
0.0
0
LINE
8
0
6
CONTINUOUS
10
125.610000
20
-55.869640
30
0.0
11
124.560000
21
-55.869640
31
0.0
0
LINE
8
0
6
CONTINUOUS
10
125.610000
20
-54.742809
30
0.0
11
125.610000
21
-55.869640
31
0.0
0
LINE
8
0
6
CONTINUOUS
10
139.112000
20
-55.998690
30
0.0
11
140.158000
21
-55.914700
31
0.0
0
LINE
8
0
6
CONTINUOUS
10
138.663000
20
-56.034690
30
0.0
11
139.112000
21
-55.998690
31
0.0
0
LINE
8
0
6
CONTINUOUS
10
141.205000
20
-55.830710
30
0.0
11
141.654000
21
-55.794720
31
0.0
0
LINE
8
0
6
CONTINUOUS
10
140.158000
20
-55.914700
30
0.0
11
141.205000
21
-55.830710
31
0.0
0
LINE
8
0
6
CONTINUOUS
10
139.112000
20
-55.998690
30
0.0
11
139.010952
21
-54.739635
31
0.0
0
LINE
8
0
6
CONTINUOUS
10
140.158000
20
-55.914700
30
0.0
11
139.112000
21
-55.998690
31
0.0
0
LINE
8
0
6
CONTINUOUS
10
140.057970
20
-54.668335
30
0.0
11
140.158000
21
-55.914700
31
0.0
0
LINE
8
0
6
CONTINUOUS
10
138.663000
20
-56.034690
30
0.0
11
138.569408
21
-54.868544
31
0.0
0
LINE
8
0
6
CONTINUOUS
10
139.112000
20
-55.998690
30
0.0
11
138.663000
21
-56.034690
31
0.0
0
LINE
8
0
6
CONTINUOUS
10
139.010952
20
-54.739635
30
0.0
11
139.112000
21
-55.998690
31
0.0
0
LINE
8
0
6
CONTINUOUS
10
138.569408
20
-54.868544
30
0.0
11
138.663000
21
-56.034690
31
0.0
0
LINE
8
0
6
CONTINUOUS
10
141.654000
20
-55.794720
30
0.0
11
141.575153
21
-54.812294
31
0.0
0
LINE
8
0
6
CONTINUOUS
10
141.205000
20
-55.830710
30
0.0
11
141.114274
21
-54.700273
31
0.0
0
LINE
8
0
6
CONTINUOUS
10
141.654000
20
-55.794720
30
0.0
11
141.205000
21
-55.830710
31
0.0
0
LINE
8
0
6
CONTINUOUS
10
141.575153
20
-54.812294
30
0.0
11
141.654000
21
-55.794720
31
0.0
0
LINE
8
0
6
CONTINUOUS
10
140.158000
20
-55.914700
30
0.0
11
140.057970
21
-54.668335
31
0.0
0
LINE
8
0
6
CONTINUOUS
10
141.205000
20
-55.830710
30
0.0
11
140.158000
21
-55.914700
31
0.0
0
LINE
8
0
6
CONTINUOUS
10
141.114274
20
-54.700273
30
0.0
11
141.205000
21
-55.830710
31
0.0
0
LINE
8
0
6
CONTINUOUS
10
151.740000
20
-55.887550
30
0.0
11
151.293000
21
-55.940540
31
0.0
0
LINE
8
0
6
CONTINUOUS
10
152.783000
20
-55.763910
30
0.0
11
151.740000
21
-55.887550
31
0.0
0
LINE
8
0
6
CONTINUOUS
10
153.825000
20
-55.640270
30
0.0
11
152.783000
21
-55.763910
31
0.0
0
LINE
8
0
6
CONTINUOUS
10
154.272000
20
-55.587280
30
0.0
11
153.825000
21
-55.640270
31
0.0
0
LINE
8
0
6
CONTINUOUS
10
154.166717
20
-54.697490
30
0.0
11
154.272000
21
-55.587280
31
0.0
0
LINE
8
0
6
CONTINUOUS
10
151.293000
20
-55.940540
30
0.0
11
151.170643
21
-54.906456
31
0.0
0
LINE
8
0
6
CONTINUOUS
10
151.740000
20
-55.887550
30
0.0
11
151.611080
21
-54.797991
31
0.0
0
LINE
8
0
6
CONTINUOUS
10
151.293000
20
-55.940540
30
0.0
11
151.740000
21
-55.887550
31
0.0
0
LINE
8
0
6
CONTINUOUS
10
151.170643
20
-54.906456
30
0.0
11
151.293000
21
-55.940540
31
0.0
0
LINE
8
0
6
CONTINUOUS
10
152.783000
20
-55.763910
30
0.0
11
152.656673
21
-54.700797
31
0.0
0
LINE
8
0
6
CONTINUOUS
10
151.740000
20
-55.887550
30
0.0
11
152.783000
21
-55.763910
31
0.0
0
LINE
8
0
6
CONTINUOUS
10
151.611080
20
-54.797991
30
0.0
11
151.740000
21
-55.887550
31
0.0
0
LINE
8
0
6
CONTINUOUS
10
153.825000
20
-55.640270
30
0.0
11
153.710332
21
-54.671168
31
0.0
0
LINE
8
0
6
CONTINUOUS
10
152.783000
20
-55.763910
30
0.0
11
153.825000
21
-55.640270
31
0.0
0
LINE
8
0
6
CONTINUOUS
10
152.656673
20
-54.700797
30
0.0
11
152.783000
21
-55.763910
31
0.0
0
LINE
8
0
6
CONTINUOUS
10
154.272000
20
-55.587280
30
0.0
11
154.166717
21
-54.697490
31
0.0
0
LINE
8
0
6
CONTINUOUS
10
153.825000
20
-55.640270
30
0.0
11
154.272000
21
-55.587280
31
0.0
0
LINE
8
0
6
CONTINUOUS
10
153.710332
20
-54.671168
30
0.0
11
153.825000
21
-55.640270
31
0.0
0
LINE
8
0
6
CONTINUOUS
10
113.409000
20
-58.720342
30
0.0
11
112.960000
21
-58.732236
31
0.0
0
LINE
8
0
6
CONTINUOUS
10
114.459000
20
-58.692590
30
0.0
11
113.409000
21
-58.720342
31
0.0
0
LINE
8
0
6
CONTINUOUS
10
115.509000
20
-58.664837
30
0.0
11
114.459000
21
-58.692590
31
0.0
0
LINE
8
0
6
CONTINUOUS
10
112.960000
20
-58.732236
30
0.0
11
112.942926
21
-58.088175
31
0.0
0
LINE
8
0
6
CONTINUOUS
10
113.409000
20
-58.720342
30
0.0
11
113.392155
21
-58.072684
31
0.0
0
LINE
8
0
6
CONTINUOUS
10
112.960000
20
-58.732236
30
0.0
11
113.409000
21
-58.720342
31
0.0
0
LINE
8
0
6
CONTINUOUS
10
112.942622
20
-58.076691
30
0.0
11
112.960000
21
-58.732236
31
0.0
0
LINE
8
0
6
CONTINUOUS
10
114.459000
20
-58.692590
30
0.0
11
114.441607
21
-58.036496
31
0.0
0
LINE
8
0
6
CONTINUOUS
10
113.409000
20
-58.720342
30
0.0
11
114.459000
21
-58.692590
31
0.0
0
LINE
8
0
6
CONTINUOUS
10
113.391837
20
-58.060456
30
0.0
11
113.409000
21
-58.720342
31
0.0
0
LINE
8
0
6
CONTINUOUS
10
114.459000
20
-58.692590
30
0.0
11
115.509000
21
-58.664837
31
0.0
0
LINE
8
0
6
CONTINUOUS
10
114.441275
20
-58.023966
30
0.0
11
114.459000
21
-58.692590
31
0.0
0
LINE
8
0
6
CONTINUOUS
10
-54.950000
20
-59.500000
30
0.0
11
-54.500000
21
-59.500000
31
0.0
0
LINE
8
0
6
CONTINUOUS
10
-56.000000
20
-59.500000
30
0.0
11
-54.950000
21
-59.500000
31
0.0
0
LINE
8
0
6
CONTINUOUS
10
-54.500000
20
-59.500000
30
0.0
11
-54.500000
21
-58.500000
31
0.0
0
LINE
8
0
6
CONTINUOUS
10
-54.950000
20
-59.500000
30
0.0
11
-54.950000
21
-58.500000
31
0.0
0
LINE
8
0
6
CONTINUOUS
10
-54.500000
20
-59.500000
30
0.0
11
-54.950000
21
-59.500000
31
0.0
0
LINE
8
0
6
CONTINUOUS
10
-54.500000
20
-58.500000
30
0.0
11
-54.500000
21
-59.500000
31
0.0
0
LINE
8
0
6
CONTINUOUS
10
-56.000000
20
-59.500000
30
0.0
11
-56.000000
21
-58.500000
31
0.0
0
LINE
8
0
6
CONTINUOUS
10
-54.950000
20
-59.500000
30
0.0
11
-56.000000
21
-59.500000
31
0.0
0
LINE
8
0
6
CONTINUOUS
10
-54.950000
20
-58.500000
30
0.0
11
-54.950000
21
-59.500000
31
0.0
0
LINE
8
0
6
CONTINUOUS
10
-56.000000
20
-58.500000
30
0.0
11
-56.000000
21
-59.500000
31
0.0
0
LINE
8
0
6
CONTINUOUS
10
-24.950000
20
-59.500000
30
0.0
11
-24.500000
21
-59.500000
31
0.0
0
LINE
8
0
6
CONTINUOUS
10
-26.000000
20
-59.500000
30
0.0
11
-24.950000
21
-59.500000
31
0.0
0
LINE
8
0
6
CONTINUOUS
10
-24.500000
20
-59.500000
30
0.0
11
-24.500000
21
-58.500000
31
0.0
0
LINE
8
0
6
CONTINUOUS
10
-24.950000
20
-59.500000
30
0.0
11
-24.950000
21
-58.500000
31
0.0
0
LINE
8
0
6
CONTINUOUS
10
-24.500000
20
-59.500000
30
0.0
11
-24.950000
21
-59.500000
31
0.0
0
LINE
8
0
6
CONTINUOUS
10
-24.500000
20
-58.500000
30
0.0
11
-24.500000
21
-59.500000
31
0.0
0
LINE
8
0
6
CONTINUOUS
10
-26.000000
20
-59.500000
30
0.0
11
-26.000000
21
-58.500000
31
0.0
0
LINE
8
0
6
CONTINUOUS
10
-24.950000
20
-59.500000
30
0.0
11
-26.000000
21
-59.500000
31
0.0
0
LINE
8
0
6
CONTINUOUS
10
-24.950000
20
-58.500000
30
0.0
11
-24.950000
21
-59.500000
31
0.0
0
LINE
8
0
6
CONTINUOUS
10
-26.000000
20
-58.500000
30
0.0
11
-26.000000
21
-59.500000
31
0.0
0
LINE
8
0
6
CONTINUOUS
10
-39.950000
20
-59.500000
30
0.0
11
-39.500000
21
-59.500000
31
0.0
0
LINE
8
0
6
CONTINUOUS
10
-41.000000
20
-59.500000
30
0.0
11
-39.950000
21
-59.500000
31
0.0
0
LINE
8
0
6
CONTINUOUS
10
-39.500000
20
-59.500000
30
0.0
11
-39.500000
21
-58.500000
31
0.0
0
LINE
8
0
6
CONTINUOUS
10
-39.950000
20
-59.500000
30
0.0
11
-39.950000
21
-58.500000
31
0.0
0
LINE
8
0
6
CONTINUOUS
10
-39.500000
20
-59.500000
30
0.0
11
-39.950000
21
-59.500000
31
0.0
0
LINE
8
0
6
CONTINUOUS
10
-39.500000
20
-58.500000
30
0.0
11
-39.500000
21
-59.500000
31
0.0
0
LINE
8
0
6
CONTINUOUS
10
-41.000000
20
-59.500000
30
0.0
11
-41.000000
21
-58.500000
31
0.0
0
LINE
8
0
6
CONTINUOUS
10
-39.950000
20
-59.500000
30
0.0
11
-41.000000
21
-59.500000
31
0.0
0
LINE
8
0
6
CONTINUOUS
10
-39.950000
20
-58.500000
30
0.0
11
-39.950000
21
-59.500000
31
0.0
0
LINE
8
0
6
CONTINUOUS
10
-41.000000
20
-58.500000
30
0.0
11
-41.000000
21
-59.500000
31
0.0
0
LINE
8
0
6
CONTINUOUS
10
-69.950000
20
-59.500000
30
0.0
11
-69.500000
21
-59.500000
31
0.0
0
LINE
8
0
6
CONTINUOUS
10
-71.000000
20
-59.500000
30
0.0
11
-69.950000
21
-59.500000
31
0.0
0
LINE
8
0
6
CONTINUOUS
10
-69.500000
20
-59.500000
30
0.0
11
-69.500000
21
-58.500000
31
0.0
0
LINE
8
0
6
CONTINUOUS
10
-69.950000
20
-59.500000
30
0.0
11
-69.950000
21
-58.500000
31
0.0
0
LINE
8
0
6
CONTINUOUS
10
-69.500000
20
-59.500000
30
0.0
11
-69.950000
21
-59.500000
31
0.0
0
LINE
8
0
6
CONTINUOUS
10
-69.500000
20
-58.500000
30
0.0
11
-69.500000
21
-59.500000
31
0.0
0
LINE
8
0
6
CONTINUOUS
10
-71.000000
20
-59.500000
30
0.0
11
-71.000000
21
-58.500000
31
0.0
0
LINE
8
0
6
CONTINUOUS
10
-69.950000
20
-59.500000
30
0.0
11
-71.000000
21
-59.500000
31
0.0
0
LINE
8
0
6
CONTINUOUS
10
-69.950000
20
-58.500000
30
0.0
11
-69.950000
21
-59.500000
31
0.0
0
LINE
8
0
6
CONTINUOUS
10
-71.000000
20
-58.500000
30
0.0
11
-71.000000
21
-59.500000
31
0.0
0
LINE
8
0
6
CONTINUOUS
10
-99.950000
20
-59.198414
30
0.0
11
-99.500000
21
-59.198414
31
0.0
0
LINE
8
0
6
CONTINUOUS
10
-101.000000
20
-59.198414
30
0.0
11
-99.950000
21
-59.198414
31
0.0
0
LINE
8
0
6
CONTINUOUS
10
-102.050000
20
-59.198414
30
0.0
11
-101.000000
21
-59.198414
31
0.0
0
LINE
8
0
6
CONTINUOUS
10
-99.500000
20
-59.198414
30
0.0
11
-99.500000
21
-58.500000
31
0.0
0
LINE
8
0
6
CONTINUOUS
10
-99.950000
20
-59.198414
30
0.0
11
-99.950000
21
-58.500000
31
0.0
0
LINE
8
0
6
CONTINUOUS
10
-99.500000
20
-59.198414
30
0.0
11
-99.950000
21
-59.198414
31
0.0
0
LINE
8
0
6
CONTINUOUS
10
-99.500000
20
-58.500000
30
0.0
11
-99.500000
21
-59.198414
31
0.0
0
LINE
8
0
6
CONTINUOUS
10
-101.000000
20
-59.198414
30
0.0
11
-101.000000
21
-58.500000
31
0.0
0
LINE
8
0
6
CONTINUOUS
10
-99.950000
20
-59.198414
30
0.0
11
-101.000000
21
-59.198414
31
0.0
0
LINE
8
0
6
CONTINUOUS
10
-99.950000
20
-58.500000
30
0.0
11
-99.950000
21
-59.198414
31
0.0
0
LINE
8
0
6
CONTINUOUS
10
-101.000000
20
-59.198414
30
0.0
11
-102.050000
21
-59.198414
31
0.0
0
LINE
8
0
6
CONTINUOUS
10
-101.000000
20
-58.499060
30
0.0
11
-101.000000
21
-59.198414
31
0.0
0
LINE
8
0
6
CONTINUOUS
10
-84.950000
20
-59.500000
30
0.0
11
-84.500000
21
-59.500000
31
0.0
0
LINE
8
0
6
CONTINUOUS
10
-84.500000
20
-59.500000
30
0.0
11
-84.500000
21
-58.500000
31
0.0
0
LINE
8
0
6
CONTINUOUS
10
-84.950000
20
-59.500000
30
0.0
11
-84.950000
21
-58.500000
31
0.0
0
LINE
8
0
6
CONTINUOUS
10
-84.500000
20
-59.500000
30
0.0
11
-84.950000
21
-59.500000
31
0.0
0
LINE
8
0
6
CONTINUOUS
10
-84.500000
20
-58.500000
30
0.0
11
-84.500000
21
-59.500000
31
0.0
0
LINE
8
0
6
CONTINUOUS
10
-84.950000
20
-58.500000
30
0.0
11
-84.950000
21
-59.500000
31
0.0
0
LINE
8
0
6
CONTINUOUS
10
-18.950000
20
-59.500000
30
0.0
11
-20.000000
21
-59.500000
31
0.0
0
LINE
8
0
6
CONTINUOUS
10
-18.500000
20
-59.500000
30
0.0
11
-18.950000
21
-59.500000
31
0.0
0
LINE
8
0
6
CONTINUOUS
10
-21.050000
20
-59.500000
30
0.0
11
-21.500000
21
-59.500000
31
0.0
0
LINE
8
0
6
CONTINUOUS
10
-20.000000
20
-59.500000
30
0.0
11
-21.050000
21
-59.500000
31
0.0
0
LINE
8
0
6
CONTINUOUS
10
-18.950000
20
-59.500000
30
0.0
11
-18.950000
21
-58.500000
31
0.0
0
LINE
8
0
6
CONTINUOUS
10
-20.000000
20
-59.500000
30
0.0
11
-18.950000
21
-59.500000
31
0.0
0
LINE
8
0
6
CONTINUOUS
10
-20.000000
20
-58.500000
30
0.0
11
-20.000000
21
-59.500000
31
0.0
0
LINE
8
0
6
CONTINUOUS
10
-18.500000
20
-59.500000
30
0.0
11
-18.500000
21
-58.500000
31
0.0
0
LINE
8
0
6
CONTINUOUS
10
-18.950000
20
-59.500000
30
0.0
11
-18.500000
21
-59.500000
31
0.0
0
LINE
8
0
6
CONTINUOUS
10
-18.950000
20
-58.500000
30
0.0
11
-18.950000
21
-59.500000
31
0.0
0
LINE
8
0
6
CONTINUOUS
10
-18.500000
20
-58.500000
30
0.0
11
-18.500000
21
-59.500000
31
0.0
0
LINE
8
0
6
CONTINUOUS
10
-21.500000
20
-59.500000
30
0.0
11
-21.500000
21
-58.500000
31
0.0
0
LINE
8
0
6
CONTINUOUS
10
-21.050000
20
-59.500000
30
0.0
11
-21.050000
21
-58.500000
31
0.0
0
LINE
8
0
6
CONTINUOUS
10
-21.500000
20
-59.500000
30
0.0
11
-21.050000
21
-59.500000
31
0.0
0
LINE
8
0
6
CONTINUOUS
10
-21.500000
20
-58.500000
30
0.0
11
-21.500000
21
-59.500000
31
0.0
0
LINE
8
0
6
CONTINUOUS
10
-20.000000
20
-59.500000
30
0.0
11
-20.000000
21
-58.500000
31
0.0
0
LINE
8
0
6
CONTINUOUS
10
-21.050000
20
-59.500000
30
0.0
11
-20.000000
21
-59.500000
31
0.0
0
LINE
8
0
6
CONTINUOUS
10
-21.050000
20
-58.500000
30
0.0
11
-21.050000
21
-59.500000
31
0.0
0
LINE
8
0
6
CONTINUOUS
10
-3.950000
20
-59.500000
30
0.0
11
-5.000000
21
-59.500000
31
0.0
0
LINE
8
0
6
CONTINUOUS
10
-3.500000
20
-59.500000
30
0.0
11
-3.950000
21
-59.500000
31
0.0
0
LINE
8
0
6
CONTINUOUS
10
-6.050000
20
-59.500000
30
0.0
11
-6.500000
21
-59.500000
31
0.0
0
LINE
8
0
6
CONTINUOUS
10
-5.000000
20
-59.500000
30
0.0
11
-6.050000
21
-59.500000
31
0.0
0
LINE
8
0
6
CONTINUOUS
10
-3.950000
20
-59.500000
30
0.0
11
-3.950000
21
-58.500000
31
0.0
0
LINE
8
0
6
CONTINUOUS
10
-5.000000
20
-59.500000
30
0.0
11
-3.950000
21
-59.500000
31
0.0
0
LINE
8
0
6
CONTINUOUS
10
-5.000000
20
-58.500000
30
0.0
11
-5.000000
21
-59.500000
31
0.0
0
LINE
8
0
6
CONTINUOUS
10
-3.500000
20
-59.500000
30
0.0
11
-3.500000
21
-58.500000
31
0.0
0
LINE
8
0
6
CONTINUOUS
10
-3.950000
20
-59.500000
30
0.0
11
-3.500000
21
-59.500000
31
0.0
0
LINE
8
0
6
CONTINUOUS
10
-3.950000
20
-58.500000
30
0.0
11
-3.950000
21
-59.500000
31
0.0
0
LINE
8
0
6
CONTINUOUS
10
-3.500000
20
-58.500000
30
0.0
11
-3.500000
21
-59.500000
31
0.0
0
LINE
8
0
6
CONTINUOUS
10
-6.500000
20
-59.500000
30
0.0
11
-6.500000
21
-58.500000
31
0.0
0
LINE
8
0
6
CONTINUOUS
10
-6.050000
20
-59.500000
30
0.0
11
-6.050000
21
-58.500000
31
0.0
0
LINE
8
0
6
CONTINUOUS
10
-6.500000
20
-59.500000
30
0.0
11
-6.050000
21
-59.500000
31
0.0
0
LINE
8
0
6
CONTINUOUS
10
-6.500000
20
-58.500000
30
0.0
11
-6.500000
21
-59.500000
31
0.0
0
LINE
8
0
6
CONTINUOUS
10
-5.000000
20
-59.500000
30
0.0
11
-5.000000
21
-58.500000
31
0.0
0
LINE
8
0
6
CONTINUOUS
10
-6.050000
20
-59.500000
30
0.0
11
-5.000000
21
-59.500000
31
0.0
0
LINE
8
0
6
CONTINUOUS
10
-6.050000
20
-58.500000
30
0.0
11
-6.050000
21
-59.500000
31
0.0
0
LINE
8
0
6
CONTINUOUS
10
-33.950000
20
-59.500000
30
0.0
11
-35.000000
21
-59.500000
31
0.0
0
LINE
8
0
6
CONTINUOUS
10
-33.500000
20
-59.500000
30
0.0
11
-33.950000
21
-59.500000
31
0.0
0
LINE
8
0
6
CONTINUOUS
10
-36.050000
20
-59.500000
30
0.0
11
-36.500000
21
-59.500000
31
0.0
0
LINE
8
0
6
CONTINUOUS
10
-35.000000
20
-59.500000
30
0.0
11
-36.050000
21
-59.500000
31
0.0
0
LINE
8
0
6
CONTINUOUS
10
-33.950000
20
-59.500000
30
0.0
11
-33.950000
21
-58.500000
31
0.0
0
LINE
8
0
6
CONTINUOUS
10
-35.000000
20
-59.500000
30
0.0
11
-33.950000
21
-59.500000
31
0.0
0
LINE
8
0
6
CONTINUOUS
10
-35.000000
20
-58.500000
30
0.0
11
-35.000000
21
-59.500000
31
0.0
0
LINE
8
0
6
CONTINUOUS
10
-33.500000
20
-59.500000
30
0.0
11
-33.500000
21
-58.500000
31
0.0
0
LINE
8
0
6
CONTINUOUS
10
-33.950000
20
-59.500000
30
0.0
11
-33.500000
21
-59.500000
31
0.0
0
LINE
8
0
6
CONTINUOUS
10
-33.950000
20
-58.500000
30
0.0
11
-33.950000
21
-59.500000
31
0.0
0
LINE
8
0
6
CONTINUOUS
10
-33.500000
20
-58.500000
30
0.0
11
-33.500000
21
-59.500000
31
0.0
0
LINE
8
0
6
CONTINUOUS
10
-36.500000
20
-59.500000
30
0.0
11
-36.500000
21
-58.500000
31
0.0
0
LINE
8
0
6
CONTINUOUS
10
-36.050000
20
-59.500000
30
0.0
11
-36.050000
21
-58.500000
31
0.0
0
LINE
8
0
6
CONTINUOUS
10
-36.500000
20
-59.500000
30
0.0
11
-36.050000
21
-59.500000
31
0.0
0
LINE
8
0
6
CONTINUOUS
10
-36.500000
20
-58.500000
30
0.0
11
-36.500000
21
-59.500000
31
0.0
0
LINE
8
0
6
CONTINUOUS
10
-35.000000
20
-59.500000
30
0.0
11
-35.000000
21
-58.500000
31
0.0
0
LINE
8
0
6
CONTINUOUS
10
-36.050000
20
-59.500000
30
0.0
11
-35.000000
21
-59.500000
31
0.0
0
LINE
8
0
6
CONTINUOUS
10
-36.050000
20
-58.500000
30
0.0
11
-36.050000
21
-59.500000
31
0.0
0
LINE
8
0
6
CONTINUOUS
10
-3.950000
20
-58.956882
30
0.0
11
-5.000000
21
-58.956882
31
0.0
0
LINE
8
0
6
CONTINUOUS
10
-3.500000
20
-58.956882
30
0.0
11
-3.950000
21
-58.956882
31
0.0
0
LINE
8
0
6
CONTINUOUS
10
-6.050000
20
-58.956882
30
0.0
11
-6.500000
21
-58.956882
31
0.0
0
LINE
8
0
6
CONTINUOUS
10
-5.000000
20
-58.956882
30
0.0
11
-6.050000
21
-58.956882
31
0.0
0
LINE
8
0
6
CONTINUOUS
10
-3.950000
20
-58.956882
30
0.0
11
-3.950000
21
-58.500000
31
0.0
0
LINE
8
0
6
CONTINUOUS
10
-5.000000
20
-58.956882
30
0.0
11
-3.950000
21
-58.956882
31
0.0
0
LINE
8
0
6
CONTINUOUS
10
-5.000000
20
-58.500000
30
0.0
11
-5.000000
21
-58.956882
31
0.0
0
LINE
8
0
6
CONTINUOUS
10
-3.500000
20
-58.956882
30
0.0
11
-3.500000
21
-58.500000
31
0.0
0
LINE
8
0
6
CONTINUOUS
10
-3.950000
20
-58.956882
30
0.0
11
-3.500000
21
-58.956882
31
0.0
0
LINE
8
0
6
CONTINUOUS
10
-3.950000
20
-58.500000
30
0.0
11
-3.950000
21
-58.956882
31
0.0
0
LINE
8
0
6
CONTINUOUS
10
-3.500000
20
-58.500000
30
0.0
11
-3.500000
21
-58.956882
31
0.0
0
LINE
8
0
6
CONTINUOUS
10
-6.500000
20
-58.956882
30
0.0
11
-6.500000
21
-58.500000
31
0.0
0
LINE
8
0
6
CONTINUOUS
10
-6.050000
20
-58.956882
30
0.0
11
-6.050000
21
-58.500000
31
0.0
0
LINE
8
0
6
CONTINUOUS
10
-6.500000
20
-58.956882
30
0.0
11
-6.050000
21
-58.956882
31
0.0
0
LINE
8
0
6
CONTINUOUS
10
-6.500000
20
-58.500000
30
0.0
11
-6.500000
21
-58.956882
31
0.0
0
LINE
8
0
6
CONTINUOUS
10
-5.000000
20
-58.956882
30
0.0
11
-5.000000
21
-58.500000
31
0.0
0
LINE
8
0
6
CONTINUOUS
10
-6.050000
20
-58.956882
30
0.0
11
-5.000000
21
-58.956882
31
0.0
0
LINE
8
0
6
CONTINUOUS
10
-6.050000
20
-58.500000
30
0.0
11
-6.050000
21
-58.956882
31
0.0
0
LINE
8
0
6
CONTINUOUS
10
-11.820000
20
-59.500000
30
0.0
11
-12.870000
21
-59.500000
31
0.0
0
LINE
8
0
6
CONTINUOUS
10
-11.370000
20
-59.500000
30
0.0
11
-11.820000
21
-59.500000
31
0.0
0
LINE
8
0
6
CONTINUOUS
10
-13.920000
20
-59.500000
30
0.0
11
-14.370000
21
-59.500000
31
0.0
0
LINE
8
0
6
CONTINUOUS
10
-12.870000
20
-59.500000
30
0.0
11
-13.920000
21
-59.500000
31
0.0
0
LINE
8
0
6
CONTINUOUS
10
-11.820000
20
-59.500000
30
0.0
11
-11.820000
21
-58.409134
31
0.0
0
LINE
8
0
6
CONTINUOUS
10
-12.870000
20
-59.500000
30
0.0
11
-11.820000
21
-59.500000
31
0.0
0
LINE
8
0
6
CONTINUOUS
10
-12.870000
20
-58.393617
30
0.0
11
-12.870000
21
-59.500000
31
0.0
0
LINE
8
0
6
CONTINUOUS
10
-11.370000
20
-59.500000
30
0.0
11
-11.370000
21
-58.445341
31
0.0
0
LINE
8
0
6
CONTINUOUS
10
-11.820000
20
-59.500000
30
0.0
11
-11.370000
21
-59.500000
31
0.0
0
LINE
8
0
6
CONTINUOUS
10
-11.820000
20
-58.409134
30
0.0
11
-11.820000
21
-59.500000
31
0.0
0
LINE
8
0
6
CONTINUOUS
10
-11.370000
20
-58.445341
30
0.0
11
-11.370000
21
-59.500000
31
0.0
0
LINE
8
0
6
CONTINUOUS
10
-14.370000
20
-59.500000
30
0.0
11
-14.370000
21
-58.445341
31
0.0
0
LINE
8
0
6
CONTINUOUS
10
-13.920000
20
-59.500000
30
0.0
11
-13.920000
21
-58.409134
31
0.0
0
LINE
8
0
6
CONTINUOUS
10
-14.370000
20
-59.500000
30
0.0
11
-13.920000
21
-59.500000
31
0.0
0
LINE
8
0
6
CONTINUOUS
10
-14.370000
20
-58.445341
30
0.0
11
-14.370000
21
-59.500000
31
0.0
0
LINE
8
0
6
CONTINUOUS
10
-12.870000
20
-59.500000
30
0.0
11
-12.870000
21
-58.393617
31
0.0
0
LINE
8
0
6
CONTINUOUS
10
-13.920000
20
-59.500000
30
0.0
11
-12.870000
21
-59.500000
31
0.0
0
LINE
8
0
6
CONTINUOUS
10
-13.920000
20
-58.409134
30
0.0
11
-13.920000
21
-59.500000
31
0.0
0
LINE
8
0
6
CONTINUOUS
10
-3.950000
20
-58.474111
30
0.0
11
-5.000000
21
-58.474111
31
0.0
0
LINE
8
0
6
CONTINUOUS
10
-3.500000
20
-58.474111
30
0.0
11
-3.950000
21
-58.474111
31
0.0
0
LINE
8
0
6
CONTINUOUS
10
-6.050000
20
-58.474111
30
0.0
11
-6.500000
21
-58.474111
31
0.0
0
LINE
8
0
6
CONTINUOUS
10
-5.000000
20
-58.474111
30
0.0
11
-6.050000
21
-58.474111
31
0.0
0
LINE
8
0
6
CONTINUOUS
10
-3.950000
20
-58.474111
30
0.0
11
-3.950000
21
-57.386111
31
0.0
0
LINE
8
0
6
CONTINUOUS
10
-5.000000
20
-58.474111
30
0.0
11
-3.950000
21
-58.474111
31
0.0
0
LINE
8
0
6
CONTINUOUS
10
-5.000000
20
-57.361111
30
0.0
11
-5.000000
21
-58.474111
31
0.0
0
LINE
8
0
6
CONTINUOUS
10
-3.500000
20
-58.474111
30
0.0
11
-3.500000
21
-57.444444
31
0.0
0
LINE
8
0
6
CONTINUOUS
10
-3.950000
20
-58.474111
30
0.0
11
-3.500000
21
-58.474111
31
0.0
0
LINE
8
0
6
CONTINUOUS
10
-3.950000
20
-57.386111
30
0.0
11
-3.950000
21
-58.474111
31
0.0
0
LINE
8
0
6
CONTINUOUS
10
-3.500000
20
-57.444444
30
0.0
11
-3.500000
21
-58.474111
31
0.0
0
LINE
8
0
6
CONTINUOUS
10
-6.500000
20
-58.474111
30
0.0
11
-6.500000
21
-57.444444
31
0.0
0
LINE
8
0
6
CONTINUOUS
10
-6.050000
20
-58.474111
30
0.0
11
-6.050000
21
-57.386111
31
0.0
0
LINE
8
0
6
CONTINUOUS
10
-6.500000
20
-58.474111
30
0.0
11
-6.050000
21
-58.474111
31
0.0
0
LINE
8
0
6
CONTINUOUS
10
-6.500000
20
-57.444444
30
0.0
11
-6.500000
21
-58.474111
31
0.0
0
LINE
8
0
6
CONTINUOUS
10
-5.000000
20
-58.474111
30
0.0
11
-5.000000
21
-57.361111
31
0.0
0
LINE
8
0
6
CONTINUOUS
10
-6.050000
20
-58.474111
30
0.0
11
-5.000000
21
-58.474111
31
0.0
0
LINE
8
0
6
CONTINUOUS
10
-6.050000
20
-57.386111
30
0.0
11
-6.050000
21
-58.474111
31
0.0
0
LINE
8
0
6
CONTINUOUS
10
-3.950000
20
-56.030080
30
0.0
11
-5.000000
21
-56.030080
31
0.0
0
LINE
8
0
6
CONTINUOUS
10
-3.500000
20
-56.030080
30
0.0
11
-3.950000
21
-56.030080
31
0.0
0
LINE
8
0
6
CONTINUOUS
10
-6.050000
20
-56.030080
30
0.0
11
-6.500000
21
-56.030080
31
0.0
0
LINE
8
0
6
CONTINUOUS
10
-5.000000
20
-56.030080
30
0.0
11
-6.050000
21
-56.030080
31
0.0
0
LINE
8
0
6
CONTINUOUS
10
-3.950000
20
-56.030080
30
0.0
11
-3.950000
21
-54.743750
31
0.0
0
LINE
8
0
6
CONTINUOUS
10
-5.000000
20
-56.030080
30
0.0
11
-3.950000
21
-56.030080
31
0.0
0
LINE
8
0
6
CONTINUOUS
10
-5.000000
20
-54.687500
30
0.0
11
-5.000000
21
-56.030080
31
0.0
0
LINE
8
0
6
CONTINUOUS
10
-3.500000
20
-56.030080
30
0.0
11
-3.500000
21
-54.875000
31
0.0
0
LINE
8
0
6
CONTINUOUS
10
-3.950000
20
-56.030080
30
0.0
11
-3.500000
21
-56.030080
31
0.0
0
LINE
8
0
6
CONTINUOUS
10
-3.950000
20
-54.743750
30
0.0
11
-3.950000
21
-56.030080
31
0.0
0
LINE
8
0
6
CONTINUOUS
10
-3.500000
20
-54.875000
30
0.0
11
-3.500000
21
-56.030080
31
0.0
0
LINE
8
0
6
CONTINUOUS
10
-6.500000
20
-56.030080
30
0.0
11
-6.500000
21
-54.875000
31
0.0
0
LINE
8
0
6
CONTINUOUS
10
-6.050000
20
-56.030080
30
0.0
11
-6.050000
21
-54.743750
31
0.0
0
LINE
8
0
6
CONTINUOUS
10
-6.500000
20
-56.030080
30
0.0
11
-6.050000
21
-56.030080
31
0.0
0
LINE
8
0
6
CONTINUOUS
10
-6.500000
20
-54.875000
30
0.0
11
-6.500000
21
-56.030080
31
0.0
0
LINE
8
0
6
CONTINUOUS
10
-5.000000
20
-56.030080
30
0.0
11
-5.000000
21
-54.687500
31
0.0
0
LINE
8
0
6
CONTINUOUS
10
-6.050000
20
-56.030080
30
0.0
11
-5.000000
21
-56.030080
31
0.0
0
LINE
8
0
6
CONTINUOUS
10
-6.050000
20
-54.743750
30
0.0
11
-6.050000
21
-56.030080
31
0.0
0
LINE
8
0
6
CONTINUOUS
10
-12.101000
20
-57.780127
30
0.0
11
-13.151000
21
-57.780127
31
0.0
0
LINE
8
0
6
CONTINUOUS
10
-11.651000
20
-57.780127
30
0.0
11
-12.101000
21
-57.780127
31
0.0
0
LINE
8
0
6
CONTINUOUS
10
-14.201000
20
-57.780127
30
0.0
11
-14.651000
21
-57.780127
31
0.0
0
LINE
8
0
6
CONTINUOUS
10
-13.151000
20
-57.780127
30
0.0
11
-14.201000
21
-57.780127
31
0.0
0
LINE
8
0
6
CONTINUOUS
10
-12.101000
20
-57.780127
30
0.0
11
-12.101000
21
-56.546350
31
0.0
0
LINE
8
0
6
CONTINUOUS
10
-13.151000
20
-57.780127
30
0.0
11
-12.101000
21
-57.780127
31
0.0
0
LINE
8
0
6
CONTINUOUS
10
-13.151000
20
-56.521350
30
0.0
11
-13.151000
21
-57.780127
31
0.0
0
LINE
8
0
6
CONTINUOUS
10
-11.651000
20
-57.780127
30
0.0
11
-11.651000
21
-56.604683
31
0.0
0
LINE
8
0
6
CONTINUOUS
10
-12.101000
20
-57.780127
30
0.0
11
-11.651000
21
-57.780127
31
0.0
0
LINE
8
0
6
CONTINUOUS
10
-12.101000
20
-56.546350
30
0.0
11
-12.101000
21
-57.780127
31
0.0
0
LINE
8
0
6
CONTINUOUS
10
-11.651000
20
-56.604683
30
0.0
11
-11.651000
21
-57.780127
31
0.0
0
LINE
8
0
6
CONTINUOUS
10
-14.651000
20
-57.780127
30
0.0
11
-14.651000
21
-56.604683
31
0.0
0
LINE
8
0
6
CONTINUOUS
10
-14.201000
20
-57.780127
30
0.0
11
-14.201000
21
-56.546350
31
0.0
0
LINE
8
0
6
CONTINUOUS
10
-14.651000
20
-57.780127
30
0.0
11
-14.201000
21
-57.780127
31
0.0
0
LINE
8
0
6
CONTINUOUS
10
-14.651000
20
-56.604683
30
0.0
11
-14.651000
21
-57.780127
31
0.0
0
LINE
8
0
6
CONTINUOUS
10
-13.151000
20
-57.780127
30
0.0
11
-13.151000
21
-56.521350
31
0.0
0
LINE
8
0
6
CONTINUOUS
10
-14.201000
20
-57.780127
30
0.0
11
-13.151000
21
-57.780127
31
0.0
0
LINE
8
0
6
CONTINUOUS
10
-14.201000
20
-56.546350
30
0.0
11
-14.201000
21
-57.780127
31
0.0
0
LINE
8
0
6
CONTINUOUS
10
-18.950000
20
-58.956882
30
0.0
11
-20.000000
21
-58.956882
31
0.0
0
LINE
8
0
6
CONTINUOUS
10
-18.500000
20
-58.956882
30
0.0
11
-18.950000
21
-58.956882
31
0.0
0
LINE
8
0
6
CONTINUOUS
10
-21.050000
20
-58.956882
30
0.0
11
-21.500000
21
-58.956882
31
0.0
0
LINE
8
0
6
CONTINUOUS
10
-20.000000
20
-58.956882
30
0.0
11
-21.050000
21
-58.956882
31
0.0
0
LINE
8
0
6
CONTINUOUS
10
-18.950000
20
-58.956882
30
0.0
11
-18.950000
21
-58.500000
31
0.0
0
LINE
8
0
6
CONTINUOUS
10
-20.000000
20
-58.956882
30
0.0
11
-18.950000
21
-58.956882
31
0.0
0
LINE
8
0
6
CONTINUOUS
10
-20.000000
20
-58.500000
30
0.0
11
-20.000000
21
-58.956882
31
0.0
0
LINE
8
0
6
CONTINUOUS
10
-18.500000
20
-58.956882
30
0.0
11
-18.500000
21
-58.500000
31
0.0
0
LINE
8
0
6
CONTINUOUS
10
-18.950000
20
-58.956882
30
0.0
11
-18.500000
21
-58.956882
31
0.0
0
LINE
8
0
6
CONTINUOUS
10
-18.950000
20
-58.500000
30
0.0
11
-18.950000
21
-58.956882
31
0.0
0
LINE
8
0
6
CONTINUOUS
10
-18.500000
20
-58.500000
30
0.0
11
-18.500000
21
-58.956882
31
0.0
0
LINE
8
0
6
CONTINUOUS
10
-21.500000
20
-58.956882
30
0.0
11
-21.500000
21
-58.500000
31
0.0
0
LINE
8
0
6
CONTINUOUS
10
-21.050000
20
-58.956882
30
0.0
11
-21.050000
21
-58.500000
31
0.0
0
LINE
8
0
6
CONTINUOUS
10
-21.500000
20
-58.956882
30
0.0
11
-21.050000
21
-58.956882
31
0.0
0
LINE
8
0
6
CONTINUOUS
10
-21.500000
20
-58.500000
30
0.0
11
-21.500000
21
-58.956882
31
0.0
0
LINE
8
0
6
CONTINUOUS
10
-20.000000
20
-58.956882
30
0.0
11
-20.000000
21
-58.500000
31
0.0
0
LINE
8
0
6
CONTINUOUS
10
-21.050000
20
-58.956882
30
0.0
11
-20.000000
21
-58.956882
31
0.0
0
LINE
8
0
6
CONTINUOUS
10
-21.050000
20
-58.500000
30
0.0
11
-21.050000
21
-58.956882
31
0.0
0
LINE
8
0
6
CONTINUOUS
10
-26.820000
20
-59.500000
30
0.0
11
-27.870000
21
-59.500000
31
0.0
0
LINE
8
0
6
CONTINUOUS
10
-26.370000
20
-59.500000
30
0.0
11
-26.820000
21
-59.500000
31
0.0
0
LINE
8
0
6
CONTINUOUS
10
-28.920000
20
-59.500000
30
0.0
11
-29.370000
21
-59.500000
31
0.0
0
LINE
8
0
6
CONTINUOUS
10
-27.870000
20
-59.500000
30
0.0
11
-28.920000
21
-59.500000
31
0.0
0
LINE
8
0
6
CONTINUOUS
10
-26.820000
20
-59.500000
30
0.0
11
-26.820000
21
-58.409134
31
0.0
0
LINE
8
0
6
CONTINUOUS
10
-27.870000
20
-59.500000
30
0.0
11
-26.820000
21
-59.500000
31
0.0
0
LINE
8
0
6
CONTINUOUS
10
-27.870000
20
-58.393617
30
0.0
11
-27.870000
21
-59.500000
31
0.0
0
LINE
8
0
6
CONTINUOUS
10
-26.370000
20
-59.500000
30
0.0
11
-26.370000
21
-58.445341
31
0.0
0
LINE
8
0
6
CONTINUOUS
10
-26.820000
20
-59.500000
30
0.0
11
-26.370000
21
-59.500000
31
0.0
0
LINE
8
0
6
CONTINUOUS
10
-26.820000
20
-58.409134
30
0.0
11
-26.820000
21
-59.500000
31
0.0
0
LINE
8
0
6
CONTINUOUS
10
-26.370000
20
-58.445341
30
0.0
11
-26.370000
21
-59.500000
31
0.0
0
LINE
8
0
6
CONTINUOUS
10
-29.370000
20
-59.500000
30
0.0
11
-29.370000
21
-58.445341
31
0.0
0
LINE
8
0
6
CONTINUOUS
10
-28.920000
20
-59.500000
30
0.0
11
-28.920000
21
-58.409134
31
0.0
0
LINE
8
0
6
CONTINUOUS
10
-29.370000
20
-59.500000
30
0.0
11
-28.920000
21
-59.500000
31
0.0
0
LINE
8
0
6
CONTINUOUS
10
-29.370000
20
-58.445341
30
0.0
11
-29.370000
21
-59.500000
31
0.0
0
LINE
8
0
6
CONTINUOUS
10
-27.870000
20
-59.500000
30
0.0
11
-27.870000
21
-58.393617
31
0.0
0
LINE
8
0
6
CONTINUOUS
10
-28.920000
20
-59.500000
30
0.0
11
-27.870000
21
-59.500000
31
0.0
0
LINE
8
0
6
CONTINUOUS
10
-28.920000
20
-58.409134
30
0.0
11
-28.920000
21
-59.500000
31
0.0
0
LINE
8
0
6
CONTINUOUS
10
-18.950000
20
-58.474111
30
0.0
11
-20.000000
21
-58.474111
31
0.0
0
LINE
8
0
6
CONTINUOUS
10
-18.500000
20
-58.474111
30
0.0
11
-18.950000
21
-58.474111
31
0.0
0
LINE
8
0
6
CONTINUOUS
10
-21.050000
20
-58.474111
30
0.0
11
-21.500000
21
-58.474111
31
0.0
0
LINE
8
0
6
CONTINUOUS
10
-20.000000
20
-58.474111
30
0.0
11
-21.050000
21
-58.474111
31
0.0
0
LINE
8
0
6
CONTINUOUS
10
-18.950000
20
-58.474111
30
0.0
11
-18.950000
21
-57.386111
31
0.0
0
LINE
8
0
6
CONTINUOUS
10
-20.000000
20
-58.474111
30
0.0
11
-18.950000
21
-58.474111
31
0.0
0
LINE
8
0
6
CONTINUOUS
10
-20.000000
20
-57.361111
30
0.0
11
-20.000000
21
-58.474111
31
0.0
0
LINE
8
0
6
CONTINUOUS
10
-18.500000
20
-58.474111
30
0.0
11
-18.500000
21
-57.444444
31
0.0
0
LINE
8
0
6
CONTINUOUS
10
-18.950000
20
-58.474111
30
0.0
11
-18.500000
21
-58.474111
31
0.0
0
LINE
8
0
6
CONTINUOUS
10
-18.950000
20
-57.386111
30
0.0
11
-18.950000
21
-58.474111
31
0.0
0
LINE
8
0
6
CONTINUOUS
10
-18.500000
20
-57.444444
30
0.0
11
-18.500000
21
-58.474111
31
0.0
0
LINE
8
0
6
CONTINUOUS
10
-21.500000
20
-58.474111
30
0.0
11
-21.500000
21
-57.444444
31
0.0
0
LINE
8
0
6
CONTINUOUS
10
-21.050000
20
-58.474111
30
0.0
11
-21.050000
21
-57.386111
31
0.0
0
LINE
8
0
6
CONTINUOUS
10
-21.500000
20
-58.474111
30
0.0
11
-21.050000
21
-58.474111
31
0.0
0
LINE
8
0
6
CONTINUOUS
10
-21.500000
20
-57.444444
30
0.0
11
-21.500000
21
-58.474111
31
0.0
0
LINE
8
0
6
CONTINUOUS
10
-20.000000
20
-58.474111
30
0.0
11
-20.000000
21
-57.361111
31
0.0
0
LINE
8
0
6
CONTINUOUS
10
-21.050000
20
-58.474111
30
0.0
11
-20.000000
21
-58.474111
31
0.0
0
LINE
8
0
6
CONTINUOUS
10
-21.050000
20
-57.386111
30
0.0
11
-21.050000
21
-58.474111
31
0.0
0
LINE
8
0
6
CONTINUOUS
10
-18.950000
20
-56.030080
30
0.0
11
-20.000000
21
-56.030080
31
0.0
0
LINE
8
0
6
CONTINUOUS
10
-18.500000
20
-56.030080
30
0.0
11
-18.950000
21
-56.030080
31
0.0
0
LINE
8
0
6
CONTINUOUS
10
-21.050000
20
-56.030080
30
0.0
11
-21.500000
21
-56.030080
31
0.0
0
LINE
8
0
6
CONTINUOUS
10
-20.000000
20
-56.030080
30
0.0
11
-21.050000
21
-56.030080
31
0.0
0
LINE
8
0
6
CONTINUOUS
10
-18.950000
20
-56.030080
30
0.0
11
-18.950000
21
-54.743750
31
0.0
0
LINE
8
0
6
CONTINUOUS
10
-20.000000
20
-56.030080
30
0.0
11
-18.950000
21
-56.030080
31
0.0
0
LINE
8
0
6
CONTINUOUS
10
-20.000000
20
-54.687500
30
0.0
11
-20.000000
21
-56.030080
31
0.0
0
LINE
8
0
6
CONTINUOUS
10
-18.500000
20
-56.030080
30
0.0
11
-18.500000
21
-54.875000
31
0.0
0
LINE
8
0
6
CONTINUOUS
10
-18.950000
20
-56.030080
30
0.0
11
-18.500000
21
-56.030080
31
0.0
0
LINE
8
0
6
CONTINUOUS
10
-18.950000
20
-54.743750
30
0.0
11
-18.950000
21
-56.030080
31
0.0
0
LINE
8
0
6
CONTINUOUS
10
-18.500000
20
-54.875000
30
0.0
11
-18.500000
21
-56.030080
31
0.0
0
LINE
8
0
6
CONTINUOUS
10
-21.500000
20
-56.030080
30
0.0
11
-21.500000
21
-54.875000
31
0.0
0
LINE
8
0
6
CONTINUOUS
10
-21.050000
20
-56.030080
30
0.0
11
-21.050000
21
-54.743750
31
0.0
0
LINE
8
0
6
CONTINUOUS
10
-21.500000
20
-56.030080
30
0.0
11
-21.050000
21
-56.030080
31
0.0
0
LINE
8
0
6
CONTINUOUS
10
-21.500000
20
-54.875000
30
0.0
11
-21.500000
21
-56.030080
31
0.0
0
LINE
8
0
6
CONTINUOUS
10
-20.000000
20
-56.030080
30
0.0
11
-20.000000
21
-54.687500
31
0.0
0
LINE
8
0
6
CONTINUOUS
10
-21.050000
20
-56.030080
30
0.0
11
-20.000000
21
-56.030080
31
0.0
0
LINE
8
0
6
CONTINUOUS
10
-21.050000
20
-54.743750
30
0.0
11
-21.050000
21
-56.030080
31
0.0
0
LINE
8
0
6
CONTINUOUS
10
-27.101000
20
-57.780127
30
0.0
11
-28.151000
21
-57.780127
31
0.0
0
LINE
8
0
6
CONTINUOUS
10
-26.651000
20
-57.780127
30
0.0
11
-27.101000
21
-57.780127
31
0.0
0
LINE
8
0
6
CONTINUOUS
10
-29.201000
20
-57.780127
30
0.0
11
-29.651000
21
-57.780127
31
0.0
0
LINE
8
0
6
CONTINUOUS
10
-28.151000
20
-57.780127
30
0.0
11
-29.201000
21
-57.780127
31
0.0
0
LINE
8
0
6
CONTINUOUS
10
-27.101000
20
-57.780127
30
0.0
11
-27.101000
21
-56.546350
31
0.0
0
LINE
8
0
6
CONTINUOUS
10
-28.151000
20
-57.780127
30
0.0
11
-27.101000
21
-57.780127
31
0.0
0
LINE
8
0
6
CONTINUOUS
10
-28.151000
20
-56.521350
30
0.0
11
-28.151000
21
-57.780127
31
0.0
0
LINE
8
0
6
CONTINUOUS
10
-26.651000
20
-57.780127
30
0.0
11
-26.651000
21
-56.604683
31
0.0
0
LINE
8
0
6
CONTINUOUS
10
-27.101000
20
-57.780127
30
0.0
11
-26.651000
21
-57.780127
31
0.0
0
LINE
8
0
6
CONTINUOUS
10
-27.101000
20
-56.546350
30
0.0
11
-27.101000
21
-57.780127
31
0.0
0
LINE
8
0
6
CONTINUOUS
10
-26.651000
20
-56.604683
30
0.0
11
-26.651000
21
-57.780127
31
0.0
0
LINE
8
0
6
CONTINUOUS
10
-29.651000
20
-57.780127
30
0.0
11
-29.651000
21
-56.604683
31
0.0
0
LINE
8
0
6
CONTINUOUS
10
-29.201000
20
-57.780127
30
0.0
11
-29.201000
21
-56.546350
31
0.0
0
LINE
8
0
6
CONTINUOUS
10
-29.651000
20
-57.780127
30
0.0
11
-29.201000
21
-57.780127
31
0.0
0
LINE
8
0
6
CONTINUOUS
10
-29.651000
20
-56.604683
30
0.0
11
-29.651000
21
-57.780127
31
0.0
0
LINE
8
0
6
CONTINUOUS
10
-28.151000
20
-57.780127
30
0.0
11
-28.151000
21
-56.521350
31
0.0
0
LINE
8
0
6
CONTINUOUS
10
-29.201000
20
-57.780127
30
0.0
11
-28.151000
21
-57.780127
31
0.0
0
LINE
8
0
6
CONTINUOUS
10
-29.201000
20
-56.546350
30
0.0
11
-29.201000
21
-57.780127
31
0.0
0
LINE
8
0
6
CONTINUOUS
10
-48.950000
20
-59.500000
30
0.0
11
-50.000000
21
-59.500000
31
0.0
0
LINE
8
0
6
CONTINUOUS
10
-48.500000
20
-59.500000
30
0.0
11
-48.950000
21
-59.500000
31
0.0
0
LINE
8
0
6
CONTINUOUS
10
-51.050000
20
-59.500000
30
0.0
11
-51.500000
21
-59.500000
31
0.0
0
LINE
8
0
6
CONTINUOUS
10
-50.000000
20
-59.500000
30
0.0
11
-51.050000
21
-59.500000
31
0.0
0
LINE
8
0
6
CONTINUOUS
10
-48.950000
20
-59.500000
30
0.0
11
-48.950000
21
-58.500000
31
0.0
0
LINE
8
0
6
CONTINUOUS
10
-50.000000
20
-59.500000
30
0.0
11
-48.950000
21
-59.500000
31
0.0
0
LINE
8
0
6
CONTINUOUS
10
-50.000000
20
-58.500000
30
0.0
11
-50.000000
21
-59.500000
31
0.0
0
LINE
8
0
6
CONTINUOUS
10
-48.500000
20
-59.500000
30
0.0
11
-48.500000
21
-58.500000
31
0.0
0
LINE
8
0
6
CONTINUOUS
10
-48.950000
20
-59.500000
30
0.0
11
-48.500000
21
-59.500000
31
0.0
0
LINE
8
0
6
CONTINUOUS
10
-48.950000
20
-58.500000
30
0.0
11
-48.950000
21
-59.500000
31
0.0
0
LINE
8
0
6
CONTINUOUS
10
-48.500000
20
-58.500000
30
0.0
11
-48.500000
21
-59.500000
31
0.0
0
LINE
8
0
6
CONTINUOUS
10
-51.500000
20
-59.500000
30
0.0
11
-51.500000
21
-58.500000
31
0.0
0
LINE
8
0
6
CONTINUOUS
10
-51.050000
20
-59.500000
30
0.0
11
-51.050000
21
-58.500000
31
0.0
0
LINE
8
0
6
CONTINUOUS
10
-51.500000
20
-59.500000
30
0.0
11
-51.050000
21
-59.500000
31
0.0
0
LINE
8
0
6
CONTINUOUS
10
-51.500000
20
-58.500000
30
0.0
11
-51.500000
21
-59.500000
31
0.0
0
LINE
8
0
6
CONTINUOUS
10
-50.000000
20
-59.500000
30
0.0
11
-50.000000
21
-58.500000
31
0.0
0
LINE
8
0
6
CONTINUOUS
10
-51.050000
20
-59.500000
30
0.0
11
-50.000000
21
-59.500000
31
0.0
0
LINE
8
0
6
CONTINUOUS
10
-51.050000
20
-58.500000
30
0.0
11
-51.050000
21
-59.500000
31
0.0
0
LINE
8
0
6
CONTINUOUS
10
-41.820000
20
-59.500000
30
0.0
11
-42.870000
21
-59.500000
31
0.0
0
LINE
8
0
6
CONTINUOUS
10
-41.370000
20
-59.500000
30
0.0
11
-41.820000
21
-59.500000
31
0.0
0
LINE
8
0
6
CONTINUOUS
10
-43.920000
20
-59.500000
30
0.0
11
-44.370000
21
-59.500000
31
0.0
0
LINE
8
0
6
CONTINUOUS
10
-42.870000
20
-59.500000
30
0.0
11
-43.920000
21
-59.500000
31
0.0
0
LINE
8
0
6
CONTINUOUS
10
-41.820000
20
-59.500000
30
0.0
11
-41.820000
21
-58.409134
31
0.0
0
LINE
8
0
6
CONTINUOUS
10
-42.870000
20
-59.500000
30
0.0
11
-41.820000
21
-59.500000
31
0.0
0
LINE
8
0
6
CONTINUOUS
10
-42.870000
20
-58.393617
30
0.0
11
-42.870000
21
-59.500000
31
0.0
0
LINE
8
0
6
CONTINUOUS
10
-41.370000
20
-59.500000
30
0.0
11
-41.370000
21
-58.445341
31
0.0
0
LINE
8
0
6
CONTINUOUS
10
-41.820000
20
-59.500000
30
0.0
11
-41.370000
21
-59.500000
31
0.0
0
LINE
8
0
6
CONTINUOUS
10
-41.820000
20
-58.409134
30
0.0
11
-41.820000
21
-59.500000
31
0.0
0
LINE
8
0
6
CONTINUOUS
10
-41.370000
20
-58.445341
30
0.0
11
-41.370000
21
-59.500000
31
0.0
0
LINE
8
0
6
CONTINUOUS
10
-44.370000
20
-59.500000
30
0.0
11
-44.370000
21
-58.445341
31
0.0
0
LINE
8
0
6
CONTINUOUS
10
-43.920000
20
-59.500000
30
0.0
11
-43.920000
21
-58.409134
31
0.0
0
LINE
8
0
6
CONTINUOUS
10
-44.370000
20
-59.500000
30
0.0
11
-43.920000
21
-59.500000
31
0.0
0
LINE
8
0
6
CONTINUOUS
10
-44.370000
20
-58.445341
30
0.0
11
-44.370000
21
-59.500000
31
0.0
0
LINE
8
0
6
CONTINUOUS
10
-42.870000
20
-59.500000
30
0.0
11
-42.870000
21
-58.393617
31
0.0
0
LINE
8
0
6
CONTINUOUS
10
-43.920000
20
-59.500000
30
0.0
11
-42.870000
21
-59.500000
31
0.0
0
LINE
8
0
6
CONTINUOUS
10
-43.920000
20
-58.409134
30
0.0
11
-43.920000
21
-59.500000
31
0.0
0
LINE
8
0
6
CONTINUOUS
10
-42.101000
20
-57.780127
30
0.0
11
-43.151000
21
-57.780127
31
0.0
0
LINE
8
0
6
CONTINUOUS
10
-41.651000
20
-57.780127
30
0.0
11
-42.101000
21
-57.780127
31
0.0
0
LINE
8
0
6
CONTINUOUS
10
-44.201000
20
-57.780127
30
0.0
11
-44.651000
21
-57.780127
31
0.0
0
LINE
8
0
6
CONTINUOUS
10
-43.151000
20
-57.780127
30
0.0
11
-44.201000
21
-57.780127
31
0.0
0
LINE
8
0
6
CONTINUOUS
10
-42.101000
20
-57.780127
30
0.0
11
-42.101000
21
-56.546350
31
0.0
0
LINE
8
0
6
CONTINUOUS
10
-43.151000
20
-57.780127
30
0.0
11
-42.101000
21
-57.780127
31
0.0
0
LINE
8
0
6
CONTINUOUS
10
-43.151000
20
-56.521350
30
0.0
11
-43.151000
21
-57.780127
31
0.0
0
LINE
8
0
6
CONTINUOUS
10
-41.651000
20
-57.780127
30
0.0
11
-41.651000
21
-56.604683
31
0.0
0
LINE
8
0
6
CONTINUOUS
10
-42.101000
20
-57.780127
30
0.0
11
-41.651000
21
-57.780127
31
0.0
0
LINE
8
0
6
CONTINUOUS
10
-42.101000
20
-56.546350
30
0.0
11
-42.101000
21
-57.780127
31
0.0
0
LINE
8
0
6
CONTINUOUS
10
-41.651000
20
-56.604683
30
0.0
11
-41.651000
21
-57.780127
31
0.0
0
LINE
8
0
6
CONTINUOUS
10
-44.651000
20
-57.780127
30
0.0
11
-44.651000
21
-56.604683
31
0.0
0
LINE
8
0
6
CONTINUOUS
10
-44.201000
20
-57.780127
30
0.0
11
-44.201000
21
-56.546350
31
0.0
0
LINE
8
0
6
CONTINUOUS
10
-44.651000
20
-57.780127
30
0.0
11
-44.201000
21
-57.780127
31
0.0
0
LINE
8
0
6
CONTINUOUS
10
-44.651000
20
-56.604683
30
0.0
11
-44.651000
21
-57.780127
31
0.0
0
LINE
8
0
6
CONTINUOUS
10
-43.151000
20
-57.780127
30
0.0
11
-43.151000
21
-56.521350
31
0.0
0
LINE
8
0
6
CONTINUOUS
10
-44.201000
20
-57.780127
30
0.0
11
-43.151000
21
-57.780127
31
0.0
0
LINE
8
0
6
CONTINUOUS
10
-44.201000
20
-56.546350
30
0.0
11
-44.201000
21
-57.780127
31
0.0
0
LINE
8
0
6
CONTINUOUS
10
-33.950000
20
-58.956882
30
0.0
11
-35.000000
21
-58.956882
31
0.0
0
LINE
8
0
6
CONTINUOUS
10
-33.500000
20
-58.956882
30
0.0
11
-33.950000
21
-58.956882
31
0.0
0
LINE
8
0
6
CONTINUOUS
10
-36.050000
20
-58.956882
30
0.0
11
-36.500000
21
-58.956882
31
0.0
0
LINE
8
0
6
CONTINUOUS
10
-35.000000
20
-58.956882
30
0.0
11
-36.050000
21
-58.956882
31
0.0
0
LINE
8
0
6
CONTINUOUS
10
-33.950000
20
-58.956882
30
0.0
11
-33.950000
21
-58.500000
31
0.0
0
LINE
8
0
6
CONTINUOUS
10
-35.000000
20
-58.956882
30
0.0
11
-33.950000
21
-58.956882
31
0.0
0
LINE
8
0
6
CONTINUOUS
10
-35.000000
20
-58.500000
30
0.0
11
-35.000000
21
-58.956882
31
0.0
0
LINE
8
0
6
CONTINUOUS
10
-33.500000
20
-58.956882
30
0.0
11
-33.500000
21
-58.500000
31
0.0
0
LINE
8
0
6
CONTINUOUS
10
-33.950000
20
-58.956882
30
0.0
11
-33.500000
21
-58.956882
31
0.0
0
LINE
8
0
6
CONTINUOUS
10
-33.950000
20
-58.500000
30
0.0
11
-33.950000
21
-58.956882
31
0.0
0
LINE
8
0
6
CONTINUOUS
10
-33.500000
20
-58.500000
30
0.0
11
-33.500000
21
-58.956882
31
0.0
0
LINE
8
0
6
CONTINUOUS
10
-36.500000
20
-58.956882
30
0.0
11
-36.500000
21
-58.500000
31
0.0
0
LINE
8
0
6
CONTINUOUS
10
-36.050000
20
-58.956882
30
0.0
11
-36.050000
21
-58.500000
31
0.0
0
LINE
8
0
6
CONTINUOUS
10
-36.500000
20
-58.956882
30
0.0
11
-36.050000
21
-58.956882
31
0.0
0
LINE
8
0
6
CONTINUOUS
10
-36.500000
20
-58.500000
30
0.0
11
-36.500000
21
-58.956882
31
0.0
0
LINE
8
0
6
CONTINUOUS
10
-35.000000
20
-58.956882
30
0.0
11
-35.000000
21
-58.500000
31
0.0
0
LINE
8
0
6
CONTINUOUS
10
-36.050000
20
-58.956882
30
0.0
11
-35.000000
21
-58.956882
31
0.0
0
LINE
8
0
6
CONTINUOUS
10
-36.050000
20
-58.500000
30
0.0
11
-36.050000
21
-58.956882
31
0.0
0
LINE
8
0
6
CONTINUOUS
10
-33.950000
20
-58.474111
30
0.0
11
-35.000000
21
-58.474111
31
0.0
0
LINE
8
0
6
CONTINUOUS
10
-33.500000
20
-58.474111
30
0.0
11
-33.950000
21
-58.474111
31
0.0
0
LINE
8
0
6
CONTINUOUS
10
-36.050000
20
-58.474111
30
0.0
11
-36.500000
21
-58.474111
31
0.0
0
LINE
8
0
6
CONTINUOUS
10
-35.000000
20
-58.474111
30
0.0
11
-36.050000
21
-58.474111
31
0.0
0
LINE
8
0
6
CONTINUOUS
10
-33.950000
20
-58.474111
30
0.0
11
-33.950000
21
-57.386111
31
0.0
0
LINE
8
0
6
CONTINUOUS
10
-35.000000
20
-58.474111
30
0.0
11
-33.950000
21
-58.474111
31
0.0
0
LINE
8
0
6
CONTINUOUS
10
-35.000000
20
-57.361111
30
0.0
11
-35.000000
21
-58.474111
31
0.0
0
LINE
8
0
6
CONTINUOUS
10
-33.500000
20
-58.474111
30
0.0
11
-33.500000
21
-57.444444
31
0.0
0
LINE
8
0
6
CONTINUOUS
10
-33.950000
20
-58.474111
30
0.0
11
-33.500000
21
-58.474111
31
0.0
0
LINE
8
0
6
CONTINUOUS
10
-33.950000
20
-57.386111
30
0.0
11
-33.950000
21
-58.474111
31
0.0
0
LINE
8
0
6
CONTINUOUS
10
-33.500000
20
-57.444444
30
0.0
11
-33.500000
21
-58.474111
31
0.0
0
LINE
8
0
6
CONTINUOUS
10
-36.500000
20
-58.474111
30
0.0
11
-36.500000
21
-57.444444
31
0.0
0
LINE
8
0
6
CONTINUOUS
10
-36.050000
20
-58.474111
30
0.0
11
-36.050000
21
-57.386111
31
0.0
0
LINE
8
0
6
CONTINUOUS
10
-36.500000
20
-58.474111
30
0.0
11
-36.050000
21
-58.474111
31
0.0
0
LINE
8
0
6
CONTINUOUS
10
-36.500000
20
-57.444444
30
0.0
11
-36.500000
21
-58.474111
31
0.0
0
LINE
8
0
6
CONTINUOUS
10
-35.000000
20
-58.474111
30
0.0
11
-35.000000
21
-57.361111
31
0.0
0
LINE
8
0
6
CONTINUOUS
10
-36.050000
20
-58.474111
30
0.0
11
-35.000000
21
-58.474111
31
0.0
0
LINE
8
0
6
CONTINUOUS
10
-36.050000
20
-57.386111
30
0.0
11
-36.050000
21
-58.474111
31
0.0
0
LINE
8
0
6
CONTINUOUS
10
-33.950000
20
-56.030080
30
0.0
11
-35.000000
21
-56.030080
31
0.0
0
LINE
8
0
6
CONTINUOUS
10
-33.500000
20
-56.030080
30
0.0
11
-33.950000
21
-56.030080
31
0.0
0
LINE
8
0
6
CONTINUOUS
10
-36.050000
20
-56.030080
30
0.0
11
-36.500000
21
-56.030080
31
0.0
0
LINE
8
0
6
CONTINUOUS
10
-35.000000
20
-56.030080
30
0.0
11
-36.050000
21
-56.030080
31
0.0
0
LINE
8
0
6
CONTINUOUS
10
-33.950000
20
-56.030080
30
0.0
11
-33.950000
21
-54.743750
31
0.0
0
LINE
8
0
6
CONTINUOUS
10
-35.000000
20
-56.030080
30
0.0
11
-33.950000
21
-56.030080
31
0.0
0
LINE
8
0
6
CONTINUOUS
10
-35.000000
20
-54.687500
30
0.0
11
-35.000000
21
-56.030080
31
0.0
0
LINE
8
0
6
CONTINUOUS
10
-33.500000
20
-56.030080
30
0.0
11
-33.500000
21
-54.875000
31
0.0
0
LINE
8
0
6
CONTINUOUS
10
-33.950000
20
-56.030080
30
0.0
11
-33.500000
21
-56.030080
31
0.0
0
LINE
8
0
6
CONTINUOUS
10
-33.950000
20
-54.743750
30
0.0
11
-33.950000
21
-56.030080
31
0.0
0
LINE
8
0
6
CONTINUOUS
10
-33.500000
20
-54.875000
30
0.0
11
-33.500000
21
-56.030080
31
0.0
0
LINE
8
0
6
CONTINUOUS
10
-36.500000
20
-56.030080
30
0.0
11
-36.500000
21
-54.875000
31
0.0
0
LINE
8
0
6
CONTINUOUS
10
-36.050000
20
-56.030080
30
0.0
11
-36.050000
21
-54.743750
31
0.0
0
LINE
8
0
6
CONTINUOUS
10
-36.500000
20
-56.030080
30
0.0
11
-36.050000
21
-56.030080
31
0.0
0
LINE
8
0
6
CONTINUOUS
10
-36.500000
20
-54.875000
30
0.0
11
-36.500000
21
-56.030080
31
0.0
0
LINE
8
0
6
CONTINUOUS
10
-35.000000
20
-56.030080
30
0.0
11
-35.000000
21
-54.687500
31
0.0
0
LINE
8
0
6
CONTINUOUS
10
-36.050000
20
-56.030080
30
0.0
11
-35.000000
21
-56.030080
31
0.0
0
LINE
8
0
6
CONTINUOUS
10
-36.050000
20
-54.743750
30
0.0
11
-36.050000
21
-56.030080
31
0.0
0
LINE
8
0
6
CONTINUOUS
10
-48.950000
20
-58.956882
30
0.0
11
-50.000000
21
-58.956882
31
0.0
0
LINE
8
0
6
CONTINUOUS
10
-48.500000
20
-58.956882
30
0.0
11
-48.950000
21
-58.956882
31
0.0
0
LINE
8
0
6
CONTINUOUS
10
-51.050000
20
-58.956882
30
0.0
11
-51.500000
21
-58.956882
31
0.0
0
LINE
8
0
6
CONTINUOUS
10
-50.000000
20
-58.956882
30
0.0
11
-51.050000
21
-58.956882
31
0.0
0
LINE
8
0
6
CONTINUOUS
10
-48.950000
20
-58.956882
30
0.0
11
-48.950000
21
-58.500000
31
0.0
0
LINE
8
0
6
CONTINUOUS
10
-50.000000
20
-58.956882
30
0.0
11
-48.950000
21
-58.956882
31
0.0
0
LINE
8
0
6
CONTINUOUS
10
-50.000000
20
-58.500000
30
0.0
11
-50.000000
21
-58.956882
31
0.0
0
LINE
8
0
6
CONTINUOUS
10
-48.500000
20
-58.956882
30
0.0
11
-48.500000
21
-58.500000
31
0.0
0
LINE
8
0
6
CONTINUOUS
10
-48.950000
20
-58.956882
30
0.0
11
-48.500000
21
-58.956882
31
0.0
0
LINE
8
0
6
CONTINUOUS
10
-48.950000
20
-58.500000
30
0.0
11
-48.950000
21
-58.956882
31
0.0
0
LINE
8
0
6
CONTINUOUS
10
-48.500000
20
-58.500000
30
0.0
11
-48.500000
21
-58.956882
31
0.0
0
LINE
8
0
6
CONTINUOUS
10
-51.500000
20
-58.956882
30
0.0
11
-51.500000
21
-58.500000
31
0.0
0
LINE
8
0
6
CONTINUOUS
10
-51.050000
20
-58.956882
30
0.0
11
-51.050000
21
-58.500000
31
0.0
0
LINE
8
0
6
CONTINUOUS
10
-51.500000
20
-58.956882
30
0.0
11
-51.050000
21
-58.956882
31
0.0
0
LINE
8
0
6
CONTINUOUS
10
-51.500000
20
-58.500000
30
0.0
11
-51.500000
21
-58.956882
31
0.0
0
LINE
8
0
6
CONTINUOUS
10
-50.000000
20
-58.956882
30
0.0
11
-50.000000
21
-58.500000
31
0.0
0
LINE
8
0
6
CONTINUOUS
10
-51.050000
20
-58.956882
30
0.0
11
-50.000000
21
-58.956882
31
0.0
0
LINE
8
0
6
CONTINUOUS
10
-51.050000
20
-58.500000
30
0.0
11
-51.050000
21
-58.956882
31
0.0
0
LINE
8
0
6
CONTINUOUS
10
-48.950000
20
-58.474111
30
0.0
11
-50.000000
21
-58.474111
31
0.0
0
LINE
8
0
6
CONTINUOUS
10
-48.500000
20
-58.474111
30
0.0
11
-48.950000
21
-58.474111
31
0.0
0
LINE
8
0
6
CONTINUOUS
10
-51.050000
20
-58.474111
30
0.0
11
-51.500000
21
-58.474111
31
0.0
0
LINE
8
0
6
CONTINUOUS
10
-50.000000
20
-58.474111
30
0.0
11
-51.050000
21
-58.474111
31
0.0
0
LINE
8
0
6
CONTINUOUS
10
-48.950000
20
-58.474111
30
0.0
11
-48.950000
21
-57.386111
31
0.0
0
LINE
8
0
6
CONTINUOUS
10
-50.000000
20
-58.474111
30
0.0
11
-48.950000
21
-58.474111
31
0.0
0
LINE
8
0
6
CONTINUOUS
10
-50.000000
20
-57.361111
30
0.0
11
-50.000000
21
-58.474111
31
0.0
0
LINE
8
0
6
CONTINUOUS
10
-48.500000
20
-58.474111
30
0.0
11
-48.500000
21
-57.444444
31
0.0
0
LINE
8
0
6
CONTINUOUS
10
-48.950000
20
-58.474111
30
0.0
11
-48.500000
21
-58.474111
31
0.0
0
LINE
8
0
6
CONTINUOUS
10
-48.950000
20
-57.386111
30
0.0
11
-48.950000
21
-58.474111
31
0.0
0
LINE
8
0
6
CONTINUOUS
10
-48.500000
20
-57.444444
30
0.0
11
-48.500000
21
-58.474111
31
0.0
0
LINE
8
0
6
CONTINUOUS
10
-51.500000
20
-58.474111
30
0.0
11
-51.500000
21
-57.444444
31
0.0
0
LINE
8
0
6
CONTINUOUS
10
-51.050000
20
-58.474111
30
0.0
11
-51.050000
21
-57.386111
31
0.0
0
LINE
8
0
6
CONTINUOUS
10
-51.500000
20
-58.474111
30
0.0
11
-51.050000
21
-58.474111
31
0.0
0
LINE
8
0
6
CONTINUOUS
10
-51.500000
20
-57.444444
30
0.0
11
-51.500000
21
-58.474111
31
0.0
0
LINE
8
0
6
CONTINUOUS
10
-50.000000
20
-58.474111
30
0.0
11
-50.000000
21
-57.361111
31
0.0
0
LINE
8
0
6
CONTINUOUS
10
-51.050000
20
-58.474111
30
0.0
11
-50.000000
21
-58.474111
31
0.0
0
LINE
8
0
6
CONTINUOUS
10
-51.050000
20
-57.386111
30
0.0
11
-51.050000
21
-58.474111
31
0.0
0
LINE
8
0
6
CONTINUOUS
10
-48.950000
20
-56.030080
30
0.0
11
-50.000000
21
-56.030080
31
0.0
0
LINE
8
0
6
CONTINUOUS
10
-48.500000
20
-56.030080
30
0.0
11
-48.950000
21
-56.030080
31
0.0
0
LINE
8
0
6
CONTINUOUS
10
-51.050000
20
-56.030080
30
0.0
11
-51.500000
21
-56.030080
31
0.0
0
LINE
8
0
6
CONTINUOUS
10
-50.000000
20
-56.030080
30
0.0
11
-51.050000
21
-56.030080
31
0.0
0
LINE
8
0
6
CONTINUOUS
10
-48.950000
20
-56.030080
30
0.0
11
-48.950000
21
-54.743750
31
0.0
0
LINE
8
0
6
CONTINUOUS
10
-50.000000
20
-56.030080
30
0.0
11
-48.950000
21
-56.030080
31
0.0
0
LINE
8
0
6
CONTINUOUS
10
-50.000000
20
-54.687500
30
0.0
11
-50.000000
21
-56.030080
31
0.0
0
LINE
8
0
6
CONTINUOUS
10
-48.500000
20
-56.030080
30
0.0
11
-48.500000
21
-54.875000
31
0.0
0
LINE
8
0
6
CONTINUOUS
10
-48.950000
20
-56.030080
30
0.0
11
-48.500000
21
-56.030080
31
0.0
0
LINE
8
0
6
CONTINUOUS
10
-48.950000
20
-54.743750
30
0.0
11
-48.950000
21
-56.030080
31
0.0
0
LINE
8
0
6
CONTINUOUS
10
-48.500000
20
-54.875000
30
0.0
11
-48.500000
21
-56.030080
31
0.0
0
LINE
8
0
6
CONTINUOUS
10
-51.500000
20
-56.030080
30
0.0
11
-51.500000
21
-54.875000
31
0.0
0
LINE
8
0
6
CONTINUOUS
10
-51.050000
20
-56.030080
30
0.0
11
-51.050000
21
-54.743750
31
0.0
0
LINE
8
0
6
CONTINUOUS
10
-51.500000
20
-56.030080
30
0.0
11
-51.050000
21
-56.030080
31
0.0
0
LINE
8
0
6
CONTINUOUS
10
-51.500000
20
-54.875000
30
0.0
11
-51.500000
21
-56.030080
31
0.0
0
LINE
8
0
6
CONTINUOUS
10
-50.000000
20
-56.030080
30
0.0
11
-50.000000
21
-54.687500
31
0.0
0
LINE
8
0
6
CONTINUOUS
10
-51.050000
20
-56.030080
30
0.0
11
-50.000000
21
-56.030080
31
0.0
0
LINE
8
0
6
CONTINUOUS
10
-51.050000
20
-54.743750
30
0.0
11
-51.050000
21
-56.030080
31
0.0
0
LINE
8
0
6
CONTINUOUS
10
-57.101000
20
-57.780127
30
0.0
11
-58.151000
21
-57.780127
31
0.0
0
LINE
8
0
6
CONTINUOUS
10
-56.651000
20
-57.780127
30
0.0
11
-57.101000
21
-57.780127
31
0.0
0
LINE
8
0
6
CONTINUOUS
10
-59.201000
20
-57.780127
30
0.0
11
-59.651000
21
-57.780127
31
0.0
0
LINE
8
0
6
CONTINUOUS
10
-58.151000
20
-57.780127
30
0.0
11
-59.201000
21
-57.780127
31
0.0
0
LINE
8
0
6
CONTINUOUS
10
-57.101000
20
-57.780127
30
0.0
11
-57.101000
21
-56.546350
31
0.0
0
LINE
8
0
6
CONTINUOUS
10
-58.151000
20
-57.780127
30
0.0
11
-57.101000
21
-57.780127
31
0.0
0
LINE
8
0
6
CONTINUOUS
10
-58.151000
20
-56.521350
30
0.0
11
-58.151000
21
-57.780127
31
0.0
0
LINE
8
0
6
CONTINUOUS
10
-56.651000
20
-57.780127
30
0.0
11
-56.651000
21
-56.604683
31
0.0
0
LINE
8
0
6
CONTINUOUS
10
-57.101000
20
-57.780127
30
0.0
11
-56.651000
21
-57.780127
31
0.0
0
LINE
8
0
6
CONTINUOUS
10
-57.101000
20
-56.546350
30
0.0
11
-57.101000
21
-57.780127
31
0.0
0
LINE
8
0
6
CONTINUOUS
10
-56.651000
20
-56.604683
30
0.0
11
-56.651000
21
-57.780127
31
0.0
0
LINE
8
0
6
CONTINUOUS
10
-59.651000
20
-57.780127
30
0.0
11
-59.651000
21
-56.604683
31
0.0
0
LINE
8
0
6
CONTINUOUS
10
-59.201000
20
-57.780127
30
0.0
11
-59.201000
21
-56.546350
31
0.0
0
LINE
8
0
6
CONTINUOUS
10
-59.651000
20
-57.780127
30
0.0
11
-59.201000
21
-57.780127
31
0.0
0
LINE
8
0
6
CONTINUOUS
10
-59.651000
20
-56.604683
30
0.0
11
-59.651000
21
-57.780127
31
0.0
0
LINE
8
0
6
CONTINUOUS
10
-58.151000
20
-57.780127
30
0.0
11
-58.151000
21
-56.521350
31
0.0
0
LINE
8
0
6
CONTINUOUS
10
-59.201000
20
-57.780127
30
0.0
11
-58.151000
21
-57.780127
31
0.0
0
LINE
8
0
6
CONTINUOUS
10
-59.201000
20
-56.546350
30
0.0
11
-59.201000
21
-57.780127
31
0.0
0
LINE
8
0
6
CONTINUOUS
10
-56.820000
20
-59.500000
30
0.0
11
-57.870000
21
-59.500000
31
0.0
0
LINE
8
0
6
CONTINUOUS
10
-56.370000
20
-59.500000
30
0.0
11
-56.820000
21
-59.500000
31
0.0
0
LINE
8
0
6
CONTINUOUS
10
-58.920000
20
-59.500000
30
0.0
11
-59.370000
21
-59.500000
31
0.0
0
LINE
8
0
6
CONTINUOUS
10
-57.870000
20
-59.500000
30
0.0
11
-58.920000
21
-59.500000
31
0.0
0
LINE
8
0
6
CONTINUOUS
10
-56.820000
20
-59.500000
30
0.0
11
-56.820000
21
-58.409134
31
0.0
0
LINE
8
0
6
CONTINUOUS
10
-57.870000
20
-59.500000
30
0.0
11
-56.820000
21
-59.500000
31
0.0
0
LINE
8
0
6
CONTINUOUS
10
-57.870000
20
-58.393617
30
0.0
11
-57.870000
21
-59.500000
31
0.0
0
LINE
8
0
6
CONTINUOUS
10
-56.370000
20
-59.500000
30
0.0
11
-56.370000
21
-58.445341
31
0.0
0
LINE
8
0
6
CONTINUOUS
10
-56.820000
20
-59.500000
30
0.0
11
-56.370000
21
-59.500000
31
0.0
0
LINE
8
0
6
CONTINUOUS
10
-56.820000
20
-58.409134
30
0.0
11
-56.820000
21
-59.500000
31
0.0
0
LINE
8
0
6
CONTINUOUS
10
-56.370000
20
-58.445341
30
0.0
11
-56.370000
21
-59.500000
31
0.0
0
LINE
8
0
6
CONTINUOUS
10
-59.370000
20
-59.500000
30
0.0
11
-59.370000
21
-58.445341
31
0.0
0
LINE
8
0
6
CONTINUOUS
10
-58.920000
20
-59.500000
30
0.0
11
-58.920000
21
-58.409134
31
0.0
0
LINE
8
0
6
CONTINUOUS
10
-59.370000
20
-59.500000
30
0.0
11
-58.920000
21
-59.500000
31
0.0
0
LINE
8
0
6
CONTINUOUS
10
-59.370000
20
-58.445341
30
0.0
11
-59.370000
21
-59.500000
31
0.0
0
LINE
8
0
6
CONTINUOUS
10
-57.870000
20
-59.500000
30
0.0
11
-57.870000
21
-58.393617
31
0.0
0
LINE
8
0
6
CONTINUOUS
10
-58.920000
20
-59.500000
30
0.0
11
-57.870000
21
-59.500000
31
0.0
0
LINE
8
0
6
CONTINUOUS
10
-58.920000
20
-58.409134
30
0.0
11
-58.920000
21
-59.500000
31
0.0
0
LINE
8
0
6
CONTINUOUS
10
-102.008300
20
-59.198414
30
0.0
11
-101.558300
21
-59.198414
31
0.0
0
LINE
8
0
6
CONTINUOUS
10
-103.058300
20
-59.198414
30
0.0
11
-102.008300
21
-59.198414
31
0.0
0
LINE
8
0
6
CONTINUOUS
10
-104.108300
20
-59.198414
30
0.0
11
-103.058300
21
-59.198414
31
0.0
0
LINE
8
0
6
CONTINUOUS
10
-104.558300
20
-59.198414
30
0.0
11
-104.108300
21
-59.198414
31
0.0
0
LINE
8
0
6
CONTINUOUS
10
-104.558300
20
-58.280173
30
0.0
11
-104.558300
21
-59.198414
31
0.0
0
LINE
8
0
6
CONTINUOUS
10
-101.558300
20
-59.198414
30
0.0
11
-101.558300
21
-58.344475
31
0.0
0
LINE
8
0
6
CONTINUOUS
10
-102.008300
20
-59.198414
30
0.0
11
-102.008300
21
-58.314398
31
0.0
0
LINE
8
0
6
CONTINUOUS
10
-101.558300
20
-59.198414
30
0.0
11
-102.008300
21
-59.198414
31
0.0
0
LINE
8
0
6
CONTINUOUS
10
-101.558300
20
-58.344475
30
0.0
11
-101.558300
21
-59.198414
31
0.0
0
LINE
8
0
6
CONTINUOUS
10
-103.058300
20
-59.198414
30
0.0
11
-103.058300
21
-58.287513
31
0.0
0
LINE
8
0
6
CONTINUOUS
10
-102.008300
20
-59.198414
30
0.0
11
-103.058300
21
-59.198414
31
0.0
0
LINE
8
0
6
CONTINUOUS
10
-102.008300
20
-58.314398
30
0.0
11
-102.008300
21
-59.198414
31
0.0
0
LINE
8
0
6
CONTINUOUS
10
-104.108300
20
-59.198414
30
0.0
11
-104.108300
21
-58.274247
31
0.0
0
LINE
8
0
6
CONTINUOUS
10
-103.058300
20
-59.198414
30
0.0
11
-104.108300
21
-59.198414
31
0.0
0
LINE
8
0
6
CONTINUOUS
10
-103.058300
20
-58.287513
30
0.0
11
-103.058300
21
-59.198414
31
0.0
0
LINE
8
0
6
CONTINUOUS
10
-104.558300
20
-59.198414
30
0.0
11
-104.558300
21
-58.280173
31
0.0
0
LINE
8
0
6
CONTINUOUS
10
-104.108300
20
-59.198414
30
0.0
11
-104.558300
21
-59.198414
31
0.0
0
LINE
8
0
6
CONTINUOUS
10
-104.108300
20
-58.274247
30
0.0
11
-104.108300
21
-59.198414
31
0.0
0
LINE
8
0
6
CONTINUOUS
10
-62.017000
20
-59.500000
30
0.0
11
-63.067000
21
-59.500000
31
0.0
0
LINE
8
0
6
CONTINUOUS
10
-61.567000
20
-59.500000
30
0.0
11
-62.017000
21
-59.500000
31
0.0
0
LINE
8
0
6
CONTINUOUS
10
-64.117000
20
-59.500000
30
0.0
11
-64.567000
21
-59.500000
31
0.0
0
LINE
8
0
6
CONTINUOUS
10
-63.067000
20
-59.500000
30
0.0
11
-64.117000
21
-59.500000
31
0.0
0
LINE
8
0
6
CONTINUOUS
10
-62.017000
20
-59.500000
30
0.0
11
-62.017000
21
-58.500000
31
0.0
0
LINE
8
0
6
CONTINUOUS
10
-63.067000
20
-59.500000
30
0.0
11
-62.017000
21
-59.500000
31
0.0
0
LINE
8
0
6
CONTINUOUS
10
-63.067000
20
-58.500000
30
0.0
11
-63.067000
21
-59.500000
31
0.0
0
LINE
8
0
6
CONTINUOUS
10
-61.567000
20
-59.500000
30
0.0
11
-61.567000
21
-58.500000
31
0.0
0
LINE
8
0
6
CONTINUOUS
10
-62.017000
20
-59.500000
30
0.0
11
-61.567000
21
-59.500000
31
0.0
0
LINE
8
0
6
CONTINUOUS
10
-62.017000
20
-58.500000
30
0.0
11
-62.017000
21
-59.500000
31
0.0
0
LINE
8
0
6
CONTINUOUS
10
-61.567000
20
-58.500000
30
0.0
11
-61.567000
21
-59.500000
31
0.0
0
LINE
8
0
6
CONTINUOUS
10
-64.567000
20
-59.500000
30
0.0
11
-64.567000
21
-58.500000
31
0.0
0
LINE
8
0
6
CONTINUOUS
10
-64.117000
20
-59.500000
30
0.0
11
-64.117000
21
-58.500000
31
0.0
0
LINE
8
0
6
CONTINUOUS
10
-64.567000
20
-59.500000
30
0.0
11
-64.117000
21
-59.500000
31
0.0
0
LINE
8
0
6
CONTINUOUS
10
-64.567000
20
-58.500000
30
0.0
11
-64.567000
21
-59.500000
31
0.0
0
LINE
8
0
6
CONTINUOUS
10
-63.067000
20
-59.500000
30
0.0
11
-63.067000
21
-58.500000
31
0.0
0
LINE
8
0
6
CONTINUOUS
10
-64.117000
20
-59.500000
30
0.0
11
-63.067000
21
-59.500000
31
0.0
0
LINE
8
0
6
CONTINUOUS
10
-64.117000
20
-58.500000
30
0.0
11
-64.117000
21
-59.500000
31
0.0
0
LINE
8
0
6
CONTINUOUS
10
-63.950000
20
-58.956882
30
0.0
11
-65.000000
21
-58.956882
31
0.0
0
LINE
8
0
6
CONTINUOUS
10
-63.500000
20
-58.956882
30
0.0
11
-63.950000
21
-58.956882
31
0.0
0
LINE
8
0
6
CONTINUOUS
10
-66.050000
20
-58.956882
30
0.0
11
-66.500000
21
-58.956882
31
0.0
0
LINE
8
0
6
CONTINUOUS
10
-65.000000
20
-58.956882
30
0.0
11
-66.050000
21
-58.956882
31
0.0
0
LINE
8
0
6
CONTINUOUS
10
-63.950000
20
-58.956882
30
0.0
11
-63.950000
21
-58.500000
31
0.0
0
LINE
8
0
6
CONTINUOUS
10
-65.000000
20
-58.956882
30
0.0
11
-63.950000
21
-58.956882
31
0.0
0
LINE
8
0
6
CONTINUOUS
10
-65.000000
20
-58.500000
30
0.0
11
-65.000000
21
-58.956882
31
0.0
0
LINE
8
0
6
CONTINUOUS
10
-63.500000
20
-58.956882
30
0.0
11
-63.500000
21
-58.500000
31
0.0
0
LINE
8
0
6
CONTINUOUS
10
-63.950000
20
-58.956882
30
0.0
11
-63.500000
21
-58.956882
31
0.0
0
LINE
8
0
6
CONTINUOUS
10
-63.950000
20
-58.500000
30
0.0
11
-63.950000
21
-58.956882
31
0.0
0
LINE
8
0
6
CONTINUOUS
10
-63.500000
20
-58.500000
30
0.0
11
-63.500000
21
-58.956882
31
0.0
0
LINE
8
0
6
CONTINUOUS
10
-66.500000
20
-58.956882
30
0.0
11
-66.050000
21
-58.956882
31
0.0
0
LINE
8
0
6
CONTINUOUS
10
-65.000000
20
-58.956882
30
0.0
11
-65.000000
21
-58.500000
31
0.0
0
LINE
8
0
6
CONTINUOUS
10
-66.050000
20
-58.956882
30
0.0
11
-65.000000
21
-58.956882
31
0.0
0
LINE
8
0
6
CONTINUOUS
10
-71.820000
20
-59.500000
30
0.0
11
-72.870000
21
-59.500000
31
0.0
0
LINE
8
0
6
CONTINUOUS
10
-71.370000
20
-59.500000
30
0.0
11
-71.820000
21
-59.500000
31
0.0
0
LINE
8
0
6
CONTINUOUS
10
-73.920000
20
-59.500000
30
0.0
11
-74.370000
21
-59.500000
31
0.0
0
LINE
8
0
6
CONTINUOUS
10
-72.870000
20
-59.500000
30
0.0
11
-73.920000
21
-59.500000
31
0.0
0
LINE
8
0
6
CONTINUOUS
10
-71.820000
20
-59.500000
30
0.0
11
-71.820000
21
-58.404859
31
0.0
0
LINE
8
0
6
CONTINUOUS
10
-72.870000
20
-59.500000
30
0.0
11
-71.820000
21
-59.500000
31
0.0
0
LINE
8
0
6
CONTINUOUS
10
-72.870000
20
-58.388684
30
0.0
11
-72.870000
21
-59.500000
31
0.0
0
LINE
8
0
6
CONTINUOUS
10
-71.370000
20
-59.500000
30
0.0
11
-71.370000
21
-58.441348
31
0.0
0
LINE
8
0
6
CONTINUOUS
10
-71.820000
20
-59.500000
30
0.0
11
-71.370000
21
-59.500000
31
0.0
0
LINE
8
0
6
CONTINUOUS
10
-71.820000
20
-58.404859
30
0.0
11
-71.820000
21
-59.500000
31
0.0
0
LINE
8
0
6
CONTINUOUS
10
-71.370000
20
-58.441348
30
0.0
11
-71.370000
21
-59.500000
31
0.0
0
LINE
8
0
6
CONTINUOUS
10
-74.370000
20
-59.500000
30
0.0
11
-74.370000
21
-58.439338
31
0.0
0
LINE
8
0
6
CONTINUOUS
10
-73.920000
20
-59.500000
30
0.0
11
-73.920000
21
-58.403474
31
0.0
0
LINE
8
0
6
CONTINUOUS
10
-74.370000
20
-59.500000
30
0.0
11
-73.920000
21
-59.500000
31
0.0
0
LINE
8
0
6
CONTINUOUS
10
-74.370000
20
-58.439338
30
0.0
11
-74.370000
21
-59.500000
31
0.0
0
LINE
8
0
6
CONTINUOUS
10
-72.870000
20
-59.500000
30
0.0
11
-72.870000
21
-58.388684
31
0.0
0
LINE
8
0
6
CONTINUOUS
10
-73.920000
20
-59.500000
30
0.0
11
-72.870000
21
-59.500000
31
0.0
0
LINE
8
0
6
CONTINUOUS
10
-73.920000
20
-58.403474
30
0.0
11
-73.920000
21
-59.500000
31
0.0
0
LINE
8
0
6
CONTINUOUS
10
-63.950000
20
-58.474111
30
0.0
11
-65.000000
21
-58.474111
31
0.0
0
LINE
8
0
6
CONTINUOUS
10
-63.500000
20
-58.474111
30
0.0
11
-63.950000
21
-58.474111
31
0.0
0
LINE
8
0
6
CONTINUOUS
10
-66.050000
20
-58.474111
30
0.0
11
-66.500000
21
-58.474111
31
0.0
0
LINE
8
0
6
CONTINUOUS
10
-65.000000
20
-58.474111
30
0.0
11
-66.050000
21
-58.474111
31
0.0
0
LINE
8
0
6
CONTINUOUS
10
-63.950000
20
-58.474111
30
0.0
11
-63.950000
21
-57.386111
31
0.0
0
LINE
8
0
6
CONTINUOUS
10
-65.000000
20
-58.474111
30
0.0
11
-63.950000
21
-58.474111
31
0.0
0
LINE
8
0
6
CONTINUOUS
10
-65.000000
20
-57.361111
30
0.0
11
-65.000000
21
-58.474111
31
0.0
0
LINE
8
0
6
CONTINUOUS
10
-63.500000
20
-58.474111
30
0.0
11
-63.500000
21
-57.444444
31
0.0
0
LINE
8
0
6
CONTINUOUS
10
-63.950000
20
-58.474111
30
0.0
11
-63.500000
21
-58.474111
31
0.0
0
LINE
8
0
6
CONTINUOUS
10
-63.950000
20
-57.386111
30
0.0
11
-63.950000
21
-58.474111
31
0.0
0
LINE
8
0
6
CONTINUOUS
10
-63.500000
20
-57.444444
30
0.0
11
-63.500000
21
-58.474111
31
0.0
0
LINE
8
0
6
CONTINUOUS
10
-66.500000
20
-58.474111
30
0.0
11
-66.500000
21
-57.442930
31
0.0
0
LINE
8
0
6
CONTINUOUS
10
-66.050000
20
-58.474111
30
0.0
11
-66.050000
21
-57.385052
31
0.0
0
LINE
8
0
6
CONTINUOUS
10
-66.500000
20
-58.474111
30
0.0
11
-66.050000
21
-58.474111
31
0.0
0
LINE
8
0
6
CONTINUOUS
10
-66.500000
20
-57.442930
30
0.0
11
-66.500000
21
-58.474111
31
0.0
0
LINE
8
0
6
CONTINUOUS
10
-65.000000
20
-58.474111
30
0.0
11
-65.000000
21
-57.361112
31
0.0
0
LINE
8
0
6
CONTINUOUS
10
-66.050000
20
-58.474111
30
0.0
11
-65.000000
21
-58.474111
31
0.0
0
LINE
8
0
6
CONTINUOUS
10
-66.050000
20
-57.385052
30
0.0
11
-66.050000
21
-58.474111
31
0.0
0
LINE
8
0
6
CONTINUOUS
10
-72.101000
20
-57.780127
30
0.0
11
-73.151000
21
-57.780127
31
0.0
0
LINE
8
0
6
CONTINUOUS
10
-71.651000
20
-57.780127
30
0.0
11
-72.101000
21
-57.780127
31
0.0
0
LINE
8
0
6
CONTINUOUS
10
-74.201000
20
-57.780127
30
0.0
11
-74.651000
21
-57.780127
31
0.0
0
LINE
8
0
6
CONTINUOUS
10
-73.151000
20
-57.780127
30
0.0
11
-74.201000
21
-57.780127
31
0.0
0
LINE
8
0
6
CONTINUOUS
10
-72.101000
20
-57.780127
30
0.0
11
-72.101000
21
-56.539178
31
0.0
0
LINE
8
0
6
CONTINUOUS
10
-73.151000
20
-57.780127
30
0.0
11
-72.101000
21
-57.780127
31
0.0
0
LINE
8
0
6
CONTINUOUS
10
-73.151000
20
-56.513117
30
0.0
11
-73.151000
21
-57.780127
31
0.0
0
LINE
8
0
6
CONTINUOUS
10
-71.651000
20
-57.780127
30
0.0
11
-71.651000
21
-56.597966
31
0.0
0
LINE
8
0
6
CONTINUOUS
10
-72.101000
20
-57.780127
30
0.0
11
-71.651000
21
-57.780127
31
0.0
0
LINE
8
0
6
CONTINUOUS
10
-72.101000
20
-56.539178
30
0.0
11
-72.101000
21
-57.780127
31
0.0
0
LINE
8
0
6
CONTINUOUS
10
-71.651000
20
-56.597966
30
0.0
11
-71.651000
21
-57.780127
31
0.0
0
LINE
8
0
6
CONTINUOUS
10
-74.651000
20
-57.780127
30
0.0
11
-74.651000
21
-56.594936
31
0.0
0
LINE
8
0
6
CONTINUOUS
10
-74.201000
20
-57.780127
30
0.0
11
-74.201000
21
-56.537057
31
0.0
0
LINE
8
0
6
CONTINUOUS
10
-74.651000
20
-57.780127
30
0.0
11
-74.201000
21
-57.780127
31
0.0
0
LINE
8
0
6
CONTINUOUS
10
-74.651000
20
-56.594936
30
0.0
11
-74.651000
21
-57.780127
31
0.0
0
LINE
8
0
6
CONTINUOUS
10
-73.151000
20
-57.780127
30
0.0
11
-73.151000
21
-56.513117
31
0.0
0
LINE
8
0
6
CONTINUOUS
10
-74.201000
20
-57.780127
30
0.0
11
-73.151000
21
-57.780127
31
0.0
0
LINE
8
0
6
CONTINUOUS
10
-74.201000
20
-56.537057
30
0.0
11
-74.201000
21
-57.780127
31
0.0
0
LINE
8
0
6
CONTINUOUS
10
-76.629000
20
-58.474111
30
0.0
11
-77.679000
21
-58.474111
31
0.0
0
LINE
8
0
6
CONTINUOUS
10
-76.179000
20
-58.474111
30
0.0
11
-76.629000
21
-58.474111
31
0.0
0
LINE
8
0
6
CONTINUOUS
10
-78.729000
20
-58.474111
30
0.0
11
-79.179000
21
-58.474111
31
0.0
0
LINE
8
0
6
CONTINUOUS
10
-77.679000
20
-58.474111
30
0.0
11
-78.729000
21
-58.474111
31
0.0
0
LINE
8
0
6
CONTINUOUS
10
-76.629000
20
-58.474111
30
0.0
11
-76.629000
21
-57.341961
31
0.0
0
LINE
8
0
6
CONTINUOUS
10
-77.679000
20
-58.474111
30
0.0
11
-76.629000
21
-58.474111
31
0.0
0
LINE
8
0
6
CONTINUOUS
10
-77.679000
20
-57.315900
30
0.0
11
-77.679000
21
-58.474111
31
0.0
0
LINE
8
0
6
CONTINUOUS
10
-76.179000
20
-58.474111
30
0.0
11
-76.179000
21
-57.400749
31
0.0
0
LINE
8
0
6
CONTINUOUS
10
-76.629000
20
-58.474111
30
0.0
11
-76.179000
21
-58.474111
31
0.0
0
LINE
8
0
6
CONTINUOUS
10
-76.629000
20
-57.341961
30
0.0
11
-76.629000
21
-58.474111
31
0.0
0
LINE
8
0
6
CONTINUOUS
10
-76.179000
20
-57.400749
30
0.0
11
-76.179000
21
-58.474111
31
0.0
0
LINE
8
0
6
CONTINUOUS
10
-79.179000
20
-58.474111
30
0.0
11
-79.179000
21
-57.397703
31
0.0
0
LINE
8
0
6
CONTINUOUS
10
-78.729000
20
-58.474111
30
0.0
11
-78.729000
21
-57.339840
31
0.0
0
LINE
8
0
6
CONTINUOUS
10
-79.179000
20
-58.474111
30
0.0
11
-78.729000
21
-58.474111
31
0.0
0
LINE
8
0
6
CONTINUOUS
10
-79.179000
20
-57.397703
30
0.0
11
-79.179000
21
-58.474111
31
0.0
0
LINE
8
0
6
CONTINUOUS
10
-77.679000
20
-58.474111
30
0.0
11
-77.679000
21
-57.315900
31
0.0
0
LINE
8
0
6
CONTINUOUS
10
-78.729000
20
-58.474111
30
0.0
11
-77.679000
21
-58.474111
31
0.0
0
LINE
8
0
6
CONTINUOUS
10
-78.729000
20
-57.339840
30
0.0
11
-78.729000
21
-58.474111
31
0.0
0
LINE
8
0
6
CONTINUOUS
10
-94.408000
20
-58.775989
30
0.0
11
-95.458000
21
-58.775989
31
0.0
0
LINE
8
0
6
CONTINUOUS
10
-93.958000
20
-58.775989
30
0.0
11
-94.408000
21
-58.775989
31
0.0
0
LINE
8
0
6
CONTINUOUS
10
-96.508200
20
-58.775989
30
0.0
11
-96.958200
21
-58.775989
31
0.0
0
LINE
8
0
6
CONTINUOUS
10
-95.458000
20
-58.775989
30
0.0
11
-96.508200
21
-58.775989
31
0.0
0
LINE
8
0
6
CONTINUOUS
10
-94.408000
20
-58.775989
30
0.0
11
-94.408000
21
-57.879045
31
0.0
0
LINE
8
0
6
CONTINUOUS
10
-95.458000
20
-58.775989
30
0.0
11
-94.408000
21
-58.775989
31
0.0
0
LINE
8
0
6
CONTINUOUS
10
-95.458000
20
-57.861501
30
0.0
11
-95.458000
21
-58.775989
31
0.0
0
LINE
8
0
6
CONTINUOUS
10
-93.958000
20
-58.775989
30
0.0
11
-93.958000
21
-57.915603
31
0.0
0
LINE
8
0
6
CONTINUOUS
10
-94.408000
20
-58.775989
30
0.0
11
-93.958000
21
-58.775989
31
0.0
0
LINE
8
0
6
CONTINUOUS
10
-94.408000
20
-57.879045
30
0.0
11
-94.408000
21
-58.775989
31
0.0
0
LINE
8
0
6
CONTINUOUS
10
-93.958000
20
-57.915603
30
0.0
11
-93.958000
21
-58.775989
31
0.0
0
LINE
8
0
6
CONTINUOUS
10
-96.958200
20
-58.775989
30
0.0
11
-96.958200
21
-57.908418
31
0.0
0
LINE
8
0
6
CONTINUOUS
10
-96.508200
20
-58.775989
30
0.0
11
-96.508200
21
-57.874109
31
0.0
0
LINE
8
0
6
CONTINUOUS
10
-96.958200
20
-58.775989
30
0.0
11
-96.508200
21
-58.775989
31
0.0
0
LINE
8
0
6
CONTINUOUS
10
-96.958200
20
-57.908418
30
0.0
11
-96.958200
21
-58.775989
31
0.0
0
LINE
8
0
6
CONTINUOUS
10
-95.458000
20
-58.775989
30
0.0
11
-95.458000
21
-57.861501
31
0.0
0
LINE
8
0
6
CONTINUOUS
10
-96.508200
20
-58.775989
30
0.0
11
-95.458000
21
-58.775989
31
0.0
0
LINE
8
0
6
CONTINUOUS
10
-96.508200
20
-57.874109
30
0.0
11
-96.508200
21
-58.775989
31
0.0
0
LINE
8
0
6
CONTINUOUS
10
-85.810000
20
-59.500000
30
0.0
11
-86.860000
21
-59.500000
31
0.0
0
LINE
8
0
6
CONTINUOUS
10
-85.360000
20
-59.500000
30
0.0
11
-85.810000
21
-59.500000
31
0.0
0
LINE
8
0
6
CONTINUOUS
10
-87.910000
20
-59.500000
30
0.0
11
-88.360000
21
-59.500000
31
0.0
0
LINE
8
0
6
CONTINUOUS
10
-86.860000
20
-59.500000
30
0.0
11
-87.910000
21
-59.500000
31
0.0
0
LINE
8
0
6
CONTINUOUS
10
-85.810000
20
-59.500000
30
0.0
11
-85.810000
21
-58.421503
31
0.0
0
LINE
8
0
6
CONTINUOUS
10
-86.860000
20
-59.500000
30
0.0
11
-85.810000
21
-59.500000
31
0.0
0
LINE
8
0
6
CONTINUOUS
10
-86.860000
20
-58.403912
30
0.0
11
-86.860000
21
-59.500000
31
0.0
0
LINE
8
0
6
CONTINUOUS
10
-85.360000
20
-59.500000
30
0.0
11
-85.360000
21
-58.458061
31
0.0
0
LINE
8
0
6
CONTINUOUS
10
-85.810000
20
-59.500000
30
0.0
11
-85.360000
21
-59.500000
31
0.0
0
LINE
8
0
6
CONTINUOUS
10
-85.810000
20
-58.421503
30
0.0
11
-85.810000
21
-59.500000
31
0.0
0
LINE
8
0
6
CONTINUOUS
10
-85.360000
20
-58.458061
30
0.0
11
-85.360000
21
-59.500000
31
0.0
0
LINE
8
0
6
CONTINUOUS
10
-88.360000
20
-59.500000
30
0.0
11
-88.360000
21
-58.450822
31
0.0
0
LINE
8
0
6
CONTINUOUS
10
-87.910000
20
-59.500000
30
0.0
11
-87.910000
21
-58.416513
31
0.0
0
LINE
8
0
6
CONTINUOUS
10
-88.360000
20
-59.500000
30
0.0
11
-87.910000
21
-59.500000
31
0.0
0
LINE
8
0
6
CONTINUOUS
10
-88.360000
20
-58.450822
30
0.0
11
-88.360000
21
-59.500000
31
0.0
0
LINE
8
0
6
CONTINUOUS
10
-86.860000
20
-59.500000
30
0.0
11
-86.860000
21
-58.403912
31
0.0
0
LINE
8
0
6
CONTINUOUS
10
-87.910000
20
-59.500000
30
0.0
11
-86.860000
21
-59.500000
31
0.0
0
LINE
8
0
6
CONTINUOUS
10
-87.910000
20
-58.416513
30
0.0
11
-87.910000
21
-59.500000
31
0.0
0
LINE
8
0
6
CONTINUOUS
10
-108.107200
20
-58.947092
30
0.0
11
-109.157200
21
-58.947092
31
0.0
0
LINE
8
0
6
CONTINUOUS
10
-107.657200
20
-58.947092
30
0.0
11
-108.107200
21
-58.947092
31
0.0
0
LINE
8
0
6
CONTINUOUS
10
-110.207200
20
-58.947092
30
0.0
11
-110.657200
21
-58.947092
31
0.0
0
LINE
8
0
6
CONTINUOUS
10
-109.157200
20
-58.947092
30
0.0
11
-110.207200
21
-58.947092
31
0.0
0
LINE
8
0
6
CONTINUOUS
10
-108.107200
20
-58.947092
30
0.0
11
-108.107200
21
-57.845903
31
0.0
0
LINE
8
0
6
CONTINUOUS
10
-109.157200
20
-58.947092
30
0.0
11
-108.107200
21
-58.947092
31
0.0
0
LINE
8
0
6
CONTINUOUS
10
-109.157200
20
-57.826219
30
0.0
11
-109.157200
21
-58.947092
31
0.0
0
LINE
8
0
6
CONTINUOUS
10
-107.657200
20
-58.947092
30
0.0
11
-107.657200
21
-57.881508
31
0.0
0
LINE
8
0
6
CONTINUOUS
10
-108.107200
20
-58.947092
30
0.0
11
-107.657200
21
-58.947092
31
0.0
0
LINE
8
0
6
CONTINUOUS
10
-108.107200
20
-57.845903
30
0.0
11
-108.107200
21
-58.947092
31
0.0
0
LINE
8
0
6
CONTINUOUS
10
-107.657200
20
-57.881508
30
0.0
11
-107.657200
21
-58.947092
31
0.0
0
LINE
8
0
6
CONTINUOUS
10
-110.657200
20
-58.947092
30
0.0
11
-110.657200
21
-57.861646
31
0.0
0
LINE
8
0
6
CONTINUOUS
10
-110.207200
20
-58.947092
30
0.0
11
-110.207200
21
-57.833743
31
0.0
0
LINE
8
0
6
CONTINUOUS
10
-110.657200
20
-58.947092
30
0.0
11
-110.207200
21
-58.947092
31
0.0
0
LINE
8
0
6
CONTINUOUS
10
-110.657200
20
-57.861646
30
0.0
11
-110.657200
21
-58.947092
31
0.0
0
LINE
8
0
6
CONTINUOUS
10
-109.157200
20
-58.947092
30
0.0
11
-109.157200
21
-57.826219
31
0.0
0
LINE
8
0
6
CONTINUOUS
10
-110.207200
20
-58.947092
30
0.0
11
-109.157200
21
-58.947092
31
0.0
0
LINE
8
0
6
CONTINUOUS
10
-110.207200
20
-57.833743
30
0.0
11
-110.207200
21
-58.947092
31
0.0
0
LINE
8
0
6
CONTINUOUS
10
-86.237000
20
-57.780127
30
0.0
11
-87.287000
21
-57.780127
31
0.0
0
LINE
8
0
6
CONTINUOUS
10
-85.787000
20
-57.780127
30
0.0
11
-86.237000
21
-57.780127
31
0.0
0
LINE
8
0
6
CONTINUOUS
10
-88.337000
20
-57.780127
30
0.0
11
-88.787000
21
-57.780127
31
0.0
0
LINE
8
0
6
CONTINUOUS
10
-87.287000
20
-57.780127
30
0.0
11
-88.337000
21
-57.780127
31
0.0
0
LINE
8
0
6
CONTINUOUS
10
-86.237000
20
-57.780127
30
0.0
11
-86.237000
21
-56.531384
31
0.0
0
LINE
8
0
6
CONTINUOUS
10
-87.287000
20
-57.780127
30
0.0
11
-86.237000
21
-57.780127
31
0.0
0
LINE
8
0
6
CONTINUOUS
10
-87.287000
20
-56.505183
30
0.0
11
-87.287000
21
-57.780127
31
0.0
0
LINE
8
0
6
CONTINUOUS
10
-85.787000
20
-57.780127
30
0.0
11
-85.787000
21
-56.590206
31
0.0
0
LINE
8
0
6
CONTINUOUS
10
-86.237000
20
-57.780127
30
0.0
11
-85.787000
21
-57.780127
31
0.0
0
LINE
8
0
6
CONTINUOUS
10
-86.237000
20
-56.531384
30
0.0
11
-86.237000
21
-57.780127
31
0.0
0
LINE
8
0
6
CONTINUOUS
10
-85.787000
20
-56.590206
30
0.0
11
-85.787000
21
-57.780127
31
0.0
0
LINE
8
0
6
CONTINUOUS
10
-88.787000
20
-57.780127
30
0.0
11
-88.787000
21
-56.586735
31
0.0
0
LINE
8
0
6
CONTINUOUS
10
-88.337000
20
-57.780127
30
0.0
11
-88.337000
21
-56.528955
31
0.0
0
LINE
8
0
6
CONTINUOUS
10
-88.787000
20
-57.780127
30
0.0
11
-88.337000
21
-57.780127
31
0.0
0
LINE
8
0
6
CONTINUOUS
10
-88.787000
20
-56.586735
30
0.0
11
-88.787000
21
-57.780127
31
0.0
0
LINE
8
0
6
CONTINUOUS
10
-87.287000
20
-57.780127
30
0.0
11
-87.287000
21
-56.505183
31
0.0
0
LINE
8
0
6
CONTINUOUS
10
-88.337000
20
-57.780127
30
0.0
11
-87.287000
21
-57.780127
31
0.0
0
LINE
8
0
6
CONTINUOUS
10
-88.337000
20
-56.528955
30
0.0
11
-88.337000
21
-57.780127
31
0.0
0
LINE
8
0
6
CONTINUOUS
10
-98.041000
20
-57.931140
30
0.0
11
-99.091000
21
-57.931140
31
0.0
0
LINE
8
0
6
CONTINUOUS
10
-97.591000
20
-57.931140
30
0.0
11
-98.041000
21
-57.931140
31
0.0
0
LINE
8
0
6
CONTINUOUS
10
-100.141000
20
-57.931140
30
0.0
11
-100.591000
21
-57.931140
31
0.0
0
LINE
8
0
6
CONTINUOUS
10
-99.091000
20
-57.931140
30
0.0
11
-100.141000
21
-57.931140
31
0.0
0
LINE
8
0
6
CONTINUOUS
10
-98.041000
20
-57.931140
30
0.0
11
-98.041000
21
-56.522029
31
0.0
0
LINE
8
0
6
CONTINUOUS
10
-99.091000
20
-57.931140
30
0.0
11
-98.041000
21
-57.931140
31
0.0
0
LINE
8
0
6
CONTINUOUS
10
-99.091000
20
-56.485964
30
0.0
11
-99.091000
21
-57.931140
31
0.0
0
LINE
8
0
6
CONTINUOUS
10
-97.591000
20
-57.931140
30
0.0
11
-97.591000
21
-56.580927
31
0.0
0
LINE
8
0
6
CONTINUOUS
10
-98.041000
20
-57.931140
30
0.0
11
-97.591000
21
-57.931140
31
0.0
0
LINE
8
0
6
CONTINUOUS
10
-98.041000
20
-56.522029
30
0.0
11
-98.041000
21
-57.931140
31
0.0
0
LINE
8
0
6
CONTINUOUS
10
-97.591000
20
-56.580927
30
0.0
11
-97.591000
21
-57.931140
31
0.0
0
LINE
8
0
6
CONTINUOUS
10
-100.591000
20
-57.931140
30
0.0
11
-100.591000
21
-56.570345
31
0.0
0
LINE
8
0
6
CONTINUOUS
10
-100.141000
20
-57.931140
30
0.0
11
-100.141000
21
-56.514622
31
0.0
0
LINE
8
0
6
CONTINUOUS
10
-100.591000
20
-57.931140
30
0.0
11
-100.141000
21
-57.931140
31
0.0
0
LINE
8
0
6
CONTINUOUS
10
-100.591000
20
-56.570345
30
0.0
11
-100.591000
21
-57.931140
31
0.0
0
LINE
8
0
6
CONTINUOUS
10
-99.091000
20
-57.931140
30
0.0
11
-99.091000
21
-56.485964
31
0.0
0
LINE
8
0
6
CONTINUOUS
10
-100.141000
20
-57.931140
30
0.0
11
-99.091000
21
-57.931140
31
0.0
0
LINE
8
0
6
CONTINUOUS
10
-100.141000
20
-56.514622
30
0.0
11
-100.141000
21
-57.931140
31
0.0
0
LINE
8
0
6
CONTINUOUS
10
-91.202000
20
-58.172525
30
0.0
11
-92.252000
21
-58.172525
31
0.0
0
LINE
8
0
6
CONTINUOUS
10
-90.752000
20
-58.172525
30
0.0
11
-91.202000
21
-58.172525
31
0.0
0
LINE
8
0
6
CONTINUOUS
10
-93.302000
20
-58.172525
30
0.0
11
-93.752000
21
-58.172525
31
0.0
0
LINE
8
0
6
CONTINUOUS
10
-92.252000
20
-58.172525
30
0.0
11
-93.302000
21
-58.172525
31
0.0
0
LINE
8
0
6
CONTINUOUS
10
-91.202000
20
-58.172525
30
0.0
11
-91.202000
21
-57.333594
31
0.0
0
LINE
8
0
6
CONTINUOUS
10
-92.252000
20
-58.172525
30
0.0
11
-91.202000
21
-58.172525
31
0.0
0
LINE
8
0
6
CONTINUOUS
10
-92.252000
20
-57.306839
30
0.0
11
-92.252000
21
-58.172525
31
0.0
0
LINE
8
0
6
CONTINUOUS
10
-90.752000
20
-58.172525
30
0.0
11
-90.752000
21
-57.392415
31
0.0
0
LINE
8
0
6
CONTINUOUS
10
-91.202000
20
-58.172525
30
0.0
11
-90.752000
21
-58.172525
31
0.0
0
LINE
8
0
6
CONTINUOUS
10
-91.202000
20
-57.333594
30
0.0
11
-91.202000
21
-58.172525
31
0.0
0
LINE
8
0
6
CONTINUOUS
10
-90.752000
20
-57.392415
30
0.0
11
-90.752000
21
-58.172525
31
0.0
0
LINE
8
0
6
CONTINUOUS
10
-93.752000
20
-58.172525
30
0.0
11
-93.752000
21
-57.383420
31
0.0
0
LINE
8
0
6
CONTINUOUS
10
-93.302000
20
-58.172525
30
0.0
11
-93.302000
21
-57.327697
31
0.0
0
LINE
8
0
6
CONTINUOUS
10
-93.752000
20
-58.172525
30
0.0
11
-93.302000
21
-58.172525
31
0.0
0
LINE
8
0
6
CONTINUOUS
10
-93.752000
20
-57.383420
30
0.0
11
-93.752000
21
-58.172525
31
0.0
0
LINE
8
0
6
CONTINUOUS
10
-92.252000
20
-58.172525
30
0.0
11
-92.252000
21
-57.306839
31
0.0
0
LINE
8
0
6
CONTINUOUS
10
-93.302000
20
-58.172525
30
0.0
11
-92.252000
21
-58.172525
31
0.0
0
LINE
8
0
6
CONTINUOUS
10
-93.302000
20
-57.327697
30
0.0
11
-93.302000
21
-58.172525
31
0.0
0
LINE
8
0
6
CONTINUOUS
10
-113.444100
20
-57.844403
30
0.0
11
-114.493700
21
-57.816650
31
0.0
0
LINE
8
0
6
CONTINUOUS
10
-112.994200
20
-57.856297
30
0.0
11
-113.444100
21
-57.844403
31
0.0
0
LINE
8
0
6
CONTINUOUS
10
-115.543300
20
-57.788897
30
0.0
11
-115.993200
21
-57.777003
31
0.0
0
LINE
8
0
6
CONTINUOUS
10
-114.493700
20
-57.816650
30
0.0
11
-115.543300
21
-57.788897
31
0.0
0
LINE
8
0
6
CONTINUOUS
10
-113.444100
20
-57.844403
30
0.0
11
-113.406979
21
-56.441467
31
0.0
0
LINE
8
0
6
CONTINUOUS
10
-114.493700
20
-57.816650
30
0.0
11
-113.444100
21
-57.844403
31
0.0
0
LINE
8
0
6
CONTINUOUS
10
-114.455611
20
-56.377120
30
0.0
11
-114.493700
21
-57.816650
31
0.0
0
LINE
8
0
6
CONTINUOUS
10
-112.994200
20
-57.856297
30
0.0
11
-112.959181
21
-56.532810
31
0.0
0
LINE
8
0
6
CONTINUOUS
10
-113.444100
20
-57.844403
30
0.0
11
-112.994200
21
-57.856297
31
0.0
0
LINE
8
0
6
CONTINUOUS
10
-113.406979
20
-56.441467
30
0.0
11
-113.444100
21
-57.844403
31
0.0
0
LINE
8
0
6
CONTINUOUS
10
-112.959181
20
-56.532810
30
0.0
11
-112.994200
21
-57.856297
31
0.0
0
LINE
8
0
6
CONTINUOUS
10
-115.993200
20
-57.777003
30
0.0
11
-115.959966
21
-56.520946
31
0.0
0
LINE
8
0
6
CONTINUOUS
10
-115.543300
20
-57.788897
30
0.0
11
-115.507222
21
-56.422782
31
0.0
0
LINE
8
0
6
CONTINUOUS
10
-115.993200
20
-57.777003
30
0.0
11
-115.543300
21
-57.788897
31
0.0
0
LINE
8
0
6
CONTINUOUS
10
-115.959966
20
-56.520946
30
0.0
11
-115.993200
21
-57.777003
31
0.0
0
LINE
8
0
6
CONTINUOUS
10
-114.493700
20
-57.816650
30
0.0
11
-114.455611
21
-56.377120
31
0.0
0
LINE
8
0
6
CONTINUOUS
10
-115.543300
20
-57.788897
30
0.0
11
-114.493700
21
-57.816650
31
0.0
0
LINE
8
0
6
CONTINUOUS
10
-115.507222
20
-56.422782
30
0.0
11
-115.543300
21
-57.788897
31
0.0
0
LINE
8
0
6
CONTINUOUS
10
-119.493900
20
-58.494713
30
0.0
11
-120.543900
21
-58.494713
31
0.0
0
LINE
8
0
6
CONTINUOUS
10
-119.043900
20
-58.494713
30
0.0
11
-119.493900
21
-58.494713
31
0.0
0
LINE
8
0
6
CONTINUOUS
10
-121.593900
20
-58.494713
30
0.0
11
-122.043900
21
-58.494713
31
0.0
0
LINE
8
0
6
CONTINUOUS
10
-120.543900
20
-58.494713
30
0.0
11
-121.593900
21
-58.494713
31
0.0
0
LINE
8
0
6
CONTINUOUS
10
-119.493900
20
-58.494713
30
0.0
11
-119.493900
21
-57.304304
31
0.0
0
LINE
8
0
6
CONTINUOUS
10
-120.543900
20
-58.494713
30
0.0
11
-119.493900
21
-58.494713
31
0.0
0
LINE
8
0
6
CONTINUOUS
10
-120.543900
20
-57.272590
30
0.0
11
-120.543900
21
-58.494713
31
0.0
0
LINE
8
0
6
CONTINUOUS
10
-119.043900
20
-58.494713
30
0.0
11
-119.043900
21
-57.361667
31
0.0
0
LINE
8
0
6
CONTINUOUS
10
-119.493900
20
-58.494713
30
0.0
11
-119.043900
21
-58.494713
31
0.0
0
LINE
8
0
6
CONTINUOUS
10
-119.493900
20
-57.304304
30
0.0
11
-119.493900
21
-58.494713
31
0.0
0
LINE
8
0
6
CONTINUOUS
10
-119.043900
20
-57.361667
30
0.0
11
-119.043900
21
-58.494713
31
0.0
0
LINE
8
0
6
CONTINUOUS
10
-122.043900
20
-58.494713
30
0.0
11
-122.043900
21
-57.327880
31
0.0
0
LINE
8
0
6
CONTINUOUS
10
-121.593900
20
-58.494713
30
0.0
11
-121.593900
21
-57.282923
31
0.0
0
LINE
8
0
6
CONTINUOUS
10
-122.043900
20
-58.494713
30
0.0
11
-121.593900
21
-58.494713
31
0.0
0
LINE
8
0
6
CONTINUOUS
10
-122.043900
20
-57.327880
30
0.0
11
-122.043900
21
-58.494713
31
0.0
0
LINE
8
0
6
CONTINUOUS
10
-120.543900
20
-58.494713
30
0.0
11
-120.543900
21
-57.272590
31
0.0
0
LINE
8
0
6
CONTINUOUS
10
-121.593900
20
-58.494713
30
0.0
11
-120.543900
21
-58.494713
31
0.0
0
LINE
8
0
6
CONTINUOUS
10
-121.593900
20
-57.282923
30
0.0
11
-121.593900
21
-58.494713
31
0.0
0
LINE
8
0
6
CONTINUOUS
10
-105.884300
20
-57.921203
30
0.0
11
-106.934300
21
-57.921203
31
0.0
0
LINE
8
0
6
CONTINUOUS
10
-105.434300
20
-57.921203
30
0.0
11
-105.884300
21
-57.921203
31
0.0
0
LINE
8
0
6
CONTINUOUS
10
-107.984300
20
-57.921203
30
0.0
11
-108.434300
21
-57.921203
31
0.0
0
LINE
8
0
6
CONTINUOUS
10
-106.934300
20
-57.921203
30
0.0
11
-107.984300
21
-57.921203
31
0.0
0
LINE
8
0
6
CONTINUOUS
10
-105.884300
20
-57.921203
30
0.0
11
-105.884300
21
-57.285974
31
0.0
0
LINE
8
0
6
CONTINUOUS
10
-106.934300
20
-57.921203
30
0.0
11
-105.884300
21
-57.921203
31
0.0
0
LINE
8
0
6
CONTINUOUS
10
-106.934300
20
-57.257370
30
0.0
11
-106.934300
21
-57.921203
31
0.0
0
LINE
8
0
6
CONTINUOUS
10
-105.434300
20
-57.921203
30
0.0
11
-105.434300
21
-57.344810
31
0.0
0
LINE
8
0
6
CONTINUOUS
10
-105.884300
20
-57.921203
30
0.0
11
-105.434300
21
-57.921203
31
0.0
0
LINE
8
0
6
CONTINUOUS
10
-105.884300
20
-57.285974
30
0.0
11
-105.884300
21
-57.921203
31
0.0
0
LINE
8
0
6
CONTINUOUS
10
-105.434300
20
-57.344810
30
0.0
11
-105.434300
21
-57.921203
31
0.0
0
LINE
8
0
6
CONTINUOUS
10
-108.434300
20
-57.921203
30
0.0
11
-108.434300
21
-57.332948
31
0.0
0
LINE
8
0
6
CONTINUOUS
10
-107.984300
20
-57.921203
30
0.0
11
-107.984300
21
-57.277671
31
0.0
0
LINE
8
0
6
CONTINUOUS
10
-108.434300
20
-57.921203
30
0.0
11
-107.984300
21
-57.921203
31
0.0
0
LINE
8
0
6
CONTINUOUS
10
-108.434300
20
-57.332948
30
0.0
11
-108.434300
21
-57.921203
31
0.0
0
LINE
8
0
6
CONTINUOUS
10
-106.934300
20
-57.921203
30
0.0
11
-106.934300
21
-57.257370
31
0.0
0
LINE
8
0
6
CONTINUOUS
10
-107.984300
20
-57.921203
30
0.0
11
-106.934300
21
-57.921203
31
0.0
0
LINE
8
0
6
CONTINUOUS
10
-107.984300
20
-57.277671
30
0.0
11
-107.984300
21
-57.921203
31
0.0
0
LINE
8
0
6
CONTINUOUS
10
-80.855000
20
-58.956882
30
0.0
11
-81.905000
21
-58.956882
31
0.0
0
LINE
8
0
6
CONTINUOUS
10
-80.405000
20
-58.956882
30
0.0
11
-80.855000
21
-58.956882
31
0.0
0
LINE
8
0
6
CONTINUOUS
10
-82.955000
20
-58.956882
30
0.0
11
-83.405000
21
-58.956882
31
0.0
0
LINE
8
0
6
CONTINUOUS
10
-81.905000
20
-58.956882
30
0.0
11
-82.955000
21
-58.956882
31
0.0
0
LINE
8
0
6
CONTINUOUS
10
-80.855000
20
-58.956882
30
0.0
11
-80.855000
21
-57.921096
31
0.0
0
LINE
8
0
6
CONTINUOUS
10
-81.905000
20
-58.956882
30
0.0
11
-80.855000
21
-58.956882
31
0.0
0
LINE
8
0
6
CONTINUOUS
10
-81.905000
20
-57.904833
30
0.0
11
-81.905000
21
-58.956882
31
0.0
0
LINE
8
0
6
CONTINUOUS
10
-80.405000
20
-58.956882
30
0.0
11
-80.405000
21
-57.957606
31
0.0
0
LINE
8
0
6
CONTINUOUS
10
-80.855000
20
-58.956882
30
0.0
11
-80.405000
21
-58.956882
31
0.0
0
LINE
8
0
6
CONTINUOUS
10
-80.855000
20
-57.921096
30
0.0
11
-80.855000
21
-58.956882
31
0.0
0
LINE
8
0
6
CONTINUOUS
10
-80.405000
20
-57.957606
30
0.0
11
-80.405000
21
-58.956882
31
0.0
0
LINE
8
0
6
CONTINUOUS
10
-83.405000
20
-58.956882
30
0.0
11
-83.405000
21
-57.955451
31
0.0
0
LINE
8
0
6
CONTINUOUS
10
-82.955000
20
-58.956882
30
0.0
11
-82.955000
21
-57.919587
31
0.0
0
LINE
8
0
6
CONTINUOUS
10
-83.405000
20
-58.956882
30
0.0
11
-82.955000
21
-58.956882
31
0.0
0
LINE
8
0
6
CONTINUOUS
10
-83.405000
20
-57.955451
30
0.0
11
-83.405000
21
-58.956882
31
0.0
0
LINE
8
0
6
CONTINUOUS
10
-81.905000
20
-58.956882
30
0.0
11
-81.905000
21
-57.904833
31
0.0
0
LINE
8
0
6
CONTINUOUS
10
-82.955000
20
-58.956882
30
0.0
11
-81.905000
21
-58.956882
31
0.0
0
LINE
8
0
6
CONTINUOUS
10
-82.955000
20
-57.919587
30
0.0
11
-82.955000
21
-58.956882
31
0.0
0
LINE
8
0
6
CONTINUOUS
10
-63.950000
20
-56.030080
30
0.0
11
-65.000000
21
-56.030080
31
0.0
0
LINE
8
0
6
CONTINUOUS
10
-63.500000
20
-56.030080
30
0.0
11
-63.950000
21
-56.030080
31
0.0
0
LINE
8
0
6
CONTINUOUS
10
-66.050000
20
-56.030080
30
0.0
11
-66.500000
21
-56.030080
31
0.0
0
LINE
8
0
6
CONTINUOUS
10
-65.000000
20
-56.030080
30
0.0
11
-66.050000
21
-56.030080
31
0.0
0
LINE
8
0
6
CONTINUOUS
10
-63.950000
20
-56.030080
30
0.0
11
-63.950000
21
-54.743750
31
0.0
0
LINE
8
0
6
CONTINUOUS
10
-65.000000
20
-56.030080
30
0.0
11
-63.950000
21
-56.030080
31
0.0
0
LINE
8
0
6
CONTINUOUS
10
-65.000000
20
-54.687500
30
0.0
11
-65.000000
21
-56.030080
31
0.0
0
LINE
8
0
6
CONTINUOUS
10
-63.500000
20
-56.030080
30
0.0
11
-63.500000
21
-54.875000
31
0.0
0
LINE
8
0
6
CONTINUOUS
10
-63.950000
20
-56.030080
30
0.0
11
-63.500000
21
-56.030080
31
0.0
0
LINE
8
0
6
CONTINUOUS
10
-63.950000
20
-54.743750
30
0.0
11
-63.950000
21
-56.030080
31
0.0
0
LINE
8
0
6
CONTINUOUS
10
-63.500000
20
-54.875000
30
0.0
11
-63.500000
21
-56.030080
31
0.0
0
LINE
8
0
6
CONTINUOUS
10
-66.500000
20
-56.030080
30
0.0
11
-66.500000
21
-54.871591
31
0.0
0
LINE
8
0
6
CONTINUOUS
10
-66.050000
20
-56.030080
30
0.0
11
-66.050000
21
-54.741364
31
0.0
0
LINE
8
0
6
CONTINUOUS
10
-66.500000
20
-56.030080
30
0.0
11
-66.050000
21
-56.030080
31
0.0
0
LINE
8
0
6
CONTINUOUS
10
-66.500000
20
-54.871591
30
0.0
11
-66.500000
21
-56.030080
31
0.0
0
LINE
8
0
6
CONTINUOUS
10
-65.000000
20
-56.030080
30
0.0
11
-65.000000
21
-54.687500
31
0.0
0
LINE
8
0
6
CONTINUOUS
10
-66.050000
20
-56.030080
30
0.0
11
-65.000000
21
-56.030080
31
0.0
0
LINE
8
0
6
CONTINUOUS
10
-66.050000
20
-54.741364
30
0.0
11
-66.050000
21
-56.030080
31
0.0
0
LINE
8
0
6
CONTINUOUS
10
-94.060000
20
-55.728490
30
0.0
11
-95.110000
21
-55.728490
31
0.0
0
LINE
8
0
6
CONTINUOUS
10
-93.610000
20
-55.728490
30
0.0
11
-94.060000
21
-55.728490
31
0.0
0
LINE
8
0
6
CONTINUOUS
10
-96.159900
20
-55.728490
30
0.0
11
-96.609900
21
-55.728490
31
0.0
0
LINE
8
0
6
CONTINUOUS
10
-95.110000
20
-55.728490
30
0.0
11
-96.159900
21
-55.728490
31
0.0
0
LINE
8
0
6
CONTINUOUS
10
-94.060000
20
-55.728490
30
0.0
11
-94.060000
21
-54.716106
31
0.0
0
LINE
8
0
6
CONTINUOUS
10
-95.110000
20
-55.728490
30
0.0
11
-94.060000
21
-55.728490
31
0.0
0
LINE
8
0
6
CONTINUOUS
10
-95.110000
20
-54.657155
30
0.0
11
-95.110000
21
-55.728490
31
0.0
0
LINE
8
0
6
CONTINUOUS
10
-93.610000
20
-55.728490
30
0.0
11
-93.610000
21
-54.848454
31
0.0
0
LINE
8
0
6
CONTINUOUS
10
-94.060000
20
-55.728490
30
0.0
11
-93.610000
21
-55.728490
31
0.0
0
LINE
8
0
6
CONTINUOUS
10
-94.060000
20
-54.716106
30
0.0
11
-94.060000
21
-55.728490
31
0.0
0
LINE
8
0
6
CONTINUOUS
10
-93.610000
20
-54.848454
30
0.0
11
-93.610000
21
-55.728490
31
0.0
0
LINE
8
0
6
CONTINUOUS
10
-96.609900
20
-55.728490
30
0.0
11
-96.609900
21
-54.840646
31
0.0
0
LINE
8
0
6
CONTINUOUS
10
-96.159900
20
-55.728490
30
0.0
11
-96.159900
21
-54.710641
31
0.0
0
LINE
8
0
6
CONTINUOUS
10
-96.609900
20
-55.728490
30
0.0
11
-96.159900
21
-55.728490
31
0.0
0
LINE
8
0
6
CONTINUOUS
10
-96.609900
20
-54.840646
30
0.0
11
-96.609900
21
-55.728490
31
0.0
0
LINE
8
0
6
CONTINUOUS
10
-95.110000
20
-55.728490
30
0.0
11
-95.110000
21
-54.657155
31
0.0
0
LINE
8
0
6
CONTINUOUS
10
-96.159900
20
-55.728490
30
0.0
11
-95.110000
21
-55.728490
31
0.0
0
LINE
8
0
6
CONTINUOUS
10
-96.159900
20
-54.710641
30
0.0
11
-96.159900
21
-55.728490
31
0.0
0
LINE
8
0
6
CONTINUOUS
10
-109.279700
20
-55.959940
30
0.0
11
-110.329700
21
-55.959940
31
0.0
0
LINE
8
0
6
CONTINUOUS
10
-108.829700
20
-55.959940
30
0.0
11
-109.279700
21
-55.959940
31
0.0
0
LINE
8
0
6
CONTINUOUS
10
-111.379700
20
-55.959940
30
0.0
11
-111.829700
21
-55.959940
31
0.0
0
LINE
8
0
6
CONTINUOUS
10
-110.329700
20
-55.959940
30
0.0
11
-111.379700
21
-55.959940
31
0.0
0
LINE
8
0
6
CONTINUOUS
10
-109.279700
20
-55.959940
30
0.0
11
-109.279700
21
-54.753509
31
0.0
0
LINE
8
0
6
CONTINUOUS
10
-110.329700
20
-55.959940
30
0.0
11
-109.279700
21
-55.959940
31
0.0
0
LINE
8
0
6
CONTINUOUS
10
-110.329700
20
-54.689911
30
0.0
11
-110.329700
21
-55.959940
31
0.0
0
LINE
8
0
6
CONTINUOUS
10
-108.829700
20
-55.959940
30
0.0
11
-108.829700
21
-54.886029
31
0.0
0
LINE
8
0
6
CONTINUOUS
10
-109.279700
20
-55.959940
30
0.0
11
-108.829700
21
-55.959940
31
0.0
0
LINE
8
0
6
CONTINUOUS
10
-109.279700
20
-54.753509
30
0.0
11
-109.279700
21
-55.959940
31
0.0
0
LINE
8
0
6
CONTINUOUS
10
-108.829700
20
-54.886029
30
0.0
11
-108.829700
21
-55.959940
31
0.0
0
LINE
8
0
6
CONTINUOUS
10
-111.829700
20
-55.959940
30
0.0
11
-111.829700
21
-54.862220
31
0.0
0
LINE
8
0
6
CONTINUOUS
10
-111.379700
20
-55.959940
30
0.0
11
-111.379700
21
-54.736842
31
0.0
0
LINE
8
0
6
CONTINUOUS
10
-111.829700
20
-55.959940
30
0.0
11
-111.379700
21
-55.959940
31
0.0
0
LINE
8
0
6
CONTINUOUS
10
-111.829700
20
-54.862220
30
0.0
11
-111.829700
21
-55.959940
31
0.0
0
LINE
8
0
6
CONTINUOUS
10
-110.329700
20
-55.959940
30
0.0
11
-110.329700
21
-54.689911
31
0.0
0
LINE
8
0
6
CONTINUOUS
10
-111.379700
20
-55.959940
30
0.0
11
-110.329700
21
-55.959940
31
0.0
0
LINE
8
0
6
CONTINUOUS
10
-111.379700
20
-54.736842
30
0.0
11
-111.379700
21
-55.959940
31
0.0
0
LINE
8
0
6
CONTINUOUS
10
-78.950000
20
-56.030080
30
0.0
11
-80.000000
21
-56.030080
31
0.0
0
LINE
8
0
6
CONTINUOUS
10
-78.500000
20
-56.030080
30
0.0
11
-78.950000
21
-56.030080
31
0.0
0
LINE
8
0
6
CONTINUOUS
10
-81.050000
20
-56.030080
30
0.0
11
-81.500000
21
-56.030080
31
0.0
0
LINE
8
0
6
CONTINUOUS
10
-80.000000
20
-56.030080
30
0.0
11
-81.050000
21
-56.030080
31
0.0
0
LINE
8
0
6
CONTINUOUS
10
-78.950000
20
-56.030080
30
0.0
11
-78.950000
21
-54.712046
31
0.0
0
LINE
8
0
6
CONTINUOUS
10
-80.000000
20
-56.030080
30
0.0
11
-78.950000
21
-56.030080
31
0.0
0
LINE
8
0
6
CONTINUOUS
10
-80.000000
20
-54.653409
30
0.0
11
-80.000000
21
-56.030080
31
0.0
0
LINE
8
0
6
CONTINUOUS
10
-78.500000
20
-56.030080
30
0.0
11
-78.500000
21
-54.844318
31
0.0
0
LINE
8
0
6
CONTINUOUS
10
-78.950000
20
-56.030080
30
0.0
11
-78.500000
21
-56.030080
31
0.0
0
LINE
8
0
6
CONTINUOUS
10
-78.950000
20
-54.712046
30
0.0
11
-78.950000
21
-56.030080
31
0.0
0
LINE
8
0
6
CONTINUOUS
10
-78.500000
20
-54.844318
30
0.0
11
-78.500000
21
-56.030080
31
0.0
0
LINE
8
0
6
CONTINUOUS
10
-81.500000
20
-56.030080
30
0.0
11
-81.500000
21
-54.837500
31
0.0
0
LINE
8
0
6
CONTINUOUS
10
-81.050000
20
-56.030080
30
0.0
11
-81.050000
21
-54.707273
31
0.0
0
LINE
8
0
6
CONTINUOUS
10
-81.500000
20
-56.030080
30
0.0
11
-81.050000
21
-56.030080
31
0.0
0
LINE
8
0
6
CONTINUOUS
10
-81.500000
20
-54.837500
30
0.0
11
-81.500000
21
-56.030080
31
0.0
0
LINE
8
0
6
CONTINUOUS
10
-80.000000
20
-56.030080
30
0.0
11
-80.000000
21
-54.653409
31
0.0
0
LINE
8
0
6
CONTINUOUS
10
-81.050000
20
-56.030080
30
0.0
11
-80.000000
21
-56.030080
31
0.0
0
LINE
8
0
6
CONTINUOUS
10
-81.050000
20
-54.707273
30
0.0
11
-81.050000
21
-56.030080
31
0.0
0
LINE
8
0
6
CONTINUOUS
10
-127.776000
20
-57.796144
30
0.0
11
-128.824400
21
-57.737391
31
0.0
0
LINE
8
0
6
CONTINUOUS
10
-127.326700
20
-57.821324
30
0.0
11
-127.776000
21
-57.796144
31
0.0
0
LINE
8
0
6
CONTINUOUS
10
-129.872700
20
-57.678637
30
0.0
11
-130.322000
21
-57.653457
31
0.0
0
LINE
8
0
6
CONTINUOUS
10
-128.824400
20
-57.737391
30
0.0
11
-129.872700
21
-57.678637
31
0.0
0
LINE
8
0
6
CONTINUOUS
10
-127.776000
20
-57.796144
30
0.0
11
-127.697359
21
-56.392786
31
0.0
0
LINE
8
0
6
CONTINUOUS
10
-128.824400
20
-57.737391
30
0.0
11
-127.776000
21
-57.796144
31
0.0
0
LINE
8
0
6
CONTINUOUS
10
-128.745267
20
-56.325253
30
0.0
11
-128.824400
21
-57.737391
31
0.0
0
LINE
8
0
6
CONTINUOUS
10
-127.326700
20
-57.821324
30
0.0
11
-127.253250
21
-56.510596
31
0.0
0
LINE
8
0
6
CONTINUOUS
10
-127.776000
20
-57.796144
30
0.0
11
-127.326700
21
-57.821324
31
0.0
0
LINE
8
0
6
CONTINUOUS
10
-127.697359
20
-56.392786
30
0.0
11
-127.776000
21
-57.796144
31
0.0
0
LINE
8
0
6
CONTINUOUS
10
-127.253250
20
-56.510596
30
0.0
11
-127.326700
21
-57.821324
31
0.0
0
LINE
8
0
6
CONTINUOUS
10
-130.322000
20
-57.653457
30
0.0
11
-130.255802
21
-56.472150
31
0.0
0
LINE
8
0
6
CONTINUOUS
10
-129.872700
20
-57.678637
30
0.0
11
-129.798810
21
-56.360058
31
0.0
0
LINE
8
0
6
CONTINUOUS
10
-130.322000
20
-57.653457
30
0.0
11
-129.872700
21
-57.678637
31
0.0
0
LINE
8
0
6
CONTINUOUS
10
-130.255802
20
-56.472150
30
0.0
11
-130.322000
21
-57.653457
31
0.0
0
LINE
8
0
6
CONTINUOUS
10
-128.824400
20
-57.737391
30
0.0
11
-128.745267
21
-56.325253
31
0.0
0
LINE
8
0
6
CONTINUOUS
10
-129.872700
20
-57.678637
30
0.0
11
-128.824400
21
-57.737391
31
0.0
0
LINE
8
0
6
CONTINUOUS
10
-129.798810
20
-56.360058
30
0.0
11
-129.872700
21
-57.678637
31
0.0
0
LINE
8
0
6
CONTINUOUS
10
-139.111700
20
-55.998690
30
0.0
11
-140.158300
21
-55.914700
31
0.0
0
LINE
8
0
6
CONTINUOUS
10
-138.663100
20
-56.034690
30
0.0
11
-139.111700
21
-55.998690
31
0.0
0
LINE
8
0
6
CONTINUOUS
10
-141.205000
20
-55.830710
30
0.0
11
-141.653500
21
-55.794720
31
0.0
0
LINE
8
0
6
CONTINUOUS
10
-140.158300
20
-55.914700
30
0.0
11
-141.205000
21
-55.830710
31
0.0
0
LINE
8
0
6
CONTINUOUS
10
-139.111700
20
-55.998690
30
0.0
11
-139.010652
21
-54.739639
31
0.0
0
LINE
8
0
6
CONTINUOUS
10
-140.158300
20
-55.914700
30
0.0
11
-139.111700
21
-55.998690
31
0.0
0
LINE
8
0
6
CONTINUOUS
10
-140.058270
20
-54.668328
30
0.0
11
-140.158300
21
-55.914700
31
0.0
0
LINE
8
0
6
CONTINUOUS
10
-138.663100
20
-56.034690
30
0.0
11
-138.569566
21
-54.868539
31
0.0
0
LINE
8
0
6
CONTINUOUS
10
-139.111700
20
-55.998690
30
0.0
11
-138.663100
21
-56.034690
31
0.0
0
LINE
8
0
6
CONTINUOUS
10
-139.010652
20
-54.739639
30
0.0
11
-139.111700
21
-55.998690
31
0.0
0
LINE
8
0
6
CONTINUOUS
10
-138.569566
20
-54.868539
30
0.0
11
-138.663100
21
-56.034690
31
0.0
0
LINE
8
0
6
CONTINUOUS
10
-141.653500
20
-55.794720
30
0.0
11
-141.574654
21
-54.812298
31
0.0
0
LINE
8
0
6
CONTINUOUS
10
-141.205000
20
-55.830710
30
0.0
11
-141.114274
21
-54.700269
31
0.0
0
LINE
8
0
6
CONTINUOUS
10
-141.653500
20
-55.794720
30
0.0
11
-141.205000
21
-55.830710
31
0.0
0
LINE
8
0
6
CONTINUOUS
10
-141.574654
20
-54.812298
30
0.0
11
-141.653500
21
-55.794720
31
0.0
0
LINE
8
0
6
CONTINUOUS
10
-140.158300
20
-55.914700
30
0.0
11
-140.058270
21
-54.668328
31
0.0
0
LINE
8
0
6
CONTINUOUS
10
-141.205000
20
-55.830710
30
0.0
11
-140.158300
21
-55.914700
31
0.0
0
LINE
8
0
6
CONTINUOUS
10
-141.114274
20
-54.700269
30
0.0
11
-141.205000
21
-55.830710
31
0.0
0
LINE
8
0
6
CONTINUOUS
10
-123.510400
20
-55.869640
30
0.0
11
-124.560400
21
-55.869640
31
0.0
0
LINE
8
0
6
CONTINUOUS
10
-123.060400
20
-55.869640
30
0.0
11
-123.510400
21
-55.869640
31
0.0
0
LINE
8
0
6
CONTINUOUS
10
-125.610400
20
-55.869640
30
0.0
11
-126.060400
21
-55.869640
31
0.0
0
LINE
8
0
6
CONTINUOUS
10
-124.560400
20
-55.869640
30
0.0
11
-125.610400
21
-55.869640
31
0.0
0
LINE
8
0
6
CONTINUOUS
10
-123.510400
20
-55.869640
30
0.0
11
-123.510400
21
-54.761494
31
0.0
0
LINE
8
0
6
CONTINUOUS
10
-124.560400
20
-55.869640
30
0.0
11
-123.510400
21
-55.869640
31
0.0
0
LINE
8
0
6
CONTINUOUS
10
-124.560400
20
-54.697134
30
0.0
11
-124.560400
21
-55.869640
31
0.0
0
LINE
8
0
6
CONTINUOUS
10
-123.060400
20
-55.869640
30
0.0
11
-123.060400
21
-54.893872
31
0.0
0
LINE
8
0
6
CONTINUOUS
10
-123.510400
20
-55.869640
30
0.0
11
-123.060400
21
-55.869640
31
0.0
0
LINE
8
0
6
CONTINUOUS
10
-123.510400
20
-54.761494
30
0.0
11
-123.510400
21
-55.869640
31
0.0
0
LINE
8
0
6
CONTINUOUS
10
-123.060400
20
-54.893872
30
0.0
11
-123.060400
21
-55.869640
31
0.0
0
LINE
8
0
6
CONTINUOUS
10
-126.060400
20
-55.869640
30
0.0
11
-126.060400
21
-54.867181
31
0.0
0
LINE
8
0
6
CONTINUOUS
10
-125.610400
20
-55.869640
30
0.0
11
-125.610400
21
-54.742810
31
0.0
0
LINE
8
0
6
CONTINUOUS
10
-126.060400
20
-55.869640
30
0.0
11
-125.610400
21
-55.869640
31
0.0
0
LINE
8
0
6
CONTINUOUS
10
-126.060400
20
-54.867181
30
0.0
11
-126.060400
21
-55.869640
31
0.0
0
LINE
8
0
6
CONTINUOUS
10
-124.560400
20
-55.869640
30
0.0
11
-124.560400
21
-54.697134
31
0.0
0
LINE
8
0
6
CONTINUOUS
10
-125.610400
20
-55.869640
30
0.0
11
-124.560400
21
-55.869640
31
0.0
0
LINE
8
0
6
CONTINUOUS
10
-125.610400
20
-54.742810
30
0.0
11
-125.610400
21
-55.869640
31
0.0
0
LINE
8
0
6
CONTINUOUS
10
-78.139000
20
-59.500000
30
0.0
11
-77.689000
21
-59.500000
31
0.0
0
LINE
8
0
6
CONTINUOUS
10
-79.189000
20
-59.500000
30
0.0
11
-78.139000
21
-59.500000
31
0.0
0
LINE
8
0
6
CONTINUOUS
10
-80.239000
20
-59.500000
30
0.0
11
-79.189000
21
-59.500000
31
0.0
0
LINE
8
0
6
CONTINUOUS
10
-80.689000
20
-59.500000
30
0.0
11
-80.239000
21
-59.500000
31
0.0
0
LINE
8
0
6
CONTINUOUS
10
-80.689000
20
-58.500000
30
0.0
11
-80.689000
21
-59.500000
31
0.0
0
LINE
8
0
6
CONTINUOUS
10
-77.689000
20
-59.500000
30
0.0
11
-77.689000
21
-58.500000
31
0.0
0
LINE
8
0
6
CONTINUOUS
10
-78.139000
20
-59.500000
30
0.0
11
-78.139000
21
-58.500000
31
0.0
0
LINE
8
0
6
CONTINUOUS
10
-77.689000
20
-59.500000
30
0.0
11
-78.139000
21
-59.500000
31
0.0
0
LINE
8
0
6
CONTINUOUS
10
-77.689000
20
-58.500000
30
0.0
11
-77.689000
21
-59.500000
31
0.0
0
LINE
8
0
6
CONTINUOUS
10
-79.189000
20
-59.500000
30
0.0
11
-79.189000
21
-58.500000
31
0.0
0
LINE
8
0
6
CONTINUOUS
10
-78.139000
20
-59.500000
30
0.0
11
-79.189000
21
-59.500000
31
0.0
0
LINE
8
0
6
CONTINUOUS
10
-78.139000
20
-58.500000
30
0.0
11
-78.139000
21
-59.500000
31
0.0
0
LINE
8
0
6
CONTINUOUS
10
-80.239000
20
-59.500000
30
0.0
11
-80.239000
21
-58.500000
31
0.0
0
LINE
8
0
6
CONTINUOUS
10
-79.189000
20
-59.500000
30
0.0
11
-80.239000
21
-59.500000
31
0.0
0
LINE
8
0
6
CONTINUOUS
10
-79.189000
20
-58.500000
30
0.0
11
-79.189000
21
-59.500000
31
0.0
0
LINE
8
0
6
CONTINUOUS
10
-80.689000
20
-59.500000
30
0.0
11
-80.689000
21
-58.500000
31
0.0
0
LINE
8
0
6
CONTINUOUS
10
-80.239000
20
-59.500000
30
0.0
11
-80.689000
21
-59.500000
31
0.0
0
LINE
8
0
6
CONTINUOUS
10
-80.239000
20
-58.500000
30
0.0
11
-80.239000
21
-59.500000
31
0.0
0
LINE
8
0
6
CONTINUOUS
10
-95.101000
20
-59.198414
30
0.0
11
-94.651000
21
-59.198414
31
0.0
0
LINE
8
0
6
CONTINUOUS
10
-96.150900
20
-59.198414
30
0.0
11
-95.101000
21
-59.198414
31
0.0
0
LINE
8
0
6
CONTINUOUS
10
-97.200900
20
-59.198414
30
0.0
11
-96.150900
21
-59.198414
31
0.0
0
LINE
8
0
6
CONTINUOUS
10
-97.650900
20
-59.198414
30
0.0
11
-97.200900
21
-59.198414
31
0.0
0
LINE
8
0
6
CONTINUOUS
10
-97.650900
20
-58.500000
30
0.0
11
-97.650900
21
-59.198414
31
0.0
0
LINE
8
0
6
CONTINUOUS
10
-94.651000
20
-59.198414
30
0.0
11
-94.651000
21
-58.500000
31
0.0
0
LINE
8
0
6
CONTINUOUS
10
-95.101000
20
-59.198414
30
0.0
11
-95.101000
21
-58.500000
31
0.0
0
LINE
8
0
6
CONTINUOUS
10
-94.651000
20
-59.198414
30
0.0
11
-95.101000
21
-59.198414
31
0.0
0
LINE
8
0
6
CONTINUOUS
10
-94.651000
20
-58.500000
30
0.0
11
-94.651000
21
-59.198414
31
0.0
0
LINE
8
0
6
CONTINUOUS
10
-96.150900
20
-59.198414
30
0.0
11
-96.150900
21
-58.500000
31
0.0
0
LINE
8
0
6
CONTINUOUS
10
-95.101000
20
-59.198414
30
0.0
11
-96.150900
21
-59.198414
31
0.0
0
LINE
8
0
6
CONTINUOUS
10
-95.101000
20
-58.500000
30
0.0
11
-95.101000
21
-59.198414
31
0.0
0
LINE
8
0
6
CONTINUOUS
10
-97.200900
20
-59.198414
30
0.0
11
-97.200900
21
-58.500000
31
0.0
0
LINE
8
0
6
CONTINUOUS
10
-96.150900
20
-59.198414
30
0.0
11
-97.200900
21
-59.198414
31
0.0
0
LINE
8
0
6
CONTINUOUS
10
-96.150900
20
-58.500000
30
0.0
11
-96.150900
21
-59.198414
31
0.0
0
LINE
8
0
6
CONTINUOUS
10
-97.650900
20
-59.198414
30
0.0
11
-97.650900
21
-58.500000
31
0.0
0
LINE
8
0
6
CONTINUOUS
10
-97.200900
20
-59.198414
30
0.0
11
-97.650900
21
-59.198414
31
0.0
0
LINE
8
0
6
CONTINUOUS
10
-97.200900
20
-58.500000
30
0.0
11
-97.200900
21
-59.198414
31
0.0
0
LINE
8
0
6
CONTINUOUS
10
-115.633600
20
-58.661533
30
0.0
11
-115.183800
21
-58.673427
31
0.0
0
LINE
8
0
6
CONTINUOUS
10
-116.683200
20
-58.633780
30
0.0
11
-115.633600
21
-58.661533
31
0.0
0
LINE
8
0
6
CONTINUOUS
10
-117.732900
20
-58.606027
30
0.0
11
-116.683200
21
-58.633780
31
0.0
0
LINE
8
0
6
CONTINUOUS
10
-118.182700
20
-58.594133
30
0.0
11
-117.732900
21
-58.606027
31
0.0
0
LINE
8
0
6
CONTINUOUS
10
-118.162438
20
-57.828333
30
0.0
11
-118.182700
21
-58.594133
31
0.0
0
LINE
8
0
6
CONTINUOUS
10
-115.183800
20
-58.673427
30
0.0
11
-115.163849
21
-57.919408
31
0.0
0
LINE
8
0
6
CONTINUOUS
10
-115.633600
20
-58.661533
30
0.0
11
-115.613403
21
-57.898208
31
0.0
0
LINE
8
0
6
CONTINUOUS
10
-115.183800
20
-58.673427
30
0.0
11
-115.633600
21
-58.661533
31
0.0
0
LINE
8
0
6
CONTINUOUS
10
-115.163849
20
-57.919408
30
0.0
11
-115.183800
21
-58.673427
31
0.0
0
LINE
8
0
6
CONTINUOUS
10
-116.683200
20
-58.633780
30
0.0
11
-116.662861
21
-57.863620
31
0.0
0
LINE
8
0
6
CONTINUOUS
10
-115.633600
20
-58.661533
30
0.0
11
-116.683200
21
-58.633780
31
0.0
0
LINE
8
0
6
CONTINUOUS
10
-115.613403
20
-57.898208
30
0.0
11
-115.633600
21
-58.661533
31
0.0
0
LINE
8
0
6
CONTINUOUS
10
-117.732900
20
-58.606027
30
0.0
11
-117.712518
21
-57.835727
31
0.0
0
LINE
8
0
6
CONTINUOUS
10
-116.683200
20
-58.633780
30
0.0
11
-117.732900
21
-58.606027
31
0.0
0
LINE
8
0
6
CONTINUOUS
10
-116.662861
20
-57.863620
30
0.0
11
-116.683200
21
-58.633780
31
0.0
0
LINE
8
0
6
CONTINUOUS
10
-118.182700
20
-58.594133
30
0.0
11
-118.162438
21
-57.828333
31
0.0
0
LINE
8
0
6
CONTINUOUS
10
-117.732900
20
-58.606027
30
0.0
11
-118.182700
21
-58.594133
31
0.0
0
LINE
8
0
6
CONTINUOUS
10
-117.712518
20
-57.835727
30
0.0
11
-117.732900
21
-58.606027
31
0.0
0
LINE
8
0
6
CONTINUOUS
10
-118.474200
20
-58.586425
30
0.0
11
-118.024400
21
-58.598319
31
0.0
0
LINE
8
0
6
CONTINUOUS
10
-118.455114
20
-57.863721
30
0.0
11
-118.474200
21
-58.586425
31
0.0
0
LINE
8
0
6
CONTINUOUS
10
-118.474200
20
-58.586425
30
0.0
11
-118.456021
21
-57.898068
31
0.0
0
LINE
8
0
6
CONTINUOUS
10
-118.024400
20
-58.598319
30
0.0
11
-118.474200
21
-58.586425
31
0.0
0
LINE
8
0
6
CONTINUOUS
10
-113.409400
20
-58.720342
30
0.0
11
-112.959500
21
-58.732236
31
0.0
0
LINE
8
0
6
CONTINUOUS
10
-114.459000
20
-58.692590
30
0.0
11
-113.409400
21
-58.720342
31
0.0
0
LINE
8
0
6
CONTINUOUS
10
-115.508600
20
-58.664837
30
0.0
11
-114.459000
21
-58.692590
31
0.0
0
LINE
8
0
6
CONTINUOUS
10
-112.959500
20
-58.732236
30
0.0
11
-112.942491
21
-58.088190
31
0.0
0
LINE
8
0
6
CONTINUOUS
10
-113.409400
20
-58.720342
30
0.0
11
-113.392263
21
-58.072681
31
0.0
0
LINE
8
0
6
CONTINUOUS
10
-112.959500
20
-58.732236
30
0.0
11
-113.409400
21
-58.720342
31
0.0
0
LINE
8
0
6
CONTINUOUS
10
-112.942188
20
-58.076708
30
0.0
11
-112.959500
21
-58.732236
31
0.0
0
LINE
8
0
6
CONTINUOUS
10
-114.459000
20
-58.692590
30
0.0
11
-114.441640
21
-58.036495
31
0.0
0
LINE
8
0
6
CONTINUOUS
10
-113.409400
20
-58.720342
30
0.0
11
-114.459000
21
-58.692590
31
0.0
0
LINE
8
0
6
CONTINUOUS
10
-113.391940
20
-58.060454
30
0.0
11
-113.409400
21
-58.720342
31
0.0
0
LINE
8
0
6
CONTINUOUS
10
-114.459000
20
-58.692590
30
0.0
11
-115.508600
21
-58.664837
31
0.0
0
LINE
8
0
6
CONTINUOUS
10
-114.441309
20
-58.023966
30
0.0
11
-114.459000
21
-58.692590
31
0.0
0
LINE
8
0
6
CONTINUOUS
10
-128.205000
20
-58.315223
30
0.0
11
-127.755700
21
-58.340403
31
0.0
0
LINE
8
0
6
CONTINUOUS
10
-129.253300
20
-58.256469
30
0.0
11
-128.205000
21
-58.315223
31
0.0
0
LINE
8
0
6
CONTINUOUS
10
-130.301700
20
-58.197715
30
0.0
11
-129.253300
21
-58.256469
31
0.0
0
LINE
8
0
6
CONTINUOUS
10
-130.751000
20
-58.172535
30
0.0
11
-130.301700
21
-58.197715
31
0.0
0
LINE
8
0
6
CONTINUOUS
10
-130.702814
20
-57.313427
30
0.0
11
-130.751000
21
-58.172535
31
0.0
0
LINE
8
0
6
CONTINUOUS
10
-127.755700
20
-58.340403
30
0.0
11
-127.712987
21
-57.578863
31
0.0
0
LINE
8
0
6
CONTINUOUS
10
-128.205000
20
-58.315223
30
0.0
11
-128.162829
21
-57.563351
31
0.0
0
LINE
8
0
6
CONTINUOUS
10
-127.755700
20
-58.340403
30
0.0
11
-128.205000
21
-58.315223
31
0.0
0
LINE
8
0
6
CONTINUOUS
10
-127.712987
20
-57.578863
30
0.0
11
-127.755700
21
-58.340403
31
0.0
0
LINE
8
0
6
CONTINUOUS
10
-129.253300
20
-58.256469
30
0.0
11
-129.212431
21
-57.527158
31
0.0
0
LINE
8
0
6
CONTINUOUS
10
-128.205000
20
-58.315223
30
0.0
11
-129.253300
21
-58.256469
31
0.0
0
LINE
8
0
6
CONTINUOUS
10
-128.162829
20
-57.563351
30
0.0
11
-128.205000
21
-58.315223
31
0.0
0
LINE
8
0
6
CONTINUOUS
10
-130.301700
20
-58.197715
30
0.0
11
-130.261787
21
-57.485456
31
0.0
0
LINE
8
0
6
CONTINUOUS
10
-129.253300
20
-58.256469
30
0.0
11
-130.301700
21
-58.197715
31
0.0
0
LINE
8
0
6
CONTINUOUS
10
-129.212431
20
-57.527158
30
0.0
11
-129.253300
21
-58.256469
31
0.0
0
LINE
8
0
6
CONTINUOUS
10
-130.751000
20
-58.172535
30
0.0
11
-130.702814
21
-57.313427
31
0.0
0
LINE
8
0
6
CONTINUOUS
10
-130.301700
20
-58.197715
30
0.0
11
-130.751000
21
-58.172535
31
0.0
0
LINE
8
0
6
CONTINUOUS
10
-130.261787
20
-57.485456
30
0.0
11
-130.301700
21
-58.197715
31
0.0
0
LINE
8
0
6
CONTINUOUS
10
-131.000300
20
-58.158559
30
0.0
11
-129.952000
21
-58.217313
31
0.0
0
LINE
8
0
6
CONTINUOUS
10
-132.048700
20
-58.099806
30
0.0
11
-131.000300
21
-58.158559
31
0.0
0
LINE
8
0
6
CONTINUOUS
10
-132.498000
20
-58.074625
30
0.0
11
-132.048700
21
-58.099806
31
0.0
0
LINE
8
0
6
CONTINUOUS
10
-132.454040
20
-57.290160
30
0.0
11
-132.498000
21
-58.074625
31
0.0
0
LINE
8
0
6
CONTINUOUS
10
-131.000300
20
-58.158559
30
0.0
11
-130.955867
21
-57.365638
31
0.0
0
LINE
8
0
6
CONTINUOUS
10
-129.952000
20
-58.217313
30
0.0
11
-131.000300
21
-58.158559
31
0.0
0
LINE
8
0
6
CONTINUOUS
10
-132.048700
20
-58.099806
30
0.0
11
-132.004466
21
-57.310438
31
0.0
0
LINE
8
0
6
CONTINUOUS
10
-131.000300
20
-58.158559
30
0.0
11
-132.048700
21
-58.099806
31
0.0
0
LINE
8
0
6
CONTINUOUS
10
-130.955867
20
-57.365638
30
0.0
11
-131.000300
21
-58.158559
31
0.0
0
LINE
8
0
6
CONTINUOUS
10
-132.498000
20
-58.074625
30
0.0
11
-132.454040
21
-57.290160
31
0.0
0
LINE
8
0
6
CONTINUOUS
10
-132.048700
20
-58.099806
30
0.0
11
-132.498000
21
-58.074625
31
0.0
0
LINE
8
0
6
CONTINUOUS
10
-132.004466
20
-57.310438
30
0.0
11
-132.048700
21
-58.099806
31
0.0
0
LINE
8
0
6
CONTINUOUS
10
-132.934700
20
-58.050148
30
0.0
11
-132.485500
21
-58.075328
31
0.0
0
LINE
8
0
6
CONTINUOUS
10
-132.893182
20
-57.309250
30
0.0
11
-132.934700
21
-58.050148
31
0.0
0
LINE
8
0
6
CONTINUOUS
10
-132.934700
20
-58.050148
30
0.0
11
-132.894859
21
-57.339175
31
0.0
0
LINE
8
0
6
CONTINUOUS
10
-132.485500
20
-58.075328
30
0.0
11
-132.934700
21
-58.050148
31
0.0
0
LINE
8
0
6
CONTINUOUS
10
-133.039747
20
-57.318319
30
0.0
11
-133.080300
21
-58.041989
31
0.0
0
LINE
8
0
6
CONTINUOUS
10
-133.080300
20
-58.041989
30
0.0
11
-133.040463
21
-57.331085
31
0.0
0
LINE
8
0
6
CONTINUOUS
10
-151.740000
20
-55.887550
30
0.0
11
-151.293200
21
-55.940540
31
0.0
0
LINE
8
0
6
CONTINUOUS
10
-152.782700
20
-55.763910
30
0.0
11
-151.740000
21
-55.887550
31
0.0
0
LINE
8
0
6
CONTINUOUS
10
-153.825400
20
-55.640270
30
0.0
11
-152.782700
21
-55.763910
31
0.0
0
LINE
8
0
6
CONTINUOUS
10
-154.272300
20
-55.587280
30
0.0
11
-153.825400
21
-55.640270
31
0.0
0
LINE
8
0
6
CONTINUOUS
10
-154.166793
20
-54.697487
30
0.0
11
-154.272300
21
-55.587280
31
0.0
0
LINE
8
0
6
CONTINUOUS
10
-151.293200
20
-55.940540
30
0.0
11
-151.170581
21
-54.906436
31
0.0
0
LINE
8
0
6
CONTINUOUS
10
-151.740000
20
-55.887550
30
0.0
11
-151.610804
21
-54.797985
31
0.0
0
LINE
8
0
6
CONTINUOUS
10
-151.293200
20
-55.940540
30
0.0
11
-151.740000
21
-55.887550
31
0.0
0
LINE
8
0
6
CONTINUOUS
10
-151.170581
20
-54.906436
30
0.0
11
-151.293200
21
-55.940540
31
0.0
0
LINE
8
0
6
CONTINUOUS
10
-152.782700
20
-55.763910
30
0.0
11
-152.656638
21
-54.700773
31
0.0
0
LINE
8
0
6
CONTINUOUS
10
-151.740000
20
-55.887550
30
0.0
11
-152.782700
21
-55.763910
31
0.0
0
LINE
8
0
6
CONTINUOUS
10
-151.610804
20
-54.797985
30
0.0
11
-151.740000
21
-55.887550
31
0.0
0
LINE
8
0
6
CONTINUOUS
10
-153.825400
20
-55.640270
30
0.0
11
-153.710486
21
-54.671149
31
0.0
0
LINE
8
0
6
CONTINUOUS
10
-152.782700
20
-55.763910
30
0.0
11
-153.825400
21
-55.640270
31
0.0
0
LINE
8
0
6
CONTINUOUS
10
-152.656638
20
-54.700773
30
0.0
11
-152.782700
21
-55.763910
31
0.0
0
LINE
8
0
6
CONTINUOUS
10
-154.272300
20
-55.587280
30
0.0
11
-154.166793
21
-54.697487
31
0.0
0
LINE
8
0
6
CONTINUOUS
10
-153.825400
20
-55.640270
30
0.0
11
-154.272300
21
-55.587280
31
0.0
0
LINE
8
0
6
CONTINUOUS
10
-153.710486
20
-54.671149
30
0.0
11
-153.825400
21
-55.640270
31
0.0
0
LINE
8
0
6
CONTINUOUS
10
-157.914900
20
-56.329140
30
0.0
11
-157.468900
21
-56.389440
31
0.0
0
LINE
8
0
6
CONTINUOUS
10
-158.955400
20
-56.188440
30
0.0
11
-157.914900
21
-56.329140
31
0.0
0
LINE
8
0
6
CONTINUOUS
10
-159.995900
20
-56.047740
30
0.0
11
-158.955400
21
-56.188440
31
0.0
0
LINE
8
0
6
CONTINUOUS
10
-160.441900
20
-55.987440
30
0.0
11
-159.995900
21
-56.047740
31
0.0
0
LINE
8
0
6
CONTINUOUS
10
-160.267476
20
-54.697512
30
0.0
11
-160.441900
21
-55.987440
31
0.0
0
LINE
8
0
6
CONTINUOUS
10
-157.468900
20
-56.389440
30
0.0
11
-157.914900
21
-56.329140
31
0.0
0
LINE
8
0
6
CONTINUOUS
10
-157.914900
20
-56.329140
30
0.0
11
-158.955400
21
-56.188440
31
0.0
0
LINE
8
0
6
CONTINUOUS
10
-159.995900
20
-56.047740
30
0.0
11
-159.819467
21
-54.742944
31
0.0
0
LINE
8
0
6
CONTINUOUS
10
-158.955400
20
-56.188440
30
0.0
11
-159.995900
21
-56.047740
31
0.0
0
LINE
8
0
6
CONTINUOUS
10
-160.441900
20
-55.987440
30
0.0
11
-160.267476
21
-54.697512
31
0.0
0
LINE
8
0
6
CONTINUOUS
10
-159.995900
20
-56.047740
30
0.0
11
-160.441900
21
-55.987440
31
0.0
0
LINE
8
0
6
CONTINUOUS
10
-159.819467
20
-54.742944
30
0.0
11
-159.995900
21
-56.047740
31
0.0
0
LINE
8
0
6
CONTINUOUS
10
-156.607200
20
-56.083530
30
0.0
11
-156.161300
21
-56.143830
31
0.0
0
LINE
8
0
6
CONTINUOUS
10
-157.647800
20
-55.942830
30
0.0
11
-156.607200
21
-56.083530
31
0.0
0
LINE
8
0
6
CONTINUOUS
10
-158.688300
20
-55.802130
30
0.0
11
-157.647800
21
-55.942830
31
0.0
0
LINE
8
0
6
CONTINUOUS
10
-159.134200
20
-55.741830
30
0.0
11
-158.688300
21
-55.802130
31
0.0
0
LINE
8
0
6
CONTINUOUS
10
-158.989179
20
-54.669348
30
0.0
11
-159.134200
21
-55.741830
31
0.0
0
LINE
8
0
6
CONTINUOUS
10
-156.161300
20
-56.143830
30
0.0
11
-156.008235
21
-55.011859
31
0.0
0
LINE
8
0
6
CONTINUOUS
10
-156.607200
20
-56.083530
30
0.0
11
-156.452726
21
-54.941136
31
0.0
0
LINE
8
0
6
CONTINUOUS
10
-156.161300
20
-56.143830
30
0.0
11
-156.607200
21
-56.083530
31
0.0
0
LINE
8
0
6
CONTINUOUS
10
-156.008235
20
-55.011859
30
0.0
11
-156.161300
21
-56.143830
31
0.0
0
LINE
8
0
6
CONTINUOUS
10
-157.647800
20
-55.942830
30
0.0
11
-157.495019
21
-54.812954
31
0.0
0
LINE
8
0
6
CONTINUOUS
10
-156.607200
20
-56.083530
30
0.0
11
-157.647800
21
-55.942830
31
0.0
0
LINE
8
0
6
CONTINUOUS
10
-156.452726
20
-54.941136
30
0.0
11
-156.607200
21
-56.083530
31
0.0
0
LINE
8
0
6
CONTINUOUS
10
-158.688300
20
-55.802130
30
0.0
11
-158.539456
21
-54.701370
31
0.0
0
LINE
8
0
6
CONTINUOUS
10
-157.647800
20
-55.942830
30
0.0
11
-158.688300
21
-55.802130
31
0.0
0
LINE
8
0
6
CONTINUOUS
10
-157.495019
20
-54.812954
30
0.0
11
-157.647800
21
-55.942830
31
0.0
0
LINE
8
0
6
CONTINUOUS
10
-159.134200
20
-55.741830
30
0.0
11
-158.989179
21
-54.669348
31
0.0
0
LINE
8
0
6
CONTINUOUS
10
-158.688300
20
-55.802130
30
0.0
11
-159.134200
21
-55.741830
31
0.0
0
LINE
8
0
6
CONTINUOUS
10
-158.539456
20
-54.701370
30
0.0
11
-158.688300
21
-55.802130
31
0.0
0
LINE
8
0
6
CONTINUOUS
10
-162.294400
20
-55.736950
30
0.0
11
-161.848400
21
-55.797250
31
0.0
0
LINE
8
0
6
CONTINUOUS
10
-162.148752
20
-54.659822
30
0.0
11
-162.294400
21
-55.736950
31
0.0
0
LINE
8
0
6
CONTINUOUS
10
-161.848400
20
-55.797250
30
0.0
11
-161.701779
21
-54.712929
31
0.0
0
LINE
8
0
6
CONTINUOUS
10
-162.294400
20
-55.736950
30
0.0
11
-162.148752
21
-54.659822
31
0.0
0
LINE
8
0
6
CONTINUOUS
10
-161.848400
20
-55.797250
30
0.0
11
-162.294400
21
-55.736950
31
0.0
0
LINE
8
0
6
CONTINUOUS
10
-161.701779
20
-54.712929
30
0.0
11
-161.848400
21
-55.797250
31
0.0
0
LINE
8
0
6
CONTINUOUS
10
-160.976700
20
-55.915120
30
0.0
11
-159.936100
21
-56.055820
31
0.0
0
LINE
8
0
6
CONTINUOUS
10
-161.422600
20
-55.854830
30
0.0
11
-160.976700
21
-55.915120
31
0.0
0
LINE
8
0
6
CONTINUOUS
10
-161.265495
20
-54.692975
30
0.0
11
-161.422600
21
-55.854830
31
0.0
0
LINE
8
0
6
CONTINUOUS
10
-160.976700
20
-55.915120
30
0.0
11
-160.817750
21
-54.739629
31
0.0
0
LINE
8
0
6
CONTINUOUS
10
-159.936100
20
-56.055820
30
0.0
11
-160.976700
21
-55.915120
31
0.0
0
LINE
8
0
6
CONTINUOUS
10
-161.422600
20
-55.854830
30
0.0
11
-161.265495
21
-54.692975
31
0.0
0
LINE
8
0
6
CONTINUOUS
10
-160.976700
20
-55.915120
30
0.0
11
-161.422600
21
-55.854830
31
0.0
0
LINE
8
0
6
CONTINUOUS
10
-160.817750
20
-54.739629
30
0.0
11
-160.976700
21
-55.915120
31
0.0
0
LINE
8
0
6
CONTINUOUS
10
-143.876700
20
-57.617097
30
0.0
11
-143.429600
21
-57.668054
31
0.0
0
LINE
8
0
6
CONTINUOUS
10
-144.920000
20
-57.498200
30
0.0
11
-143.876700
21
-57.617097
31
0.0
0
LINE
8
0
6
CONTINUOUS
10
-145.963200
20
-57.379300
30
0.0
11
-144.920000
21
-57.498200
31
0.0
0
LINE
8
0
6
CONTINUOUS
10
-146.410300
20
-57.328340
30
0.0
11
-145.963200
21
-57.379300
31
0.0
0
LINE
8
0
6
CONTINUOUS
10
-146.297418
20
-56.337557
30
0.0
11
-146.410300
21
-57.328340
31
0.0
0
LINE
8
0
6
CONTINUOUS
10
-143.429600
20
-57.668054
30
0.0
11
-143.305798
21
-56.581430
31
0.0
0
LINE
8
0
6
CONTINUOUS
10
-143.876700
20
-57.617097
30
0.0
11
-143.755094
21
-56.549752
31
0.0
0
LINE
8
0
6
CONTINUOUS
10
-143.429600
20
-57.668054
30
0.0
11
-143.876700
21
-57.617097
31
0.0
0
LINE
8
0
6
CONTINUOUS
10
-143.305798
20
-56.581430
30
0.0
11
-143.429600
21
-57.668054
31
0.0
0
LINE
8
0
6
CONTINUOUS
10
-144.920000
20
-57.498200
30
0.0
11
-144.804281
21
-56.482969
31
0.0
0
LINE
8
0
6
CONTINUOUS
10
-143.876700
20
-57.617097
30
0.0
11
-144.920000
21
-57.498200
31
0.0
0
LINE
8
0
6
CONTINUOUS
10
-143.755094
20
-56.549752
30
0.0
11
-143.876700
21
-57.617097
31
0.0
0
LINE
8
0
6
CONTINUOUS
10
-145.963200
20
-57.379300
30
0.0
11
-145.848370
21
-56.371425
31
0.0
0
LINE
8
0
6
CONTINUOUS
10
-144.920000
20
-57.498200
30
0.0
11
-145.963200
21
-57.379300
31
0.0
0
LINE
8
0
6
CONTINUOUS
10
-144.804281
20
-56.482969
30
0.0
11
-144.920000
21
-57.498200
31
0.0
0
LINE
8
0
6
CONTINUOUS
10
-146.410300
20
-57.328340
30
0.0
11
-146.297418
21
-56.337557
31
0.0
0
LINE
8
0
6
CONTINUOUS
10
-145.963200
20
-57.379300
30
0.0
11
-146.410300
21
-57.328340
31
0.0
0
LINE
8
0
6
CONTINUOUS
10
-145.848370
20
-56.371425
30
0.0
11
-145.963200
21
-57.379300
31
0.0
0
LINE
8
0
6
CONTINUOUS
10
-139.630700
20
-57.888127
30
0.0
11
-139.182200
21
-57.924123
31
0.0
0
LINE
8
0
6
CONTINUOUS
10
-140.677400
20
-57.804137
30
0.0
11
-139.630700
21
-57.888127
31
0.0
0
LINE
8
0
6
CONTINUOUS
10
-141.724000
20
-57.720148
30
0.0
11
-140.677400
21
-57.804137
31
0.0
0
LINE
8
0
6
CONTINUOUS
10
-142.172600
20
-57.684152
30
0.0
11
-141.724000
21
-57.720148
31
0.0
0
LINE
8
0
6
CONTINUOUS
10
-142.068675
20
-56.389248
30
0.0
11
-142.172600
21
-57.684152
31
0.0
0
LINE
8
0
6
CONTINUOUS
10
-139.182200
20
-57.924123
30
0.0
11
-139.071715
21
-56.547480
31
0.0
0
LINE
8
0
6
CONTINUOUS
10
-139.630700
20
-57.888127
30
0.0
11
-139.519128
21
-56.497952
31
0.0
0
LINE
8
0
6
CONTINUOUS
10
-139.182200
20
-57.924123
30
0.0
11
-139.630700
21
-57.888127
31
0.0
0
LINE
8
0
6
CONTINUOUS
10
-139.071715
20
-56.547480
30
0.0
11
-139.182200
21
-57.924123
31
0.0
0
LINE
8
0
6
CONTINUOUS
10
-140.677400
20
-57.804137
30
0.0
11
-140.564768
21
-56.400752
31
0.0
0
LINE
8
0
6
CONTINUOUS
10
-139.630700
20
-57.888127
30
0.0
11
-140.677400
21
-57.804137
31
0.0
0
LINE
8
0
6
CONTINUOUS
10
-139.519128
20
-56.497952
30
0.0
11
-139.630700
21
-57.888127
31
0.0
0
LINE
8
0
6
CONTINUOUS
10
-141.724000
20
-57.720148
30
0.0
11
-141.615055
21
-56.362699
31
0.0
0
LINE
8
0
6
CONTINUOUS
10
-140.677400
20
-57.804137
30
0.0
11
-141.724000
21
-57.720148
31
0.0
0
LINE
8
0
6
CONTINUOUS
10
-140.564768
20
-56.400752
30
0.0
11
-140.677400
21
-57.804137
31
0.0
0
LINE
8
0
6
CONTINUOUS
10
-142.172600
20
-57.684152
30
0.0
11
-142.068675
21
-56.389248
31
0.0
0
LINE
8
0
6
CONTINUOUS
10
-141.724000
20
-57.720148
30
0.0
11
-142.172600
21
-57.684152
31
0.0
0
LINE
8
0
6
CONTINUOUS
10
-141.615055
20
-56.362699
30
0.0
11
-141.724000
21
-57.720148
31
0.0
0
LINE
8
0
6
CONTINUOUS
10
-147.304890
20
-56.496654
30
0.0
11
-147.387000
21
-57.217030
31
0.0
0
LINE
8
0
6
CONTINUOUS
10
-147.387000
20
-57.217030
30
0.0
11
-147.304890
21
-56.496654
31
0.0
0
LINE
8
0
6
CONTINUOUS
10
-147.260900
20
-57.231400
30
0.0
11
-146.813700
21
-57.282360
31
0.0
0
LINE
8
0
6
CONTINUOUS
10
-147.164837
20
-56.388622
30
0.0
11
-147.260900
21
-57.231400
31
0.0
0
LINE
8
0
6
CONTINUOUS
10
-146.813700
20
-57.282360
30
0.0
11
-146.717047
21
-56.434028
31
0.0
0
LINE
8
0
6
CONTINUOUS
10
-147.260900
20
-57.231400
30
0.0
11
-147.164837
21
-56.388622
31
0.0
0
LINE
8
0
6
CONTINUOUS
10
-146.813700
20
-57.282360
30
0.0
11
-147.260900
21
-57.231400
31
0.0
0
LINE
8
0
6
CONTINUOUS
10
-146.717047
20
-56.434028
30
0.0
11
-146.813700
21
-57.282360
31
0.0
0
LINE
8
0
6
CONTINUOUS
10
-147.562613
20
-56.516066
30
0.0
11
-147.639200
21
-57.188280
31
0.0
0
LINE
8
0
6
CONTINUOUS
10
-147.639200
20
-57.188280
30
0.0
11
-147.563545
21
-56.524247
31
0.0
0
LINE
8
0
6
CONTINUOUS
10
-147.433947
20
-56.508226
30
0.0
11
-147.513100
21
-57.202650
31
0.0
0
LINE
8
0
6
CONTINUOUS
10
-147.513100
20
-57.202650
30
0.0
11
-147.436577
21
-56.531301
31
0.0
0
LINE
8
0
6
CONTINUOUS
10
-162.621300
20
-55.692740
30
0.0
11
-162.175300
21
-55.753040
31
0.0
0
LINE
8
0
6
CONTINUOUS
10
-162.481082
20
-54.655775
30
0.0
11
-162.621300
21
-55.692740
31
0.0
0
LINE
8
0
6
CONTINUOUS
10
-162.621300
20
-55.692740
30
0.0
11
-162.485615
21
-54.689298
31
0.0
0
LINE
8
0
6
CONTINUOUS
10
-162.175300
20
-55.753040
30
0.0
11
-162.621300
21
-55.692740
31
0.0
0
LINE
8
0
6
CONTINUOUS
10
4.960000
20
-59.500000
30
0.0
11
2.560000
21
-59.500000
31
0.0
0
LINE
8
0
6
CONTINUOUS
10
9.640000
20
-59.500000
30
0.0
11
8.680000
21
-59.500000
31
0.0
0
LINE
8
0
6
CONTINUOUS
10
10.000000
20
-59.500000
30
0.0
11
9.640000
21
-59.500000
31
0.0
0
LINE
8
0
6
CONTINUOUS
10
2.560000
20
-59.500000
30
0.0
11
4.960000
21
-59.500000
31
0.0
0
LINE
8
0
6
CONTINUOUS
10
8.680000
20
-59.500000
30
0.0
11
9.640000
21
-59.500000
31
0.0
0
LINE
8
0
6
CONTINUOUS
10
10.000000
20
-59.500000
30
0.0
11
10.000000
21
-58.500000
31
0.0
0
LINE
8
0
6
CONTINUOUS
10
9.640000
20
-59.500000
30
0.0
11
10.000000
21
-59.500000
31
0.0
0
LINE
8
0
6
CONTINUOUS
10
0.000000
20
-59.500000
30
0.0
11
-2.560000
21
-59.500000
31
0.0
0
LINE
8
0
6
CONTINUOUS
10
-7.080000
20
-59.500000
30
0.0
11
-8.680000
21
-59.500000
31
0.0
0
LINE
8
0
6
CONTINUOUS
10
-8.680000
20
-59.500000
30
0.0
11
-9.640000
21
-59.500000
31
0.0
0
LINE
8
0
6
CONTINUOUS
10
-9.640000
20
-59.500000
30
0.0
11
-10.000000
21
-59.500000
31
0.0
0
LINE
8
0
6
CONTINUOUS
10
-2.560000
20
-59.500000
30
0.0
11
0.000000
21
-59.500000
31
0.0
0
LINE
8
0
6
CONTINUOUS
10
-8.680000
20
-59.500000
30
0.0
11
-7.080000
21
-59.500000
31
0.0
0
LINE
8
0
6
CONTINUOUS
10
-9.640000
20
-59.500000
30
0.0
11
-8.680000
21
-59.500000
31
0.0
0
LINE
8
0
6
CONTINUOUS
10
-10.000000
20
-58.500000
30
0.0
11
-10.000000
21
-59.500000
31
0.0
0
LINE
8
0
6
CONTINUOUS
10
-10.000000
20
-59.500000
30
0.0
11
-9.640000
21
-59.500000
31
0.0
0
LINE
8
0
6
CONTINUOUS
10
77.679000
20
-57.315899
30
0.0
11
78.729000
21
-57.339839
31
0.0
0
LINE
8
0
6
CONTINUOUS
10
76.629000
20
-57.341960
30
0.0
11
76.179000
21
-57.400748
31
0.0
0
LINE
8
0
6
CONTINUOUS
10
76.629000
20
-57.341960
30
0.0
11
77.679000
21
-57.315899
31
0.0
0
LINE
8
0
6
CONTINUOUS
10
65.000000
20
-57.361111
30
0.0
11
66.050000
21
-57.385050
31
0.0
0
LINE
8
0
6
CONTINUOUS
10
66.050000
20
-57.385050
30
0.0
11
66.500000
21
-57.442929
31
0.0
0
LINE
8
0
6
CONTINUOUS
10
-109.783482
20
-57.831493
30
0.0
11
-109.157200
21
-57.826219
31
0.0
0
LINE
8
0
6
CONTINUOUS
10
-109.157200
20
-57.826219
30
0.0
11
-108.107200
21
-57.845903
31
0.0
0
LINE
8
0
6
CONTINUOUS
10
-141.615055
20
-56.362699
30
0.0
11
-142.068675
21
-56.389248
31
0.0
0
LINE
8
0
6
CONTINUOUS
10
-141.615055
20
-56.362699
30
0.0
11
-141.208452
21
-56.384278
31
0.0
0
LINE
8
0
6
CONTINUOUS
10
-153.710486
20
-54.671149
30
0.0
11
-154.166793
21
-54.697487
31
0.0
0
LINE
8
0
6
CONTINUOUS
10
117.911922
20
-57.833252
30
0.0
11
118.162699
21
-57.828312
31
0.0
0
LINE
8
0
6
CONTINUOUS
10
120.544000
20
-57.272588
30
0.0
11
120.812902
21
-57.276235
31
0.0
0
LINE
8
0
6
CONTINUOUS
10
119.494000
20
-57.304302
30
0.0
11
119.044000
21
-57.361664
31
0.0
0
LINE
8
0
6
CONTINUOUS
10
119.494000
20
-57.304302
30
0.0
11
120.544000
21
-57.272588
31
0.0
0
LINE
8
0
6
CONTINUOUS
10
118.005221
20
-57.876307
30
0.0
11
118.454842
21
-57.863717
31
0.0
0
LINE
8
0
6
CONTINUOUS
10
-94.408000
20
-57.879045
30
0.0
11
-93.958000
21
-57.915603
31
0.0
0
LINE
8
0
6
CONTINUOUS
10
-95.458000
20
-57.861501
30
0.0
11
-94.408000
21
-57.879045
31
0.0
0
LINE
8
0
6
CONTINUOUS
10
-111.379700
20
-54.736842
30
0.0
11
-110.329700
21
-54.689911
31
0.0
0
LINE
8
0
6
CONTINUOUS
10
-111.379700
20
-54.736842
30
0.0
11
-111.829700
21
-54.862220
31
0.0
0
LINE
8
0
6
CONTINUOUS
10
-110.329700
20
-54.689911
30
0.0
11
-109.279700
21
-54.753509
31
0.0
0
LINE
8
0
6
CONTINUOUS
10
-141.114274
20
-54.700269
30
0.0
11
-140.058270
21
-54.668328
31
0.0
0
LINE
8
0
6
CONTINUOUS
10
-141.114274
20
-54.700269
30
0.0
11
-141.574654
21
-54.812298
31
0.0
0
LINE
8
0
6
CONTINUOUS
10
-139.010652
20
-54.739639
30
0.0
11
-138.569566
21
-54.868539
31
0.0
0
LINE
8
0
6
CONTINUOUS
10
-140.058270
20
-54.668328
30
0.0
11
-139.010652
21
-54.739639
31
0.0
0
LINE
8
0
6
CONTINUOUS
10
-129.798810
20
-56.360058
30
0.0
11
-129.130940
21
-56.339775
31
0.0
0
LINE
8
0
6
CONTINUOUS
10
-107.984300
20
-57.277671
30
0.0
11
-106.934300
21
-57.257370
31
0.0
0
LINE
8
0
6
CONTINUOUS
10
-107.984300
20
-57.277671
30
0.0
11
-108.434300
21
-57.332948
31
0.0
0
LINE
8
0
6
CONTINUOUS
10
-106.934300
20
-57.257370
30
0.0
11
-105.884300
21
-57.285974
31
0.0
0
LINE
8
0
6
CONTINUOUS
10
-88.337000
20
-56.528955
30
0.0
11
-87.287000
21
-56.505183
31
0.0
0
LINE
8
0
6
CONTINUOUS
10
-88.337000
20
-56.528955
30
0.0
11
-88.787000
21
-56.586735
31
0.0
0
LINE
8
0
6
CONTINUOUS
10
-87.287000
20
-56.505183
30
0.0
11
-86.237000
21
-56.531384
31
0.0
0
LINE
8
0
6
CONTINUOUS
10
-125.610400
20
-54.742810
30
0.0
11
-126.060400
21
-54.867181
31
0.0
0
LINE
8
0
6
CONTINUOUS
10
-125.610400
20
-54.742810
30
0.0
11
-124.560400
21
-54.697134
31
0.0
0
LINE
8
0
6
CONTINUOUS
10
-124.560400
20
-54.697134
30
0.0
11
-123.510400
21
-54.761494
31
0.0
0
LINE
8
0
6
CONTINUOUS
10
-129.130940
20
-56.339775
30
0.0
11
-128.745267
21
-56.325253
31
0.0
0
LINE
8
0
6
CONTINUOUS
10
-102.050000
20
-58.463135
30
0.0
11
-101.000000
21
-58.499060
31
0.0
0
LINE
8
0
6
CONTINUOUS
10
-102.050000
20
-58.463135
30
0.0
11
-101.000000
21
-58.499060
31
0.0
0
LINE
8
0
6
CONTINUOUS
10
-115.490728
20
-57.988123
30
0.0
11
-114.441309
21
-58.023966
31
0.0
0
LINE
8
0
6
CONTINUOUS
10
-113.391940
20
-58.060454
30
0.0
11
-112.942188
21
-58.076708
31
0.0
0
LINE
8
0
6
CONTINUOUS
10
-73.234712
20
-58.393845
30
0.0
11
-72.870000
21
-58.388684
31
0.0
0
LINE
8
0
6
CONTINUOUS
10
20.000000
20
-57.361111
30
0.0
11
21.050000
21
-57.386111
31
0.0
0
LINE
8
0
6
CONTINUOUS
10
63.950000
20
-57.386111
30
0.0
11
63.500000
21
-57.444444
31
0.0
0
LINE
8
0
6
CONTINUOUS
10
63.950000
20
-57.386111
30
0.0
11
65.000000
21
-57.361111
31
0.0
0
LINE
8
0
6
CONTINUOUS
10
48.950000
20
-57.386111
30
0.0
11
50.000000
21
-57.361111
31
0.0
0
LINE
8
0
6
CONTINUOUS
10
35.000000
20
-57.361111
30
0.0
11
36.050000
21
-57.386111
31
0.0
0
LINE
8
0
6
CONTINUOUS
10
33.950000
20
-57.386111
30
0.0
11
35.000000
21
-57.361111
31
0.0
0
LINE
8
0
6
CONTINUOUS
10
0.000000
20
-56.509793
30
0.0
11
0.834000
21
-56.529650
31
0.0
0
LINE
8
0
6
CONTINUOUS
10
5.829000
20
-57.361111
30
0.0
11
6.879000
21
-57.386111
31
0.0
0
LINE
8
0
6
CONTINUOUS
10
-86.860000
20
-58.403912
30
0.0
11
-86.626234
21
-58.407865
31
0.0
0
LINE
8
0
6
CONTINUOUS
10
-96.508200
20
-57.874109
30
0.0
11
-96.958200
21
-57.908418
31
0.0
0
LINE
8
0
6
CONTINUOUS
10
-96.508200
20
-57.874109
30
0.0
11
-95.482262
21
-57.861800
31
0.0
0
LINE
8
0
6
CONTINUOUS
10
-87.910000
20
-58.416513
30
0.0
11
-86.860000
21
-58.403912
31
0.0
0
LINE
8
0
6
CONTINUOUS
10
-81.050000
20
-54.707273
30
0.0
11
-80.000000
21
-54.653409
31
0.0
0
LINE
8
0
6
CONTINUOUS
10
-81.050000
20
-54.707273
30
0.0
11
-81.500000
21
-54.837500
31
0.0
0
LINE
8
0
6
CONTINUOUS
10
-80.000000
20
-54.653409
30
0.0
11
-78.950000
21
-54.712046
31
0.0
0
LINE
8
0
6
CONTINUOUS
10
-66.050000
20
-54.741364
30
0.0
11
-65.000000
21
-54.687500
31
0.0
0
LINE
8
0
6
CONTINUOUS
10
-146.717047
20
-56.434028
30
0.0
11
-147.164837
21
-56.388622
31
0.0
0
LINE
8
0
6
CONTINUOUS
10
-146.717047
20
-56.434028
30
0.0
11
-146.159965
21
-56.500000
31
0.0
0
LINE
8
0
6
CONTINUOUS
10
-159.819467
20
-54.742944
30
0.0
11
-160.267476
21
-54.697512
31
0.0
0
LINE
8
0
6
CONTINUOUS
10
-120.813094
20
-57.276242
30
0.0
11
-120.543900
21
-57.272590
31
0.0
0
LINE
8
0
6
CONTINUOUS
10
-119.493900
20
-57.304304
30
0.0
11
-119.043900
21
-57.361667
31
0.0
0
LINE
8
0
6
CONTINUOUS
10
-120.543900
20
-57.272590
30
0.0
11
-119.493900
21
-57.304304
31
0.0
0
LINE
8
0
6
CONTINUOUS
10
-104.108300
20
-58.274247
30
0.0
11
-104.415053
21
-58.279293
31
0.0
0
LINE
8
0
6
CONTINUOUS
10
-104.108300
20
-58.274247
30
0.0
11
-103.336900
21
-58.285549
31
0.0
0
LINE
8
0
6
CONTINUOUS
10
120.812902
20
-57.276235
30
0.0
11
121.594000
21
-57.282919
31
0.0
0
LINE
8
0
6
CONTINUOUS
10
121.594000
20
-57.282919
30
0.0
11
122.044000
21
-57.327878
31
0.0
0
LINE
8
0
6
CONTINUOUS
10
128.744797
20
-56.325260
30
0.0
11
129.131150
21
-56.339798
31
0.0
0
LINE
8
0
6
CONTINUOUS
10
127.697289
20
-56.392788
30
0.0
11
128.744797
21
-56.325260
31
0.0
0
LINE
8
0
6
CONTINUOUS
10
-93.302000
20
-57.327697
30
0.0
11
-92.252000
21
-57.306839
31
0.0
0
LINE
8
0
6
CONTINUOUS
10
-92.252000
20
-57.306839
30
0.0
11
-91.969086
21
-57.314453
31
0.0
0
LINE
8
0
6
CONTINUOUS
10
-100.141000
20
-56.514622
30
0.0
11
-100.591000
21
-56.570345
31
0.0
0
LINE
8
0
6
CONTINUOUS
10
-98.041000
20
-56.522029
30
0.0
11
-97.591000
21
-56.580927
31
0.0
0
LINE
8
0
6
CONTINUOUS
10
114.441275
20
-58.023966
30
0.0
11
115.491060
21
-57.988110
31
0.0
0
LINE
8
0
6
CONTINUOUS
10
113.391837
20
-58.060456
30
0.0
11
112.942622
21
-58.076691
31
0.0
0
LINE
8
0
6
CONTINUOUS
10
132.443574
20
-57.330078
30
0.0
11
132.893443
21
-57.309229
31
0.0
0
LINE
8
0
6
CONTINUOUS
10
99.091000
20
-56.485971
30
0.0
11
99.404909
21
-56.500000
31
0.0
0
LINE
8
0
6
CONTINUOUS
10
98.859361
20
-56.500000
30
0.0
11
99.091000
21
-56.485971
31
0.0
0
LINE
8
0
6
CONTINUOUS
10
63.950000
20
-54.743750
30
0.0
11
65.000000
21
-54.687500
31
0.0
0
LINE
8
0
6
CONTINUOUS
10
153.710332
20
-54.671168
30
0.0
11
154.166717
21
-54.697490
31
0.0
0
LINE
8
0
6
CONTINUOUS
10
153.617674
20
-54.676107
30
0.0
11
153.710332
21
-54.671168
31
0.0
0
LINE
8
0
6
CONTINUOUS
10
141.615055
20
-56.362707
30
0.0
11
142.069072
21
-56.389214
31
0.0
0
LINE
8
0
6
CONTINUOUS
10
141.208554
20
-56.384293
30
0.0
11
141.615055
21
-56.362707
31
0.0
0
LINE
8
0
6
CONTINUOUS
10
109.783183
20
-57.831492
30
0.0
11
110.207000
21
-57.833746
31
0.0
0
LINE
8
0
6
CONTINUOUS
10
110.207000
20
-57.833746
30
0.0
11
110.657000
21
-57.861652
31
0.0
0
LINE
8
0
6
CONTINUOUS
10
71.820000
20
-58.404859
30
0.0
11
71.370000
21
-58.441348
31
0.0
0
LINE
8
0
6
CONTINUOUS
10
71.820000
20
-58.404859
30
0.0
11
72.870000
21
-58.388684
31
0.0
0
LINE
8
0
6
CONTINUOUS
10
72.870000
20
-58.388684
30
0.0
11
73.234712
21
-58.393845
31
0.0
0
LINE
8
0
6
CONTINUOUS
10
95.482312
20
-57.861801
30
0.0
11
96.508000
21
-57.874110
31
0.0
0
LINE
8
0
6
CONTINUOUS
10
96.508000
20
-57.874110
30
0.0
11
96.958000
21
-57.908419
31
0.0
0
LINE
8
0
6
CONTINUOUS
10
86.860000
20
-58.403913
30
0.0
11
87.910000
21
-58.416513
31
0.0
0
LINE
8
0
6
CONTINUOUS
10
87.910000
20
-58.416513
30
0.0
11
88.360000
21
-58.450823
31
0.0
0
LINE
8
0
6
CONTINUOUS
10
86.626246
20
-58.407865
30
0.0
11
86.860000
21
-58.403913
31
0.0
0
LINE
8
0
6
CONTINUOUS
10
-104.415053
20
-58.279293
30
0.0
11
-104.558300
21
-58.280173
31
0.0
0
LINE
8
0
6
CONTINUOUS
10
160.818039
20
-54.739541
30
0.0
11
161.265882
21
-54.692875
31
0.0
0
LINE
8
0
6
CONTINUOUS
10
159.774854
20
-54.864084
30
0.0
11
160.818039
21
-54.739541
31
0.0
0
LINE
8
0
6
CONTINUOUS
10
103.058000
20
-58.287516
30
0.0
11
103.336975
21
-58.285555
31
0.0
0
LINE
8
0
6
CONTINUOUS
10
102.008000
20
-58.314398
30
0.0
11
103.058000
21
-58.287516
31
0.0
0
LINE
8
0
6
CONTINUOUS
10
102.008000
20
-58.314398
30
0.0
11
101.558000
21
-58.344478
31
0.0
0
LINE
8
0
6
CONTINUOUS
10
140.057970
20
-54.668335
30
0.0
11
141.114274
21
-54.700273
31
0.0
0
LINE
8
0
6
CONTINUOUS
10
141.114274
20
-54.700273
30
0.0
11
141.575153
21
-54.812294
31
0.0
0
LINE
8
0
6
CONTINUOUS
10
139.010952
20
-54.739635
30
0.0
11
138.569408
21
-54.868544
31
0.0
0
LINE
8
0
6
CONTINUOUS
10
129.131150
20
-56.339798
30
0.0
11
129.799044
21
-56.360061
31
0.0
0
LINE
8
0
6
CONTINUOUS
10
129.799044
20
-56.360061
30
0.0
11
130.255744
21
-56.472160
31
0.0
0
LINE
8
0
6
CONTINUOUS
10
124.560000
20
-54.697134
30
0.0
11
125.610000
21
-54.742809
31
0.0
0
LINE
8
0
6
CONTINUOUS
10
114.455839
20
-56.377113
30
0.0
11
115.506785
21
-56.422780
31
0.0
0
LINE
8
0
6
CONTINUOUS
10
115.506785
20
-56.422780
30
0.0
11
115.788491
21
-56.500000
31
0.0
0
LINE
8
0
6
CONTINUOUS
10
113.406809
20
-56.441464
30
0.0
11
113.209198
21
-56.500000
31
0.0
0
LINE
8
0
6
CONTINUOUS
10
113.406809
20
-56.441464
30
0.0
11
114.455839
21
-56.377113
31
0.0
0
LINE
8
0
6
CONTINUOUS
10
-13.151000
20
-56.521350
30
0.0
11
-12.101000
21
-56.546350
31
0.0
0
LINE
8
0
6
CONTINUOUS
10
-5.000000
20
-57.361111
30
0.0
11
-3.950000
21
-57.386111
31
0.0
0
LINE
8
0
6
CONTINUOUS
10
-59.201000
20
-56.546350
30
0.0
11
-59.651000
21
-56.604683
31
0.0
0
LINE
8
0
6
CONTINUOUS
10
-59.201000
20
-56.546350
30
0.0
11
-58.151000
21
-56.521350
31
0.0
0
LINE
8
0
6
CONTINUOUS
10
-44.201000
20
-56.546350
30
0.0
11
-43.151000
21
-56.521350
31
0.0
0
LINE
8
0
6
CONTINUOUS
10
-29.201000
20
-56.546350
30
0.0
11
-28.151000
21
-56.521350
31
0.0
0
LINE
8
0
6
CONTINUOUS
10
-28.151000
20
-56.521350
30
0.0
11
-27.101000
21
-56.546350
31
0.0
0
LINE
8
0
6
CONTINUOUS
10
-0.216000
20
-56.504650
30
0.0
11
0.000000
21
-56.509793
31
0.0
0
LINE
8
0
6
CONTINUOUS
10
94.408000
20
-57.879045
30
0.0
11
95.458000
21
-57.861501
31
0.0
0
LINE
8
0
6
CONTINUOUS
10
85.810000
20
-58.421504
30
0.0
11
86.626246
21
-58.407865
31
0.0
0
LINE
8
0
6
CONTINUOUS
10
130.253200
20
-57.327659
30
0.0
11
130.702814
21
-57.313427
31
0.0
0
LINE
8
0
6
CONTINUOUS
10
143.755075
20
-56.549780
30
0.0
11
143.305872
21
-56.581449
31
0.0
0
LINE
8
0
6
CONTINUOUS
10
99.404909
20
-56.500000
30
0.0
11
100.141000
21
-56.514620
31
0.0
0
LINE
8
0
6
CONTINUOUS
10
98.041000
20
-56.522028
30
0.0
11
98.859361
21
-56.500000
31
0.0
0
LINE
8
0
6
CONTINUOUS
10
92.252000
20
-57.306837
30
0.0
11
93.302000
21
-57.327695
31
0.0
0
LINE
8
0
6
CONTINUOUS
10
93.302000
20
-57.327695
30
0.0
11
93.752000
21
-57.383419
31
0.0
0
LINE
8
0
6
CONTINUOUS
10
91.969130
20
-57.314452
30
0.0
11
92.252000
21
-57.306837
31
0.0
0
LINE
8
0
6
CONTINUOUS
10
115.788491
20
-56.500000
30
0.0
11
115.959703
21
-56.520945
31
0.0
0
LINE
8
0
6
CONTINUOUS
10
113.209198
20
-56.500000
30
0.0
11
112.958915
21
-56.532810
31
0.0
0
LINE
8
0
6
CONTINUOUS
10
106.934000
20
-57.257370
30
0.0
11
107.984000
21
-57.277671
31
0.0
0
LINE
8
0
6
CONTINUOUS
10
107.984000
20
-57.277671
30
0.0
11
108.434000
21
-57.332947
31
0.0
0
LINE
8
0
6
CONTINUOUS
10
105.884000
20
-57.285974
30
0.0
11
106.934000
21
-57.257370
31
0.0
0
LINE
8
0
6
CONTINUOUS
10
162.033866
20
-54.709304
30
0.0
11
162.480789
21
-54.655824
31
0.0
0
LINE
8
0
6
CONTINUOUS
10
-73.920000
20
-58.403474
30
0.0
11
-73.234712
21
-58.393845
31
0.0
0
LINE
8
0
6
CONTINUOUS
10
-82.955000
20
-57.919587
30
0.0
11
-81.905000
21
-57.904833
31
0.0
0
LINE
8
0
6
CONTINUOUS
10
-82.955000
20
-57.919587
30
0.0
11
-83.405000
21
-57.955451
31
0.0
0
LINE
8
0
6
CONTINUOUS
10
-81.905000
20
-57.904833
30
0.0
11
-80.855000
21
-57.921096
31
0.0
0
LINE
8
0
6
CONTINUOUS
10
127.334814
20
-56.500000
30
0.0
11
127.253484
21
-56.510598
31
0.0
0
LINE
8
0
6
CONTINUOUS
10
104.414775
20
-58.279295
30
0.0
11
104.558000
21
-58.280178
31
0.0
0
LINE
8
0
6
CONTINUOUS
10
117.712580
20
-57.835726
30
0.0
11
117.911922
21
-57.833252
31
0.0
0
LINE
8
0
6
CONTINUOUS
10
116.662584
20
-57.863628
30
0.0
11
117.712580
21
-57.835726
31
0.0
0
LINE
8
0
6
CONTINUOUS
10
115.613765
20
-57.898197
30
0.0
11
116.662584
21
-57.863628
31
0.0
0
LINE
8
0
6
CONTINUOUS
10
115.613765
20
-57.898197
30
0.0
11
115.164011
21
-57.919404
31
0.0
0
LINE
8
0
6
CONTINUOUS
10
161.701387
20
-54.712989
30
0.0
11
162.148360
21
-54.659884
31
0.0
0
LINE
8
0
6
CONTINUOUS
10
73.920000
20
-58.403475
30
0.0
11
74.370000
21
-58.439338
31
0.0
0
LINE
8
0
6
CONTINUOUS
10
73.234712
20
-58.393845
30
0.0
11
73.920000
21
-58.403475
31
0.0
0
LINE
8
0
6
CONTINUOUS
10
82.955000
20
-57.919588
30
0.0
11
83.405000
21
-57.955452
31
0.0
0
LINE
8
0
6
CONTINUOUS
10
81.905000
20
-57.904834
30
0.0
11
82.955000
21
-57.919588
31
0.0
0
LINE
8
0
6
CONTINUOUS
10
80.855000
20
-57.921096
30
0.0
11
81.905000
21
-57.904834
31
0.0
0
LINE
8
0
6
CONTINUOUS
10
-141.208443
20
-56.384278
30
0.0
11
-140.564768
21
-56.400752
31
0.0
0
LINE
8
0
6
CONTINUOUS
10
-153.617242
20
-54.676101
30
0.0
11
-152.656638
21
-54.700773
31
0.0
0
LINE
8
0
6
CONTINUOUS
10
-152.656638
20
-54.700773
30
0.0
11
-151.610804
21
-54.797985
31
0.0
0
LINE
8
0
6
CONTINUOUS
10
-151.610804
20
-54.797985
30
0.0
11
-151.170581
21
-54.906436
31
0.0
0
LINE
8
0
6
CONTINUOUS
10
152.656673
20
-54.700797
30
0.0
11
153.617610
21
-54.676115
31
0.0
0
LINE
8
0
6
CONTINUOUS
10
140.564371
20
-56.400786
30
0.0
11
141.208550
21
-56.384294
31
0.0
0
LINE
8
0
6
CONTINUOUS
10
139.519427
20
-56.497942
30
0.0
11
140.564371
21
-56.400786
31
0.0
0
LINE
8
0
6
CONTINUOUS
10
27.870000
20
-58.393617
30
0.0
11
28.920000
21
-58.409134
31
0.0
0
LINE
8
0
6
CONTINUOUS
10
57.870000
20
-58.393617
30
0.0
11
58.920000
21
-58.409134
31
0.0
0
LINE
8
0
6
CONTINUOUS
10
56.820000
20
-58.409134
30
0.0
11
57.870000
21
-58.393617
31
0.0
0
LINE
8
0
6
CONTINUOUS
10
56.820000
20
-58.409134
30
0.0
11
56.370000
21
-58.445341
31
0.0
0
LINE
8
0
6
CONTINUOUS
10
42.870000
20
-58.393617
30
0.0
11
43.920000
21
-58.409134
31
0.0
0
LINE
8
0
6
CONTINUOUS
10
41.820000
20
-58.409134
30
0.0
11
42.870000
21
-58.393617
31
0.0
0
LINE
8
0
6
CONTINUOUS
10
26.820000
20
-58.409134
30
0.0
11
27.870000
21
-58.393617
31
0.0
0
LINE
8
0
6
CONTINUOUS
10
12.870000
20
-58.393617
30
0.0
11
13.920000
21
-58.409134
31
0.0
0
LINE
8
0
6
CONTINUOUS
10
11.820000
20
-58.409134
30
0.0
11
12.870000
21
-58.393617
31
0.0
0
LINE
8
0
6
CONTINUOUS
10
1.716000
20
-58.398769
30
0.0
11
2.166000
21
-58.434976
31
0.0
0
LINE
8
0
6
CONTINUOUS
10
0.666000
20
-58.383252
30
0.0
11
1.716000
21
-58.398769
31
0.0
0
LINE
8
0
6
CONTINUOUS
10
7.032000
20
-57.910300
30
0.0
11
8.082000
21
-57.925817
31
0.0
0
LINE
8
0
6
CONTINUOUS
10
65.000000
20
-54.687500
30
0.0
11
66.050000
21
-54.741364
31
0.0
0
LINE
8
0
6
CONTINUOUS
10
139.511025
20
-56.500000
30
0.0
11
139.071515
21
-56.547487
31
0.0
0
LINE
8
0
6
CONTINUOUS
10
104.108000
20
-58.274257
30
0.0
11
104.414775
21
-58.279295
31
0.0
0
LINE
8
0
6
CONTINUOUS
10
103.336975
20
-58.285555
30
0.0
11
104.108000
21
-58.274257
31
0.0
0
LINE
8
0
6
CONTINUOUS
10
-121.593900
20
-57.282923
30
0.0
11
-120.813094
21
-57.276242
31
0.0
0
LINE
8
0
6
CONTINUOUS
10
-121.593900
20
-57.282923
30
0.0
11
-122.043900
21
-57.327880
31
0.0
0
LINE
8
0
6
CONTINUOUS
10
-117.712518
20
-57.835727
30
0.0
11
-117.911812
21
-57.833256
31
0.0
0
LINE
8
0
6
CONTINUOUS
10
-117.712518
20
-57.835727
30
0.0
11
-116.662861
21
-57.863620
31
0.0
0
LINE
8
0
6
CONTINUOUS
10
-116.662861
20
-57.863620
30
0.0
11
-115.613403
21
-57.898208
31
0.0
0
LINE
8
0
6
CONTINUOUS
10
-115.613403
20
-57.898208
30
0.0
11
-115.163849
21
-57.919408
31
0.0
0
LINE
8
0
6
CONTINUOUS
10
-103.058300
20
-58.287513
30
0.0
11
-102.008300
21
-58.314398
31
0.0
0
LINE
8
0
6
CONTINUOUS
10
-103.336900
20
-58.285549
30
0.0
11
-103.058300
21
-58.287513
31
0.0
0
LINE
8
0
6
CONTINUOUS
10
-102.008300
20
-58.314398
30
0.0
11
-101.558300
21
-58.344475
31
0.0
0
LINE
8
0
6
CONTINUOUS
10
-51.050000
20
-54.743750
30
0.0
11
-50.000000
21
-54.687500
31
0.0
0
LINE
8
0
6
CONTINUOUS
10
-36.050000
20
-54.743750
30
0.0
11
-35.000000
21
-54.687500
31
0.0
0
LINE
8
0
6
CONTINUOUS
10
-20.000000
20
-54.687500
30
0.0
11
-18.950000
21
-54.743750
31
0.0
0
LINE
8
0
6
CONTINUOUS
10
-3.950000
20
-54.743750
30
0.0
11
-3.500000
21
-54.875000
31
0.0
0
LINE
8
0
6
CONTINUOUS
10
-5.000000
20
-54.687500
30
0.0
11
-3.950000
21
-54.743750
31
0.0
0
LINE
8
0
6
CONTINUOUS
10
-58.920000
20
-58.409134
30
0.0
11
-57.870000
21
-58.393617
31
0.0
0
LINE
8
0
6
CONTINUOUS
10
-117.911812
20
-57.833256
30
0.0
11
-118.162438
21
-57.828333
31
0.0
0
LINE
8
0
6
CONTINUOUS
10
-110.207200
20
-57.833743
30
0.0
11
-109.783482
21
-57.831493
31
0.0
0
LINE
8
0
6
CONTINUOUS
10
-110.207200
20
-57.833743
30
0.0
11
-110.657200
21
-57.861646
31
0.0
0
LINE
8
0
6
CONTINUOUS
10
146.184926
20
-56.347510
30
0.0
11
146.297322
21
-56.337599
31
0.0
0
LINE
8
0
6
CONTINUOUS
10
-144.665797
20
-56.500000
30
0.0
11
-143.755094
21
-56.549752
31
0.0
0
LINE
8
0
6
CONTINUOUS
10
-130.252944
20
-57.327666
30
0.0
11
-130.702814
21
-57.313427
31
0.0
0
LINE
8
0
6
CONTINUOUS
10
-96.159900
20
-54.710641
30
0.0
11
-95.110000
21
-54.657155
31
0.0
0
LINE
8
0
6
CONTINUOUS
10
-96.159900
20
-54.710641
30
0.0
11
-96.609900
21
-54.840646
31
0.0
0
LINE
8
0
6
CONTINUOUS
10
-95.110000
20
-54.657155
30
0.0
11
-94.060000
21
-54.716106
31
0.0
0
LINE
8
0
6
CONTINUOUS
10
156.452532
20
-54.941184
30
0.0
11
156.007943
21
-55.011915
31
0.0
0
LINE
8
0
6
CONTINUOUS
10
156.452532
20
-54.941184
30
0.0
11
157.495218
21
-54.812952
31
0.0
0
LINE
8
0
6
CONTINUOUS
10
157.495218
20
-54.812952
30
0.0
11
158.539162
21
-54.701414
31
0.0
0
LINE
8
0
6
CONTINUOUS
10
158.539162
20
-54.701414
30
0.0
11
158.988982
21
-54.669370
31
0.0
0
LINE
8
0
6
CONTINUOUS
10
145.848377
20
-56.371456
30
0.0
11
146.184926
21
-56.347510
31
0.0
0
LINE
8
0
6
CONTINUOUS
10
-146.184910
20
-56.347477
30
0.0
11
-146.297418
21
-56.337557
31
0.0
0
LINE
8
0
6
CONTINUOUS
10
-74.201000
20
-56.537057
30
0.0
11
-74.651000
21
-56.594936
31
0.0
0
LINE
8
0
6
CONTINUOUS
10
-74.201000
20
-56.537057
30
0.0
11
-73.151000
21
-56.513117
31
0.0
0
LINE
8
0
6
CONTINUOUS
10
-78.729000
20
-57.339840
30
0.0
11
-79.115791
21
-57.389589
31
0.0
0
LINE
8
0
6
CONTINUOUS
10
-78.729000
20
-57.339840
30
0.0
11
-77.679000
21
-57.315900
31
0.0
0
LINE
8
0
6
CONTINUOUS
10
-73.151000
20
-56.513117
30
0.0
11
-72.101000
21
-56.539178
31
0.0
0
LINE
8
0
6
CONTINUOUS
10
-72.101000
20
-56.539178
30
0.0
11
-71.651000
21
-56.597966
31
0.0
0
LINE
8
0
6
CONTINUOUS
10
-132.004466
20
-57.310438
30
0.0
11
-132.454040
21
-57.290160
31
0.0
0
LINE
8
0
6
CONTINUOUS
10
-132.004466
20
-57.310438
30
0.0
11
-130.955867
21
-57.365638
31
0.0
0
LINE
8
0
6
CONTINUOUS
10
-145.848370
20
-56.371425
30
0.0
11
-146.184910
21
-56.347477
31
0.0
0
LINE
8
0
6
CONTINUOUS
10
-145.848370
20
-56.371425
30
0.0
11
-144.804281
21
-56.482969
31
0.0
0
LINE
8
0
6
CONTINUOUS
10
-144.804281
20
-56.482969
30
0.0
11
-144.665797
21
-56.500000
31
0.0
0
LINE
8
0
6
CONTINUOUS
10
-158.539456
20
-54.701370
30
0.0
11
-158.989179
21
-54.669348
31
0.0
0
LINE
8
0
6
CONTINUOUS
10
-156.452726
20
-54.941136
30
0.0
11
-156.008235
21
-55.011859
31
0.0
0
LINE
8
0
6
CONTINUOUS
10
-132.443701
20
-57.330080
30
0.0
11
-132.893182
21
-57.309250
31
0.0
0
LINE
8
0
6
CONTINUOUS
10
-118.005296
20
-57.876315
30
0.0
11
-118.455114
21
-57.863721
31
0.0
0
LINE
8
0
6
CONTINUOUS
10
91.202000
20
-57.333597
30
0.0
11
91.969130
21
-57.314452
31
0.0
0
LINE
8
0
6
CONTINUOUS
10
79.115791
20
-57.389589
30
0.0
11
79.179000
21
-57.397705
31
0.0
0
LINE
8
0
6
CONTINUOUS
10
159.819562
20
-54.742907
30
0.0
11
160.267571
21
-54.697471
31
0.0
0
LINE
8
0
6
CONTINUOUS
10
158.776244
20
-54.866465
30
0.0
11
159.819562
21
-54.742907
31
0.0
0
LINE
8
0
6
CONTINUOUS
10
109.157000
20
-57.826219
30
0.0
11
109.783183
21
-57.831492
31
0.0
0
LINE
8
0
6
CONTINUOUS
10
108.107000
20
-57.845904
30
0.0
11
109.157000
21
-57.826219
31
0.0
0
LINE
8
0
6
CONTINUOUS
10
132.004725
20
-57.310415
30
0.0
11
132.454000
21
-57.290151
31
0.0
0
ENDSEC
0
EOF
