999
Erzeugt mit innoplus bad 
0
SECTION
2
HEADER
9
$ACADVER
1
AC1009
9
$DWGCODEPAGE
3
ISO8859-1
0
ENDSEC
0
SECTION
2
TABLES
0
TABLE
2
LAYER
70
1
0
LAYER
2
0
70
0
62
7
6
CONTINUOUS
0
ENDTAB
0
ENDSEC
0
SECTION
2
ENTITIES
0
LINE
8
0
6
CONTINUOUS
10
-40.863620
20
53.830900
30
0.0
11
-40.515490
21
54.153720
31
0.0
0
LINE
8
0
6
CONTINUOUS
10
-109.484510
20
54.153750
30
0.0
11
-109.136380
21
53.830920
31
0.0
0
LINE
8
0
6
CONTINUOUS
10
-40.018080
20
55.291070
30
0.0
11
-40.018080
21
55.678820
31
0.0
0
LINE
8
0
6
CONTINUOUS
10
-109.981920
20
55.678850
30
0.0
11
-109.981920
21
55.291090
31
0.0
0
LINE
8
0
6
CONTINUOUS
10
-40.018080
20
55.678820
30
0.0
11
-40.018080
21
60.264820
31
0.0
0
LINE
8
0
6
CONTINUOUS
10
-109.981920
20
60.264840
30
0.0
11
-109.981920
21
55.678850
31
0.0
0
LINE
8
0
6
CONTINUOUS
10
-40.018080
20
60.699990
30
0.0
11
-40.895150
21
60.699990
31
0.0
0
LINE
8
0
6
CONTINUOUS
10
-40.018080
20
60.264820
30
0.0
11
-40.018080
21
60.699990
31
0.0
0
LINE
8
0
6
CONTINUOUS
10
-40.895150
20
60.699990
30
0.0
11
-43.482380
21
60.699990
31
0.0
0
LINE
8
0
6
CONTINUOUS
10
-43.482380
20
60.699990
30
0.0
11
-47.650040
21
60.699990
31
0.0
0
LINE
8
0
6
CONTINUOUS
10
-47.650040
20
60.699990
30
0.0
11
-53.189130
21
60.699990
31
0.0
0
LINE
8
0
6
CONTINUOUS
10
-53.189130
20
60.699990
30
0.0
11
-59.821920
21
60.699990
31
0.0
0
LINE
8
0
6
CONTINUOUS
10
-59.821920
20
60.699990
30
0.0
11
-67.215790
21
60.699990
31
0.0
0
LINE
8
0
6
CONTINUOUS
10
-67.215790
20
60.699990
30
0.0
11
-75.000010
21
60.700000
31
0.0
0
LINE
8
0
6
CONTINUOUS
10
-75.000010
20
60.700000
30
0.0
11
-82.784220
21
60.700000
31
0.0
0
LINE
8
0
6
CONTINUOUS
10
-82.784220
20
60.700000
30
0.0
11
-90.178090
21
60.700000
31
0.0
0
LINE
8
0
6
CONTINUOUS
10
-90.178090
20
60.700000
30
0.0
11
-96.810880
21
60.700010
31
0.0
0
LINE
8
0
6
CONTINUOUS
10
-96.810880
20
60.700010
30
0.0
11
-102.349970
21
60.700010
31
0.0
0
LINE
8
0
6
CONTINUOUS
10
-106.517630
20
60.700020
30
0.0
11
-109.104850
21
60.700020
31
0.0
0
LINE
8
0
6
CONTINUOUS
10
-109.981920
20
60.700030
30
0.0
11
-109.981920
21
60.264840
31
0.0
0
LINE
8
0
6
CONTINUOUS
10
-40.165060
20
54.677910
30
0.0
11
-40.018080
21
55.291070
31
0.0
0
LINE
8
0
6
CONTINUOUS
10
-40.515490
20
54.153720
30
0.0
11
-40.165060
21
54.677910
31
0.0
0
LINE
8
0
6
CONTINUOUS
10
-109.981920
20
55.291090
30
0.0
11
-109.834920
21
54.677930
31
0.0
0
LINE
8
0
6
CONTINUOUS
10
-109.834920
20
54.677930
30
0.0
11
-109.484510
21
54.153750
31
0.0
0
LINE
8
0
6
CONTINUOUS
10
-60.050720
20
36.038040
30
0.0
11
-40.863620
21
53.830900
31
0.0
0
LINE
8
0
6
CONTINUOUS
10
-109.136380
20
53.830920
30
0.0
11
-89.949280
21
36.038050
31
0.0
0
LINE
8
0
6
CONTINUOUS
10
-60.293490
20
35.812900
30
0.0
11
-60.050720
21
36.038040
31
0.0
0
LINE
8
0
6
CONTINUOUS
10
-60.662210
20
35.812900
30
0.0
11
-60.293490
21
35.812900
31
0.0
0
LINE
8
0
6
CONTINUOUS
10
-65.830640
20
35.812900
30
0.0
11
-63.501990
21
35.812900
31
0.0
0
LINE
8
0
6
CONTINUOUS
10
-68.619070
20
35.812900
30
0.0
11
-65.830640
21
35.812900
31
0.0
0
LINE
8
0
6
CONTINUOUS
10
-75.000020
20
35.812910
30
0.0
11
-71.727500
21
35.812910
31
0.0
0
LINE
8
0
6
CONTINUOUS
10
-78.272520
20
35.812910
30
0.0
11
-75.000020
21
35.812910
31
0.0
0
LINE
8
0
6
CONTINUOUS
10
-81.380930
20
35.812910
30
0.0
11
-78.272520
21
35.812910
31
0.0
0
LINE
8
0
6
CONTINUOUS
10
-84.169400
20
35.812910
30
0.0
11
-81.380930
21
35.812910
31
0.0
0
LINE
8
0
6
CONTINUOUS
10
-86.498030
20
35.812910
30
0.0
11
-84.169400
21
35.812910
31
0.0
0
LINE
8
0
6
CONTINUOUS
10
-88.250120
20
35.812920
30
0.0
11
-86.498030
21
35.812910
31
0.0
0
LINE
8
0
6
CONTINUOUS
10
-89.337810
20
35.812920
30
0.0
11
-88.250120
21
35.812920
31
0.0
0
LINE
8
0
6
CONTINUOUS
10
-89.949280
20
36.038050
30
0.0
11
-89.706520
21
35.812920
31
0.0
0
LINE
8
0
6
CONTINUOUS
10
-89.706520
20
35.812920
30
0.0
11
-89.337810
21
35.812920
31
0.0
0
LINE
8
0
6
CONTINUOUS
10
-65.149050
20
17.199980
30
0.0
11
-65.149050
21
18.203953
31
0.0
0
LINE
8
0
6
CONTINUOUS
10
-84.851045
20
18.203952
30
0.0
11
-84.851043
21
17.199980
31
0.0
0
LINE
8
0
6
CONTINUOUS
10
-40.895150
20
60.700000
30
0.0
11
-41.452940
21
60.700000
31
0.0
0
LINE
8
0
6
CONTINUOUS
10
-40.018080
20
60.699990
30
0.0
11
-40.895150
21
60.700000
31
0.0
0
LINE
8
0
6
CONTINUOUS
10
-40.590210
20
60.699990
30
0.0
11
-40.018080
21
60.699990
31
0.0
0
LINE
8
0
6
CONTINUOUS
10
-41.452940
20
60.700000
30
0.0
11
-40.590210
21
60.699990
31
0.0
0
LINE
8
0
6
CONTINUOUS
10
-106.517630
20
60.700020
30
0.0
11
-102.349970
21
60.700010
31
0.0
0
LINE
8
0
6
CONTINUOUS
10
-109.981920
20
60.700030
30
0.0
11
-109.104850
21
60.700020
31
0.0
0
LINE
8
0
6
CONTINUOUS
10
-109.409790
20
60.700030
30
0.0
11
-109.981920
21
60.700030
31
0.0
0
LINE
8
0
6
CONTINUOUS
10
-108.547060
20
60.700020
30
0.0
11
-109.409790
21
60.700030
31
0.0
0
LINE
8
0
6
CONTINUOUS
10
-68.619070
20
35.812900
30
0.0
11
-71.727500
21
35.812910
31
0.0
0
LINE
8
0
6
CONTINUOUS
10
-66.416940
20
33.589360
30
0.0
11
-73.070140
21
36.150190
31
0.0
0
LINE
8
0
6
CONTINUOUS
10
-88.223140
20
35.855511
30
0.0
11
-91.128270
21
33.619130
31
0.0
0
LINE
8
0
6
CONTINUOUS
10
-86.493550
20
36.150200
30
0.0
11
-83.205620
21
33.619140
31
0.0
0
LINE
8
0
6
CONTINUOUS
10
-60.993540
20
18.203950
30
0.0
11
-57.666960
21
20.764770
31
0.0
0
LINE
8
0
6
CONTINUOUS
10
-62.340350
20
18.203950
30
0.0
11
-60.993540
21
18.203950
31
0.0
0
LINE
8
0
6
CONTINUOUS
10
-57.666960
20
33.589370
30
0.0
11
-60.993540
21
36.150190
31
0.0
0
LINE
8
0
6
CONTINUOUS
10
-75.763740
20
18.203960
30
0.0
11
-73.070140
21
18.203960
31
0.0
0
LINE
8
0
6
CONTINUOUS
10
-57.666960
20
20.764770
30
0.0
11
-57.666960
21
33.589370
31
0.0
0
LINE
8
0
6
CONTINUOUS
10
-87.840330
20
18.203950
30
0.0
11
-86.493550
21
18.203950
31
0.0
0
LINE
8
0
6
CONTINUOUS
10
-91.128270
20
20.735020
30
0.0
11
-87.840330
21
18.203950
31
0.0
0
LINE
8
0
6
CONTINUOUS
10
-75.763740
20
18.203960
30
0.0
11
-82.416940
21
20.764770
31
0.0
0
LINE
8
0
6
CONTINUOUS
10
-83.205620
20
20.735010
30
0.0
11
-86.493550
21
18.203950
31
0.0
0
LINE
8
0
6
CONTINUOUS
10
-86.493550
20
18.203950
30
0.0
11
-75.763740
21
18.203960
31
0.0
0
LINE
8
0
6
CONTINUOUS
10
-62.340350
20
18.203950
30
0.0
11
-65.628270
21
20.735010
31
0.0
0
LINE
8
0
6
CONTINUOUS
10
-73.070140
20
18.203960
30
0.0
11
-62.340350
21
18.203950
31
0.0
0
LINE
8
0
6
CONTINUOUS
10
-66.416940
20
20.764780
30
0.0
11
-73.070140
21
18.203960
31
0.0
0
LINE
8
0
6
CONTINUOUS
10
-75.000030
20
60.700000
30
0.0
11
-53.545850
21
60.699990
31
0.0
0
LINE
8
0
6
CONTINUOUS
10
-48.097340
20
60.699990
30
0.0
11
-75.000040
21
60.700010
31
0.0
0
LINE
8
0
6
CONTINUOUS
10
-53.545850
20
60.699990
30
0.0
11
-48.097340
21
60.699990
31
0.0
0
LINE
8
0
6
CONTINUOUS
10
-67.343100
20
60.699990
30
0.0
11
-60.070150
21
60.699990
31
0.0
0
LINE
8
0
6
CONTINUOUS
10
-89.929860
20
60.700000
30
0.0
11
-75.000010
21
60.700000
31
0.0
0
LINE
8
0
6
CONTINUOUS
10
-75.000030
20
60.700000
30
0.0
11
-96.454160
21
60.700010
31
0.0
0
LINE
8
0
6
CONTINUOUS
10
-60.993540
20
36.150190
30
0.0
11
-62.340340
21
36.150190
31
0.0
0
LINE
8
0
6
CONTINUOUS
10
-82.416940
20
33.589380
30
0.0
11
-75.763730
21
36.150190
31
0.0
0
LINE
8
0
6
CONTINUOUS
10
-65.628270
20
33.619130
30
0.0
11
-62.340340
21
36.150190
31
0.0
0
LINE
8
0
6
CONTINUOUS
10
-91.166950
20
20.764780
30
0.0
11
-91.128270
21
20.735020
31
0.0
0
LINE
8
0
6
CONTINUOUS
10
-91.166950
20
33.589370
30
0.0
11
-91.166950
21
20.764780
31
0.0
0
LINE
8
0
6
CONTINUOUS
10
-91.128270
20
33.619130
30
0.0
11
-91.166950
21
33.589370
31
0.0
0
LINE
8
0
6
CONTINUOUS
10
-66.416940
20
20.764780
30
0.0
11
-65.628270
21
20.735010
31
0.0
0
LINE
8
0
6
CONTINUOUS
10
-65.628270
20
33.619130
30
0.0
11
-66.416940
21
33.589360
31
0.0
0
LINE
8
0
6
CONTINUOUS
10
-83.205620
20
20.735010
30
0.0
11
-82.416940
21
20.764770
31
0.0
0
LINE
8
0
6
CONTINUOUS
10
-82.416940
20
33.589380
30
0.0
11
-83.205620
21
33.619140
31
0.0
0
LINE
8
0
6
CONTINUOUS
10
40.515480
20
54.153660
30
0.0
11
40.863610
21
53.830840
31
0.0
0
LINE
8
0
6
CONTINUOUS
10
109.136380
20
53.830780
30
0.0
11
109.484510
21
54.153610
31
0.0
0
LINE
8
0
6
CONTINUOUS
10
40.018070
20
55.678770
30
0.0
11
40.018070
21
55.291020
31
0.0
0
LINE
8
0
6
CONTINUOUS
10
109.981920
20
55.290960
30
0.0
11
109.981920
21
55.678710
31
0.0
0
LINE
8
0
6
CONTINUOUS
10
40.018080
20
60.264770
30
0.0
11
40.018070
21
55.678770
31
0.0
0
LINE
8
0
6
CONTINUOUS
10
109.981920
20
55.678710
30
0.0
11
109.981920
21
60.264700
31
0.0
0
LINE
8
0
6
CONTINUOUS
10
40.018080
20
60.699940
30
0.0
11
40.018080
21
60.264770
31
0.0
0
LINE
8
0
6
CONTINUOUS
10
40.895150
20
60.699940
30
0.0
11
40.018080
21
60.699940
31
0.0
0
LINE
8
0
6
CONTINUOUS
10
47.650040
20
60.699930
30
0.0
11
43.482380
21
60.699930
31
0.0
0
LINE
8
0
6
CONTINUOUS
10
53.189130
20
60.699920
30
0.0
11
47.650040
21
60.699930
31
0.0
0
LINE
8
0
6
CONTINUOUS
10
59.821920
20
60.699910
30
0.0
11
53.189130
21
60.699920
31
0.0
0
LINE
8
0
6
CONTINUOUS
10
67.215790
20
60.699910
30
0.0
11
59.821920
21
60.699910
31
0.0
0
LINE
8
0
6
CONTINUOUS
10
75.000010
20
60.699910
30
0.0
11
67.215790
21
60.699910
31
0.0
0
LINE
8
0
6
CONTINUOUS
10
82.784220
20
60.699900
30
0.0
11
75.000010
21
60.699910
31
0.0
0
LINE
8
0
6
CONTINUOUS
10
90.178090
20
60.699890
30
0.0
11
82.784220
21
60.699900
31
0.0
0
LINE
8
0
6
CONTINUOUS
10
96.810880
20
60.699890
30
0.0
11
90.178090
21
60.699890
31
0.0
0
LINE
8
0
6
CONTINUOUS
10
102.349970
20
60.699880
30
0.0
11
96.810880
21
60.699890
31
0.0
0
LINE
8
0
6
CONTINUOUS
10
109.104850
20
60.699880
30
0.0
11
106.517630
21
60.699890
31
0.0
0
LINE
8
0
6
CONTINUOUS
10
109.981920
20
60.264700
30
0.0
11
109.981920
21
60.699890
31
0.0
0
LINE
8
0
6
CONTINUOUS
10
40.018070
20
55.291020
30
0.0
11
40.165050
21
54.677860
31
0.0
0
LINE
8
0
6
CONTINUOUS
10
40.165050
20
54.677860
30
0.0
11
40.515480
21
54.153660
31
0.0
0
LINE
8
0
6
CONTINUOUS
10
109.834920
20
54.677790
30
0.0
11
109.981920
21
55.290960
31
0.0
0
LINE
8
0
6
CONTINUOUS
10
109.484510
20
54.153610
30
0.0
11
109.834920
21
54.677790
31
0.0
0
LINE
8
0
6
CONTINUOUS
10
40.863610
20
53.830840
30
0.0
11
60.050690
21
36.037960
31
0.0
0
LINE
8
0
6
CONTINUOUS
10
89.949250
20
36.037930
30
0.0
11
109.136380
21
53.830780
31
0.0
0
LINE
8
0
6
CONTINUOUS
10
60.293460
20
35.812830
30
0.0
11
60.662180
21
35.812830
31
0.0
0
LINE
8
0
6
CONTINUOUS
10
60.050690
20
36.037960
30
0.0
11
60.293460
21
35.812830
31
0.0
0
LINE
8
0
6
CONTINUOUS
10
63.501960
20
35.812820
30
0.0
11
65.830610
21
35.812820
31
0.0
0
LINE
8
0
6
CONTINUOUS
10
65.830610
20
35.812820
30
0.0
11
68.619050
21
35.812820
31
0.0
0
LINE
8
0
6
CONTINUOUS
10
68.619050
20
35.812820
30
0.0
11
71.727470
21
35.812820
31
0.0
0
LINE
8
0
6
CONTINUOUS
10
71.727470
20
35.812820
30
0.0
11
75.000000
21
35.812810
31
0.0
0
LINE
8
0
6
CONTINUOUS
10
75.000000
20
35.812810
30
0.0
11
78.272490
21
35.812810
31
0.0
0
LINE
8
0
6
CONTINUOUS
10
78.272490
20
35.812810
30
0.0
11
81.380890
21
35.812810
31
0.0
0
LINE
8
0
6
CONTINUOUS
10
81.380890
20
35.812810
30
0.0
11
84.169360
21
35.812810
31
0.0
0
LINE
8
0
6
CONTINUOUS
10
86.497990
20
35.812800
30
0.0
11
88.223108
21
35.812810
31
0.0
0
LINE
8
0
6
CONTINUOUS
10
88.250080
20
35.812810
30
0.0
11
89.337770
21
35.812800
31
0.0
0
LINE
8
0
6
CONTINUOUS
10
89.706480
20
35.812800
30
0.0
11
89.949250
21
36.037930
31
0.0
0
LINE
8
0
6
CONTINUOUS
10
89.337770
20
35.812800
30
0.0
11
89.706480
21
35.812800
31
0.0
0
LINE
8
0
6
CONTINUOUS
10
65.149005
20
18.203876
30
0.0
11
65.149003
21
17.199960
31
0.0
0
LINE
8
0
6
CONTINUOUS
10
84.850986
20
17.199960
30
0.0
11
84.850989
21
18.203843
31
0.0
0
LINE
8
0
6
CONTINUOUS
10
40.895150
20
60.699940
30
0.0
11
43.482380
21
60.699930
31
0.0
0
LINE
8
0
6
CONTINUOUS
10
41.452940
20
60.699940
30
0.0
11
40.895150
21
60.699940
31
0.0
0
LINE
8
0
6
CONTINUOUS
10
43.482380
20
60.699930
30
0.0
11
43.997850
21
60.699930
31
0.0
0
LINE
8
0
6
CONTINUOUS
10
102.349970
20
60.699880
30
0.0
11
106.517630
21
60.699890
31
0.0
0
LINE
8
0
6
CONTINUOUS
10
109.104850
20
60.699880
30
0.0
11
109.981920
21
60.699890
31
0.0
0
LINE
8
0
6
CONTINUOUS
10
106.517590
20
60.699890
30
0.0
11
102.349920
21
60.699900
31
0.0
0
LINE
8
0
6
CONTINUOUS
10
101.902620
20
60.699900
30
0.0
11
106.002120
21
60.699890
31
0.0
0
LINE
8
0
6
CONTINUOUS
10
102.349920
20
60.699900
30
0.0
11
101.902620
21
60.699900
31
0.0
0
LINE
8
0
6
CONTINUOUS
10
86.497990
20
35.812800
30
0.0
11
84.169360
21
35.812810
31
0.0
0
LINE
8
0
6
CONTINUOUS
10
73.070110
20
36.150100
30
0.0
11
66.416900
21
33.589280
31
0.0
0
LINE
8
0
6
CONTINUOUS
10
91.128240
20
33.619020
30
0.0
11
88.223108
21
35.855396
31
0.0
0
LINE
8
0
6
CONTINUOUS
10
83.205590
20
33.619030
30
0.0
11
86.493510
21
36.150090
31
0.0
0
LINE
8
0
6
CONTINUOUS
10
57.666910
20
20.764700
30
0.0
11
60.993490
21
18.203870
31
0.0
0
LINE
8
0
6
CONTINUOUS
10
60.993490
20
18.203870
30
0.0
11
62.340290
21
18.203870
31
0.0
0
LINE
8
0
6
CONTINUOUS
10
60.993510
20
36.150120
30
0.0
11
57.666920
21
33.589300
31
0.0
0
LINE
8
0
6
CONTINUOUS
10
73.070090
20
18.203860
30
0.0
11
75.763680
21
18.203860
31
0.0
0
LINE
8
0
6
CONTINUOUS
10
57.666920
20
33.589300
30
0.0
11
57.666910
21
20.764700
31
0.0
0
LINE
8
0
6
CONTINUOUS
10
86.493490
20
18.203840
30
0.0
11
87.840270
21
18.203840
31
0.0
0
LINE
8
0
6
CONTINUOUS
10
91.128220
20
20.734910
30
0.0
11
87.840270
21
18.203840
31
0.0
0
LINE
8
0
6
CONTINUOUS
10
82.416890
20
20.764670
30
0.0
11
75.763686
21
18.203862
31
0.0
0
LINE
8
0
6
CONTINUOUS
10
86.493490
20
18.203840
30
0.0
11
83.205570
21
20.734910
31
0.0
0
LINE
8
0
6
CONTINUOUS
10
75.763680
20
18.203860
30
0.0
11
86.493490
21
18.203840
31
0.0
0
LINE
8
0
6
CONTINUOUS
10
65.628220
20
20.734930
30
0.0
11
62.340302
21
18.203879
31
0.0
0
LINE
8
0
6
CONTINUOUS
10
62.340290
20
18.203870
30
0.0
11
73.070090
21
18.203860
31
0.0
0
LINE
8
0
6
CONTINUOUS
10
73.070090
20
18.203860
30
0.0
11
66.416890
21
20.764700
31
0.0
0
LINE
8
0
6
CONTINUOUS
10
60.070140
20
60.699940
30
0.0
11
75.000030
21
60.699930
31
0.0
0
LINE
8
0
6
CONTINUOUS
10
67.343090
20
60.699940
30
0.0
11
60.070140
21
60.699940
31
0.0
0
LINE
8
0
6
CONTINUOUS
10
74.999990
20
60.699930
30
0.0
11
67.343090
21
60.699940
31
0.0
0
LINE
8
0
6
CONTINUOUS
10
48.097340
20
60.699940
30
0.0
11
75.000070
21
60.699930
31
0.0
0
LINE
8
0
6
CONTINUOUS
10
53.545840
20
60.699940
30
0.0
11
48.097340
21
60.699940
31
0.0
0
LINE
8
0
6
CONTINUOUS
10
75.000060
20
60.699940
30
0.0
11
53.545840
21
60.699940
31
0.0
0
LINE
8
0
6
CONTINUOUS
10
60.070150
20
60.699910
30
0.0
11
75.000010
21
60.699910
31
0.0
0
LINE
8
0
6
CONTINUOUS
10
75.000030
20
60.699910
30
0.0
11
53.545850
21
60.699920
31
0.0
0
LINE
8
0
6
CONTINUOUS
10
101.902620
20
60.699900
30
0.0
11
96.454110
21
60.699910
31
0.0
0
LINE
8
0
6
CONTINUOUS
10
75.000070
20
60.699930
30
0.0
11
101.902620
21
60.699900
31
0.0
0
LINE
8
0
6
CONTINUOUS
10
96.454110
20
60.699910
30
0.0
11
75.000060
21
60.699940
31
0.0
0
LINE
8
0
6
CONTINUOUS
10
75.000070
20
60.699920
30
0.0
11
108.547060
21
60.699880
31
0.0
0
LINE
8
0
6
CONTINUOUS
10
109.409790
20
60.699890
30
0.0
11
75.000080
21
60.699930
31
0.0
0
LINE
8
0
6
CONTINUOUS
10
106.002180
20
60.699890
30
0.0
11
75.000070
21
60.699920
31
0.0
0
LINE
8
0
6
CONTINUOUS
10
62.340320
20
36.150110
30
0.0
11
60.993510
21
36.150120
31
0.0
0
LINE
8
0
6
CONTINUOUS
10
75.763700
20
36.150090
30
0.0
11
82.416910
21
33.589270
31
0.0
0
LINE
8
0
6
CONTINUOUS
10
62.340320
20
36.150110
30
0.0
11
65.628230
21
33.619050
31
0.0
0
LINE
8
0
6
CONTINUOUS
10
91.166900
20
20.764670
30
0.0
11
91.166920
21
33.589260
31
0.0
0
LINE
8
0
6
CONTINUOUS
10
91.128220
20
20.734910
30
0.0
11
91.166900
21
20.764670
31
0.0
0
LINE
8
0
6
CONTINUOUS
10
91.166920
20
33.589260
30
0.0
11
91.128240
21
33.619020
31
0.0
0
LINE
8
0
6
CONTINUOUS
10
65.628220
20
20.734930
30
0.0
11
66.416890
21
20.764700
31
0.0
0
LINE
8
0
6
CONTINUOUS
10
66.416900
20
33.589280
30
0.0
11
65.628230
21
33.619050
31
0.0
0
LINE
8
0
6
CONTINUOUS
10
82.416890
20
20.764670
30
0.0
11
83.205570
21
20.734910
31
0.0
0
LINE
8
0
6
CONTINUOUS
10
83.205590
20
33.619030
30
0.0
11
82.416910
21
33.589270
31
0.0
0
LINE
8
0
6
CONTINUOUS
10
48.756570
20
-14.120510
30
0.0
11
63.196020
21
-14.120510
31
0.0
0
LINE
8
0
6
CONTINUOUS
10
75.010120
20
17.199960
30
0.0
11
63.196020
21
17.199960
31
0.0
0
LINE
8
0
6
CONTINUOUS
10
63.196020
20
17.199960
30
0.0
11
48.756580
21
17.199970
31
0.0
0
LINE
8
0
6
CONTINUOUS
10
0.000000
20
-14.120500
30
0.0
11
48.756570
21
-14.120510
31
0.0
0
LINE
8
0
6
CONTINUOUS
10
55.202050
20
-16.341170
30
0.0
11
56.630820
21
-18.289300
31
0.0
0
LINE
8
0
6
CONTINUOUS
10
92.484160
20
-17.335570
30
0.0
11
92.486740
21
-15.809620
31
0.0
0
LINE
8
0
6
CONTINUOUS
10
92.471300
20
-29.777880
30
0.0
11
92.480320
21
-19.617840
31
0.0
0
LINE
8
0
6
CONTINUOUS
10
57.508830
20
-19.723090
30
0.0
11
57.508830
21
-29.797010
31
0.0
0
LINE
8
0
6
CONTINUOUS
10
92.469300
20
-30.200070
30
0.0
11
92.471300
21
-29.777880
31
0.0
0
LINE
8
0
6
CONTINUOUS
10
91.425710
20
-30.200070
30
0.0
11
91.566556
21
-30.200070
31
0.0
0
LINE
8
0
6
CONTINUOUS
10
91.990916
20
-30.200070
30
0.0
11
92.469300
21
-30.200070
31
0.0
0
LINE
8
0
6
CONTINUOUS
10
88.973720
20
-30.200070
30
0.0
11
89.579085
21
-30.200070
31
0.0
0
LINE
8
0
6
CONTINUOUS
10
90.648783
20
-30.200070
30
0.0
11
91.425710
21
-30.200070
31
0.0
0
LINE
8
0
6
CONTINUOUS
10
64.853360
20
-30.200070
30
0.0
11
65.991047
21
-30.200070
31
0.0
0
LINE
8
0
6
CONTINUOUS
10
67.327703
20
-30.200070
30
0.0
11
69.665700
21
-30.200070
31
0.0
0
LINE
8
0
6
CONTINUOUS
10
61.004400
20
-30.200070
30
0.0
11
62.262287
21
-30.200070
31
0.0
0
LINE
8
0
6
CONTINUOUS
10
62.262287
20
-30.200070
30
0.0
11
63.439513
21
-30.200070
31
0.0
0
LINE
8
0
6
CONTINUOUS
10
63.439513
20
-30.200070
30
0.0
11
64.853360
21
-30.200070
31
0.0
0
LINE
8
0
6
CONTINUOUS
10
58.552410
20
-30.200070
30
0.0
11
59.478348
21
-30.200070
31
0.0
0
LINE
8
0
6
CONTINUOUS
10
60.337788
20
-30.200070
30
0.0
11
61.004400
21
-30.200070
31
0.0
0
LINE
8
0
6
CONTINUOUS
10
57.508830
20
-29.797010
30
0.0
11
57.508830
21
-30.200070
31
0.0
0
LINE
8
0
6
CONTINUOUS
10
57.508830
20
-30.200070
30
0.0
11
58.074941
21
-30.200070
31
0.0
0
LINE
8
0
6
CONTINUOUS
10
58.384560
20
-30.200070
30
0.0
11
58.552410
21
-30.200070
31
0.0
0
LINE
8
0
6
CONTINUOUS
10
69.665700
20
-30.200070
30
0.0
11
70.451705
21
-30.200070
31
0.0
0
LINE
8
0
6
CONTINUOUS
10
70.451705
20
-30.200070
30
0.0
11
71.146578
21
-30.200070
31
0.0
0
LINE
8
0
6
CONTINUOUS
10
71.146578
20
-30.200070
30
0.0
11
74.989080
21
-30.200070
31
0.0
0
LINE
8
0
6
CONTINUOUS
10
74.989080
20
-30.200070
30
0.0
11
78.672743
21
-30.200070
31
0.0
0
LINE
8
0
6
CONTINUOUS
10
79.573631
20
-30.200070
30
0.0
11
80.312440
21
-30.200070
31
0.0
0
LINE
8
0
6
CONTINUOUS
10
80.312440
20
-30.200070
30
0.0
11
82.510093
21
-30.200070
31
0.0
0
LINE
8
0
6
CONTINUOUS
10
84.072448
20
-30.200070
30
0.0
11
85.124770
21
-30.200070
31
0.0
0
LINE
8
0
6
CONTINUOUS
10
85.124770
20
-30.200070
30
0.0
11
86.432495
21
-30.200070
31
0.0
0
LINE
8
0
6
CONTINUOUS
10
86.432495
20
-30.200070
30
0.0
11
87.831332
21
-30.200070
31
0.0
0
LINE
8
0
6
CONTINUOUS
10
87.831332
20
-30.200070
30
0.0
11
88.973720
21
-30.200070
31
0.0
0
LINE
8
0
6
CONTINUOUS
10
56.630820
20
-18.289300
30
0.0
11
57.508830
21
-19.723090
31
0.0
0
LINE
8
0
6
CONTINUOUS
10
92.480320
20
-19.617840
30
0.0
11
92.484160
21
-17.335570
31
0.0
0
LINE
8
0
6
CONTINUOUS
10
92.486740
20
-15.809620
30
0.0
11
92.490370
21
-14.120520
31
0.0
0
LINE
8
0
6
CONTINUOUS
10
63.136950
20
-15.620250
30
0.0
11
68.409970
21
-15.268500
31
0.0
0
LINE
8
0
6
CONTINUOUS
10
58.852740
20
-15.962540
30
0.0
11
63.136950
21
-15.620250
31
0.0
0
LINE
8
0
6
CONTINUOUS
10
50.778800
20
-14.120510
30
0.0
11
55.202050
21
-16.341170
31
0.0
0
LINE
8
0
6
CONTINUOUS
10
63.196020
20
-14.120510
30
0.0
11
75.010110
21
-14.120520
31
0.0
0
LINE
8
0
6
CONTINUOUS
10
92.490370
20
-14.120520
30
0.0
11
92.490370
21
-11.826480
31
0.0
0
LINE
8
0
6
CONTINUOUS
10
48.756580
20
17.199970
30
0.0
11
0.000000
21
17.199980
31
0.0
0
LINE
8
0
6
CONTINUOUS
10
88.994790
20
17.199960
30
0.0
11
85.145820
21
17.199960
31
0.0
0
LINE
8
0
6
CONTINUOUS
10
80.333500
20
17.199960
30
0.0
11
75.010120
21
17.199960
31
0.0
0
LINE
8
0
6
CONTINUOUS
10
85.145820
20
17.199960
30
0.0
11
80.333500
21
17.199960
31
0.0
0
LINE
8
0
6
CONTINUOUS
10
91.446780
20
17.199960
30
0.0
11
88.994790
21
17.199960
31
0.0
0
LINE
8
0
6
CONTINUOUS
10
92.490370
20
17.199960
30
0.0
11
91.446780
21
17.199960
31
0.0
0
LINE
8
0
6
CONTINUOUS
10
92.490370
20
15.398520
30
0.0
11
92.490370
21
17.199960
31
0.0
0
LINE
8
0
6
CONTINUOUS
10
63.905730
20
-14.120510
30
0.0
11
68.409970
21
-15.268500
31
0.0
0
LINE
8
0
6
CONTINUOUS
10
92.490370
20
-11.826480
30
0.0
11
92.490370
21
15.398520
31
0.0
0
LINE
8
0
6
CONTINUOUS
10
-63.196020
20
-14.120500
30
0.0
11
-48.756580
21
-14.120500
31
0.0
0
LINE
8
0
6
CONTINUOUS
10
-63.196020
20
17.199980
30
0.0
11
-75.010120
21
17.199980
31
0.0
0
LINE
8
0
6
CONTINUOUS
10
-48.756580
20
17.199980
30
0.0
11
-63.196020
21
17.199980
31
0.0
0
LINE
8
0
6
CONTINUOUS
10
-48.756580
20
-14.120500
30
0.0
11
0.000000
21
-14.120500
31
0.0
0
LINE
8
0
6
CONTINUOUS
10
-56.630830
20
-18.289290
30
0.0
11
-55.202060
21
-16.341150
31
0.0
0
LINE
8
0
6
CONTINUOUS
10
-92.486740
20
-15.809590
30
0.0
11
-92.484160
21
-17.335550
31
0.0
0
LINE
8
0
6
CONTINUOUS
10
-92.480320
20
-19.617810
30
0.0
11
-92.471320
21
-29.777860
31
0.0
0
LINE
8
0
6
CONTINUOUS
10
-57.508840
20
-29.797000
30
0.0
11
-57.508840
21
-19.723070
31
0.0
0
LINE
8
0
6
CONTINUOUS
10
-92.469320
20
-30.200050
30
0.0
11
-91.990896
21
-30.200050
31
0.0
0
LINE
8
0
6
CONTINUOUS
10
-91.990896
20
-30.200050
30
0.0
11
-91.566600
21
-30.200050
31
0.0
0
LINE
8
0
6
CONTINUOUS
10
-91.566600
20
-30.200050
30
0.0
11
-91.425730
21
-30.200050
31
0.0
0
LINE
8
0
6
CONTINUOUS
10
-92.471320
20
-29.777860
30
0.0
11
-92.469320
21
-30.200050
31
0.0
0
LINE
8
0
6
CONTINUOUS
10
-91.425730
20
-30.200050
30
0.0
11
-90.648644
21
-30.200050
31
0.0
0
LINE
8
0
6
CONTINUOUS
10
-90.648644
20
-30.200050
30
0.0
11
-89.579173
21
-30.200050
31
0.0
0
LINE
8
0
6
CONTINUOUS
10
-89.579173
20
-30.200050
30
0.0
11
-88.973740
21
-30.200050
31
0.0
0
LINE
8
0
6
CONTINUOUS
10
-69.665710
20
-30.200050
30
0.0
11
-67.327757
21
-30.200050
31
0.0
0
LINE
8
0
6
CONTINUOUS
10
-67.327757
20
-30.200050
30
0.0
11
-65.991008
21
-30.200050
31
0.0
0
LINE
8
0
6
CONTINUOUS
10
-65.991008
20
-30.200050
30
0.0
11
-64.853370
21
-30.200050
31
0.0
0
LINE
8
0
6
CONTINUOUS
10
-64.853370
20
-30.200050
30
0.0
11
-63.439647
21
-30.200050
31
0.0
0
LINE
8
0
6
CONTINUOUS
10
-63.439647
20
-30.200050
30
0.0
11
-62.262201
21
-30.200050
31
0.0
0
LINE
8
0
6
CONTINUOUS
10
-62.262201
20
-30.200050
30
0.0
11
-61.004410
21
-30.200050
31
0.0
0
LINE
8
0
6
CONTINUOUS
10
-61.004410
20
-30.200050
30
0.0
11
-60.337862
21
-30.200050
31
0.0
0
LINE
8
0
6
CONTINUOUS
10
-60.337862
20
-30.200050
30
0.0
11
-59.478212
21
-30.200050
31
0.0
0
LINE
8
0
6
CONTINUOUS
10
-59.478212
20
-30.200050
30
0.0
11
-58.552420
21
-30.200050
31
0.0
0
LINE
8
0
6
CONTINUOUS
10
-58.552420
20
-30.200050
30
0.0
11
-58.384590
21
-30.200050
31
0.0
0
LINE
8
0
6
CONTINUOUS
10
-58.384590
20
-30.200050
30
0.0
11
-58.074921
21
-30.200050
31
0.0
0
LINE
8
0
6
CONTINUOUS
10
-58.074921
20
-30.200050
30
0.0
11
-57.508840
21
-30.200050
31
0.0
0
LINE
8
0
6
CONTINUOUS
10
-57.508840
20
-30.200050
30
0.0
11
-57.508840
21
-29.797000
31
0.0
0
LINE
8
0
6
CONTINUOUS
10
-74.989080
20
-30.200050
30
0.0
11
-71.146867
21
-30.200050
31
0.0
0
LINE
8
0
6
CONTINUOUS
10
-71.146867
20
-30.200050
30
0.0
11
-70.451675
21
-30.200050
31
0.0
0
LINE
8
0
6
CONTINUOUS
10
-70.451675
20
-30.200050
30
0.0
11
-69.665710
21
-30.200050
31
0.0
0
LINE
8
0
6
CONTINUOUS
10
-80.312460
20
-30.200050
30
0.0
11
-79.573622
21
-30.200050
31
0.0
0
LINE
8
0
6
CONTINUOUS
10
-79.573622
20
-30.200050
30
0.0
11
-78.672822
21
-30.200050
31
0.0
0
LINE
8
0
6
CONTINUOUS
10
-78.672822
20
-30.200050
30
0.0
11
-74.989080
21
-30.200050
31
0.0
0
LINE
8
0
6
CONTINUOUS
10
-85.124790
20
-30.200050
30
0.0
11
-84.072417
21
-30.200050
31
0.0
0
LINE
8
0
6
CONTINUOUS
10
-84.072417
20
-30.200050
30
0.0
11
-82.510132
21
-30.200050
31
0.0
0
LINE
8
0
6
CONTINUOUS
10
-82.510132
20
-30.200050
30
0.0
11
-80.312460
21
-30.200050
31
0.0
0
LINE
8
0
6
CONTINUOUS
10
-88.973740
20
-30.200050
30
0.0
11
-87.831248
21
-30.200050
31
0.0
0
LINE
8
0
6
CONTINUOUS
10
-87.831248
20
-30.200050
30
0.0
11
-86.432643
21
-30.200050
31
0.0
0
LINE
8
0
6
CONTINUOUS
10
-86.432643
20
-30.200050
30
0.0
11
-85.124790
21
-30.200050
31
0.0
0
LINE
8
0
6
CONTINUOUS
10
-57.508840
20
-19.723070
30
0.0
11
-56.630830
21
-18.289290
31
0.0
0
LINE
8
0
6
CONTINUOUS
10
-92.484160
20
-17.335550
30
0.0
11
-92.480320
21
-19.617810
31
0.0
0
LINE
8
0
6
CONTINUOUS
10
-92.490370
20
-14.120500
30
0.0
11
-92.486740
21
-15.809590
31
0.0
0
LINE
8
0
6
CONTINUOUS
10
-68.409980
20
-15.268480
30
0.0
11
-63.136960
21
-15.620230
31
0.0
0
LINE
8
0
6
CONTINUOUS
10
-63.136960
20
-15.620230
30
0.0
11
-58.852750
21
-15.962520
31
0.0
0
LINE
8
0
6
CONTINUOUS
10
-55.202060
20
-16.341150
30
0.0
11
-50.778810
21
-14.120500
31
0.0
0
LINE
8
0
6
CONTINUOUS
10
-75.010120
20
-14.120500
30
0.0
11
-63.196020
21
-14.120500
31
0.0
0
LINE
8
0
6
CONTINUOUS
10
-92.490370
20
-11.826450
30
0.0
11
-92.490370
21
-14.120500
31
0.0
0
LINE
8
0
6
CONTINUOUS
10
0.000000
20
17.199980
30
0.0
11
-48.756580
21
17.199980
31
0.0
0
LINE
8
0
6
CONTINUOUS
10
-85.145820
20
17.199980
30
0.0
11
-88.994790
21
17.199980
31
0.0
0
LINE
8
0
6
CONTINUOUS
10
-75.010120
20
17.199980
30
0.0
11
-80.333500
21
17.199980
31
0.0
0
LINE
8
0
6
CONTINUOUS
10
-80.333500
20
17.199980
30
0.0
11
-85.145820
21
17.199980
31
0.0
0
LINE
8
0
6
CONTINUOUS
10
-88.994790
20
17.199980
30
0.0
11
-91.446780
21
17.199980
31
0.0
0
LINE
8
0
6
CONTINUOUS
10
-92.490370
20
17.199980
30
0.0
11
-92.490370
21
15.398540
31
0.0
0
LINE
8
0
6
CONTINUOUS
10
-91.446780
20
17.199980
30
0.0
11
-92.490370
21
17.199980
31
0.0
0
LINE
8
0
6
CONTINUOUS
10
-68.409980
20
-15.268480
30
0.0
11
-63.905730
21
-14.120500
31
0.0
0
LINE
8
0
6
CONTINUOUS
10
-92.490370
20
15.398540
30
0.0
11
-92.490370
21
-11.826450
31
0.0
0
LINE
8
0
6
CONTINUOUS
10
90.040380
20
-30.200060
30
0.0
11
89.924968
21
-30.200060
31
0.0
0
LINE
8
0
6
CONTINUOUS
10
59.967170
20
-30.200070
30
0.0
11
59.477601
21
-30.200070
31
0.0
0
LINE
8
0
6
CONTINUOUS
10
58.384997
20
-30.200070
30
0.0
11
58.232610
21
-30.200070
31
0.0
0
LINE
8
0
6
CONTINUOUS
10
57.640980
20
-30.200070
30
0.0
11
57.724990
21
-30.743100
31
0.0
0
LINE
8
0
6
CONTINUOUS
10
58.232610
20
-30.200070
30
0.0
11
58.075371
21
-30.200070
31
0.0
0
LINE
8
0
6
CONTINUOUS
10
60.337696
20
-30.200145
30
0.0
11
59.967170
21
-30.200070
31
0.0
0
LINE
8
0
6
CONTINUOUS
10
62.719610
20
-30.200630
30
0.0
11
62.262917
21
-30.200537
31
0.0
0
LINE
8
0
6
CONTINUOUS
10
91.774920
20
-30.200060
30
0.0
11
91.566140
21
-30.200060
31
0.0
0
LINE
8
0
6
CONTINUOUS
10
90.649704
20
-30.200060
30
0.0
11
90.040380
21
-30.200060
31
0.0
0
LINE
8
0
6
CONTINUOUS
10
91.990341
20
-30.200060
30
0.0
11
91.774920
21
-30.200060
31
0.0
0
LINE
8
0
6
CONTINUOUS
10
92.282540
20
-30.743090
30
0.0
11
92.366550
21
-30.200060
31
0.0
0
LINE
8
0
6
CONTINUOUS
10
90.040380
20
-30.200060
30
0.0
11
89.579203
21
-30.200154
31
0.0
0
LINE
8
0
6
CONTINUOUS
10
87.830688
20
-30.200510
30
0.0
11
87.287930
21
-30.200620
31
0.0
0
LINE
8
0
6
CONTINUOUS
10
70.509940
20
-30.200060
30
0.0
11
70.445300
21
-30.200060
31
0.0
0
LINE
8
0
6
CONTINUOUS
10
71.237758
20
-30.200060
30
0.0
11
70.509940
21
-30.200060
31
0.0
0
LINE
8
0
6
CONTINUOUS
10
66.322370
20
-30.200060
30
0.0
11
65.991157
21
-30.200113
31
0.0
0
LINE
8
0
6
CONTINUOUS
10
83.685170
20
-30.200060
30
0.0
11
82.508380
21
-30.200060
31
0.0
0
LINE
8
0
6
CONTINUOUS
10
79.575602
20
-30.200060
30
0.0
11
79.497610
21
-30.200060
31
0.0
0
LINE
8
0
6
CONTINUOUS
10
79.497610
20
-30.200060
30
0.0
11
78.676766
21
-30.200060
31
0.0
0
LINE
8
0
6
CONTINUOUS
10
63.438649
20
-30.200518
30
0.0
11
62.719610
21
-30.200630
31
0.0
0
LINE
8
0
6
CONTINUOUS
10
87.287930
20
-30.200620
30
0.0
11
86.433358
21
-30.200492
31
0.0
0
LINE
8
0
6
CONTINUOUS
10
83.168100
20
-60.700020
30
0.0
11
85.612310
21
-60.700020
31
0.0
0
LINE
8
0
6
CONTINUOUS
10
64.395240
20
-60.700020
30
0.0
11
66.839450
21
-60.700020
31
0.0
0
LINE
8
0
6
CONTINUOUS
10
78.893700
20
-60.049910
30
0.0
11
75.003780
21
-60.049820
31
0.0
0
LINE
8
0
6
CONTINUOUS
10
75.003780
20
-60.700020
30
0.0
11
78.880580
21
-60.700020
31
0.0
0
LINE
8
0
6
CONTINUOUS
10
80.022350
20
-60.049920
30
0.0
11
80.089850
21
-59.248020
31
0.0
0
LINE
8
0
6
CONTINUOUS
10
79.469570
20
-60.700020
30
0.0
11
80.022350
21
-60.049920
31
0.0
0
LINE
8
0
6
CONTINUOUS
10
79.991160
20
-60.049980
30
0.0
11
80.051460
21
-59.248160
31
0.0
0
LINE
8
0
6
CONTINUOUS
10
79.293730
20
-60.700020
30
0.0
11
79.469570
21
-60.700020
31
0.0
0
LINE
8
0
6
CONTINUOUS
10
79.991160
20
-60.049980
30
0.0
11
79.558600
21
-60.050010
31
0.0
0
LINE
8
0
6
CONTINUOUS
10
79.558600
20
-60.050010
30
0.0
11
79.575080
21
-59.248220
31
0.0
0
LINE
8
0
6
CONTINUOUS
10
79.558600
20
-60.050010
30
0.0
11
78.893700
21
-60.049910
31
0.0
0
LINE
8
0
6
CONTINUOUS
10
78.880580
20
-60.700020
30
0.0
11
79.293730
21
-60.700020
31
0.0
0
LINE
8
0
6
CONTINUOUS
10
81.705900
20
-60.049870
30
0.0
11
80.506820
21
-60.050020
31
0.0
0
LINE
8
0
6
CONTINUOUS
10
79.892590
20
-60.700020
30
0.0
11
81.116320
21
-60.700020
31
0.0
0
LINE
8
0
6
CONTINUOUS
10
80.506820
20
-60.050020
30
0.0
11
79.991790
21
-60.049820
31
0.0
0
LINE
8
0
6
CONTINUOUS
10
79.392770
20
-60.700020
30
0.0
11
79.892590
21
-60.700020
31
0.0
0
LINE
8
0
6
CONTINUOUS
10
81.116320
20
-60.700020
30
0.0
11
83.168100
21
-60.700020
31
0.0
0
LINE
8
0
6
CONTINUOUS
10
76.825370
20
-52.575820
30
0.0
11
75.003780
21
-52.252160
31
0.0
0
LINE
8
0
6
CONTINUOUS
10
76.641420
20
-53.083580
30
0.0
11
75.003780
21
-52.810730
31
0.0
0
LINE
8
0
6
CONTINUOUS
10
79.398350
20
-55.134490
30
0.0
11
78.362090
21
-53.586550
31
0.0
0
LINE
8
0
6
CONTINUOUS
10
78.942000
20
-55.351060
30
0.0
11
78.007360
21
-53.974710
31
0.0
0
LINE
8
0
6
CONTINUOUS
10
80.081750
20
-58.807610
30
0.0
11
79.879060
21
-56.926670
31
0.0
0
LINE
8
0
6
CONTINUOUS
10
80.041560
20
-58.819930
30
0.0
11
79.813490
21
-56.954750
31
0.0
0
LINE
8
0
6
CONTINUOUS
10
79.564920
20
-58.864720
30
0.0
11
79.324590
21
-57.053820
31
0.0
0
LINE
8
0
6
CONTINUOUS
10
79.813490
20
-56.954750
30
0.0
11
79.398350
21
-55.134490
31
0.0
0
LINE
8
0
6
CONTINUOUS
10
79.324590
20
-57.053820
30
0.0
11
78.942000
21
-55.351060
31
0.0
0
LINE
8
0
6
CONTINUOUS
10
79.564920
20
-58.864720
30
0.0
11
79.575080
21
-59.248220
31
0.0
0
LINE
8
0
6
CONTINUOUS
10
78.362090
20
-53.586550
30
0.0
11
76.825370
21
-52.575820
31
0.0
0
LINE
8
0
6
CONTINUOUS
10
78.007360
20
-53.974710
30
0.0
11
76.641420
21
-53.083580
31
0.0
0
LINE
8
0
6
CONTINUOUS
10
80.089850
20
-59.248020
30
0.0
11
80.081750
21
-58.807610
31
0.0
0
LINE
8
0
6
CONTINUOUS
10
80.041560
20
-58.819930
30
0.0
11
80.051460
21
-59.248160
31
0.0
0
LINE
8
0
6
CONTINUOUS
10
79.867230
20
-56.875680
30
0.0
11
79.450510
21
-55.085500
31
0.0
0
LINE
8
0
6
CONTINUOUS
10
79.879060
20
-56.926670
30
0.0
11
79.867230
21
-56.875680
31
0.0
0
LINE
8
0
6
CONTINUOUS
10
75.003780
20
-49.370520
30
0.0
11
78.840770
21
-49.870020
31
0.0
0
LINE
8
0
6
CONTINUOUS
10
78.840770
20
-49.870020
30
0.0
11
81.603090
21
-49.883750
31
0.0
0
LINE
8
0
6
CONTINUOUS
10
75.003780
20
-60.049820
30
0.0
11
71.113850
21
-60.049910
31
0.0
0
LINE
8
0
6
CONTINUOUS
10
71.126980
20
-60.700020
30
0.0
11
75.003780
21
-60.700020
31
0.0
0
LINE
8
0
6
CONTINUOUS
10
69.917710
20
-59.248010
30
0.0
11
69.985200
21
-60.049910
31
0.0
0
LINE
8
0
6
CONTINUOUS
10
69.985200
20
-60.049910
30
0.0
11
70.537990
21
-60.700020
31
0.0
0
LINE
8
0
6
CONTINUOUS
10
69.956090
20
-59.248150
30
0.0
11
70.016390
21
-60.049980
31
0.0
0
LINE
8
0
6
CONTINUOUS
10
70.448950
20
-60.050010
30
0.0
11
70.016390
21
-60.049980
31
0.0
0
LINE
8
0
6
CONTINUOUS
10
70.537990
20
-60.700020
30
0.0
11
70.713830
21
-60.700020
31
0.0
0
LINE
8
0
6
CONTINUOUS
10
70.432470
20
-59.248220
30
0.0
11
70.448950
21
-60.050010
31
0.0
0
LINE
8
0
6
CONTINUOUS
10
71.113850
20
-60.049910
30
0.0
11
70.448950
21
-60.050010
31
0.0
0
LINE
8
0
6
CONTINUOUS
10
70.713830
20
-60.700020
30
0.0
11
71.126980
21
-60.700020
31
0.0
0
LINE
8
0
6
CONTINUOUS
10
69.500730
20
-60.050020
30
0.0
11
68.301640
21
-60.049870
31
0.0
0
LINE
8
0
6
CONTINUOUS
10
68.891230
20
-60.700020
30
0.0
11
70.114960
21
-60.700020
31
0.0
0
LINE
8
0
6
CONTINUOUS
10
70.015760
20
-60.049820
30
0.0
11
69.500730
21
-60.050020
31
0.0
0
LINE
8
0
6
CONTINUOUS
10
70.114960
20
-60.700020
30
0.0
11
70.614790
21
-60.700020
31
0.0
0
LINE
8
0
6
CONTINUOUS
10
66.839450
20
-60.700020
30
0.0
11
68.891230
21
-60.700020
31
0.0
0
LINE
8
0
6
CONTINUOUS
10
75.003780
20
-52.252160
30
0.0
11
73.182190
21
-52.575820
31
0.0
0
LINE
8
0
6
CONTINUOUS
10
75.003780
20
-52.810730
30
0.0
11
73.366140
21
-53.083590
31
0.0
0
LINE
8
0
6
CONTINUOUS
10
71.645470
20
-53.586550
30
0.0
11
70.609200
21
-55.134490
31
0.0
0
LINE
8
0
6
CONTINUOUS
10
72.000190
20
-53.974710
30
0.0
11
71.065560
21
-55.351060
31
0.0
0
LINE
8
0
6
CONTINUOUS
10
70.128490
20
-56.926670
30
0.0
11
69.925800
21
-58.807610
31
0.0
0
LINE
8
0
6
CONTINUOUS
10
70.194060
20
-56.954750
30
0.0
11
69.965990
21
-58.819930
31
0.0
0
LINE
8
0
6
CONTINUOUS
10
70.682960
20
-57.053820
30
0.0
11
70.442630
21
-58.864710
31
0.0
0
LINE
8
0
6
CONTINUOUS
10
70.609200
20
-55.134490
30
0.0
11
70.194060
21
-56.954750
31
0.0
0
LINE
8
0
6
CONTINUOUS
10
71.065560
20
-55.351060
30
0.0
11
70.682960
21
-57.053820
31
0.0
0
LINE
8
0
6
CONTINUOUS
10
70.432470
20
-59.248220
30
0.0
11
70.442630
21
-58.864710
31
0.0
0
LINE
8
0
6
CONTINUOUS
10
73.182190
20
-52.575820
30
0.0
11
71.645470
21
-53.586550
31
0.0
0
LINE
8
0
6
CONTINUOUS
10
73.366140
20
-53.083590
30
0.0
11
72.000190
21
-53.974710
31
0.0
0
LINE
8
0
6
CONTINUOUS
10
69.925800
20
-58.807610
30
0.0
11
69.917710
21
-59.248010
31
0.0
0
LINE
8
0
6
CONTINUOUS
10
69.956090
20
-59.248150
30
0.0
11
69.965990
21
-58.819930
31
0.0
0
LINE
8
0
6
CONTINUOUS
10
70.140330
20
-56.875680
30
0.0
11
70.128490
21
-56.926670
31
0.0
0
LINE
8
0
6
CONTINUOUS
10
70.557040
20
-55.085500
30
0.0
11
70.140330
21
-56.875680
31
0.0
0
LINE
8
0
6
CONTINUOUS
10
75.003780
20
-50.757920
30
0.0
11
75.003780
21
-49.370520
31
0.0
0
LINE
8
0
6
CONTINUOUS
10
71.166780
20
-49.870020
30
0.0
11
75.003780
21
-49.370520
31
0.0
0
LINE
8
0
6
CONTINUOUS
10
68.404470
20
-49.883750
30
0.0
11
71.166780
21
-49.870020
31
0.0
0
LINE
8
0
6
CONTINUOUS
10
104.499900
20
-60.049920
30
0.0
11
102.193090
21
-60.049820
31
0.0
0
LINE
8
0
6
CONTINUOUS
10
102.193560
20
-60.700020
30
0.0
11
104.273340
21
-60.700020
31
0.0
0
LINE
8
0
6
CONTINUOUS
10
105.125210
20
-60.049980
30
0.0
11
104.499900
21
-60.049920
31
0.0
0
LINE
8
0
6
CONTINUOUS
10
104.273340
20
-60.700020
30
0.0
11
104.689360
21
-60.700020
31
0.0
0
LINE
8
0
6
CONTINUOUS
10
105.158500
20
-59.248160
30
0.0
11
105.125210
21
-60.049980
31
0.0
0
LINE
8
0
6
CONTINUOUS
10
105.579620
20
-60.050010
30
0.0
11
105.125210
21
-60.049980
31
0.0
0
LINE
8
0
6
CONTINUOUS
10
104.689360
20
-60.700020
30
0.0
11
105.037680
21
-60.700020
31
0.0
0
LINE
8
0
6
CONTINUOUS
10
105.656460
20
-59.248220
30
0.0
11
105.579620
21
-60.050010
31
0.0
0
LINE
8
0
6
CONTINUOUS
10
105.646330
20
-60.049910
30
0.0
11
105.726600
21
-59.248010
31
0.0
0
LINE
8
0
6
CONTINUOUS
10
105.646330
20
-60.049910
30
0.0
11
105.579620
21
-60.050010
31
0.0
0
LINE
8
0
6
CONTINUOUS
10
105.076400
20
-60.700020
30
0.0
11
105.646330
21
-60.049910
31
0.0
0
LINE
8
0
6
CONTINUOUS
10
88.232050
20
-60.050020
30
0.0
11
85.623230
21
-60.049870
31
0.0
0
LINE
8
0
6
CONTINUOUS
10
85.612310
20
-60.700020
30
0.0
11
88.229600
21
-60.700020
31
0.0
0
LINE
8
0
6
CONTINUOUS
10
102.193090
20
-60.049820
30
0.0
11
98.654010
21
-60.049850
31
0.0
0
LINE
8
0
6
CONTINUOUS
10
98.654730
20
-60.700020
30
0.0
11
102.193560
21
-60.700020
31
0.0
0
LINE
8
0
6
CONTINUOUS
10
98.654010
20
-60.049850
30
0.0
11
95.115520
21
-60.049860
31
0.0
0
LINE
8
0
6
CONTINUOUS
10
95.116390
20
-60.700020
30
0.0
11
98.654730
21
-60.700020
31
0.0
0
LINE
8
0
6
CONTINUOUS
10
95.115520
20
-60.049860
30
0.0
11
91.577540
21
-60.049820
31
0.0
0
LINE
8
0
6
CONTINUOUS
10
91.578200
20
-60.700020
30
0.0
11
95.116390
21
-60.700020
31
0.0
0
LINE
8
0
6
CONTINUOUS
10
91.577540
20
-60.049820
30
0.0
11
88.232050
21
-60.050020
31
0.0
0
LINE
8
0
6
CONTINUOUS
10
88.229600
20
-60.700020
30
0.0
11
91.578200
21
-60.700020
31
0.0
0
LINE
8
0
6
CONTINUOUS
10
105.160490
20
-52.252160
30
0.0
11
104.462190
21
-52.106330
31
0.0
0
LINE
8
0
6
CONTINUOUS
10
105.160490
20
-52.252160
30
0.0
11
105.158540
21
-52.575820
31
0.0
0
LINE
8
0
6
CONTINUOUS
10
105.656710
20
-52.810740
30
0.0
11
105.160490
21
-52.252160
31
0.0
0
LINE
8
0
6
CONTINUOUS
10
105.656710
20
-52.810740
30
0.0
11
105.656460
21
-53.083590
31
0.0
0
LINE
8
0
6
CONTINUOUS
10
105.726590
20
-53.529630
30
0.0
11
105.656710
21
-52.810740
31
0.0
0
LINE
8
0
6
CONTINUOUS
10
105.726590
20
-53.756810
30
0.0
11
105.726590
21
-53.529630
31
0.0
0
LINE
8
0
6
CONTINUOUS
10
105.158160
20
-53.586550
30
0.0
11
105.157970
21
-55.134490
31
0.0
0
LINE
8
0
6
CONTINUOUS
10
105.656420
20
-53.974710
30
0.0
11
105.656390
21
-55.351060
31
0.0
0
LINE
8
0
6
CONTINUOUS
10
105.157940
20
-56.954750
30
0.0
11
105.158410
21
-58.819930
31
0.0
0
LINE
8
0
6
CONTINUOUS
10
105.656420
20
-57.053830
30
0.0
11
105.656450
21
-58.864720
31
0.0
0
LINE
8
0
6
CONTINUOUS
10
105.726600
20
-58.921720
30
0.0
11
105.726640
21
-57.179110
31
0.0
0
LINE
8
0
6
CONTINUOUS
10
105.157970
20
-55.134490
30
0.0
11
105.157940
21
-56.954750
31
0.0
0
LINE
8
0
6
CONTINUOUS
10
105.656390
20
-55.351060
30
0.0
11
105.656420
21
-57.053830
31
0.0
0
LINE
8
0
6
CONTINUOUS
10
105.726640
20
-57.179110
30
0.0
11
105.726580
21
-55.637370
31
0.0
0
LINE
8
0
6
CONTINUOUS
10
105.726600
20
-59.248010
30
0.0
11
105.726600
21
-58.921720
31
0.0
0
LINE
8
0
6
CONTINUOUS
10
105.656460
20
-59.248220
30
0.0
11
105.656450
21
-58.864720
31
0.0
0
LINE
8
0
6
CONTINUOUS
10
105.158540
20
-52.575820
30
0.0
11
105.158160
21
-53.586550
31
0.0
0
LINE
8
0
6
CONTINUOUS
10
105.656460
20
-53.083590
30
0.0
11
105.656420
21
-53.974710
31
0.0
0
LINE
8
0
6
CONTINUOUS
10
105.726600
20
-54.489530
30
0.0
11
105.726590
21
-53.756810
31
0.0
0
LINE
8
0
6
CONTINUOUS
10
105.158500
20
-59.248160
30
0.0
11
105.158410
21
-58.819930
31
0.0
0
LINE
8
0
6
CONTINUOUS
10
104.462190
20
-52.106330
30
0.0
11
102.944520
21
-51.944110
31
0.0
0
LINE
8
0
6
CONTINUOUS
10
91.368720
20
-36.051870
30
0.0
11
91.886540
21
-33.302890
31
0.0
0
LINE
8
0
6
CONTINUOUS
10
102.944520
20
-51.944110
30
0.0
11
100.154220
21
-51.682520
31
0.0
0
LINE
8
0
6
CONTINUOUS
10
100.154220
20
-51.682520
30
0.0
11
97.390600
21
-51.216860
31
0.0
0
LINE
8
0
6
CONTINUOUS
10
97.390600
20
-51.216860
30
0.0
11
94.625880
21
-50.757930
31
0.0
0
LINE
8
0
6
CONTINUOUS
10
94.625880
20
-50.757930
30
0.0
11
92.212120
21
-49.370520
31
0.0
0
LINE
8
0
6
CONTINUOUS
10
90.610810
20
-49.870020
30
0.0
11
92.212120
21
-49.370520
31
0.0
0
LINE
8
0
6
CONTINUOUS
10
92.212120
20
-49.370520
30
0.0
11
90.620660
21
-47.082220
31
0.0
0
LINE
8
0
6
CONTINUOUS
10
90.620660
20
-47.082220
30
0.0
11
90.112930
21
-44.336350
31
0.0
0
LINE
8
0
6
CONTINUOUS
10
90.112930
20
-44.336350
30
0.0
11
90.332070
21
-41.550120
31
0.0
0
LINE
8
0
6
CONTINUOUS
10
90.332070
20
-41.550120
30
0.0
11
90.825540
21
-38.796080
31
0.0
0
LINE
8
0
6
CONTINUOUS
10
90.825540
20
-38.796080
30
0.0
11
91.368720
21
-36.051870
31
0.0
0
LINE
8
0
6
CONTINUOUS
10
87.467640
20
-49.883750
30
0.0
11
90.610810
21
-49.870020
31
0.0
0
LINE
8
0
6
CONTINUOUS
10
91.886540
20
-33.302890
30
0.0
11
92.282540
21
-30.743090
31
0.0
0
LINE
8
0
6
CONTINUOUS
10
45.734220
20
-60.700020
30
0.0
11
47.814000
21
-60.700020
31
0.0
0
LINE
8
0
6
CONTINUOUS
10
47.814470
20
-60.049830
30
0.0
11
45.507650
21
-60.049930
31
0.0
0
LINE
8
0
6
CONTINUOUS
10
45.318190
20
-60.700020
30
0.0
11
45.734220
21
-60.700020
31
0.0
0
LINE
8
0
6
CONTINUOUS
10
45.507650
20
-60.049930
30
0.0
11
44.882350
21
-60.050000
31
0.0
0
LINE
8
0
6
CONTINUOUS
10
44.882350
20
-60.050000
30
0.0
11
44.849050
21
-59.248170
31
0.0
0
LINE
8
0
6
CONTINUOUS
10
44.969880
20
-60.700020
30
0.0
11
45.318190
21
-60.700020
31
0.0
0
LINE
8
0
6
CONTINUOUS
10
44.882350
20
-60.050000
30
0.0
11
44.427930
21
-60.050030
31
0.0
0
LINE
8
0
6
CONTINUOUS
10
44.427930
20
-60.050030
30
0.0
11
44.351090
21
-59.248240
31
0.0
0
LINE
8
0
6
CONTINUOUS
10
44.280960
20
-59.248020
30
0.0
11
44.361220
21
-60.049930
31
0.0
0
LINE
8
0
6
CONTINUOUS
10
44.427930
20
-60.050030
30
0.0
11
44.361220
21
-60.049930
31
0.0
0
LINE
8
0
6
CONTINUOUS
10
44.361220
20
-60.049930
30
0.0
11
44.931150
21
-60.700020
31
0.0
0
LINE
8
0
6
CONTINUOUS
10
64.384330
20
-60.049870
30
0.0
11
61.775500
21
-60.050030
31
0.0
0
LINE
8
0
6
CONTINUOUS
10
61.777950
20
-60.700020
30
0.0
11
64.395240
21
-60.700020
31
0.0
0
LINE
8
0
6
CONTINUOUS
10
51.353540
20
-60.049860
30
0.0
11
47.814470
21
-60.049830
31
0.0
0
LINE
8
0
6
CONTINUOUS
10
47.814000
20
-60.700020
30
0.0
11
51.352830
21
-60.700020
31
0.0
0
LINE
8
0
6
CONTINUOUS
10
54.892040
20
-60.049870
30
0.0
11
51.353540
21
-60.049860
31
0.0
0
LINE
8
0
6
CONTINUOUS
10
51.352830
20
-60.700020
30
0.0
11
54.891170
21
-60.700020
31
0.0
0
LINE
8
0
6
CONTINUOUS
10
58.430020
20
-60.049830
30
0.0
11
54.892040
21
-60.049870
31
0.0
0
LINE
8
0
6
CONTINUOUS
10
54.891170
20
-60.700020
30
0.0
11
58.429360
21
-60.700020
31
0.0
0
LINE
8
0
6
CONTINUOUS
10
61.775500
20
-60.050030
30
0.0
11
58.430020
21
-60.049830
31
0.0
0
LINE
8
0
6
CONTINUOUS
10
58.429360
20
-60.700020
30
0.0
11
61.777950
21
-60.700020
31
0.0
0
LINE
8
0
6
CONTINUOUS
10
45.545350
20
-52.106340
30
0.0
11
44.847060
21
-52.252180
31
0.0
0
LINE
8
0
6
CONTINUOUS
10
44.849010
20
-52.575840
30
0.0
11
44.847060
21
-52.252180
31
0.0
0
LINE
8
0
6
CONTINUOUS
10
44.847060
20
-52.252180
30
0.0
11
44.350840
21
-52.810750
31
0.0
0
LINE
8
0
6
CONTINUOUS
10
44.351080
20
-53.083600
30
0.0
11
44.350840
21
-52.810750
31
0.0
0
LINE
8
0
6
CONTINUOUS
10
44.280960
20
-53.529650
30
0.0
11
44.280970
21
-53.756820
31
0.0
0
LINE
8
0
6
CONTINUOUS
10
44.350840
20
-52.810750
30
0.0
11
44.280960
21
-53.529650
31
0.0
0
LINE
8
0
6
CONTINUOUS
10
44.849580
20
-55.134500
30
0.0
11
44.849390
21
-53.586570
31
0.0
0
LINE
8
0
6
CONTINUOUS
10
44.351160
20
-55.351080
30
0.0
11
44.351130
21
-53.974730
31
0.0
0
LINE
8
0
6
CONTINUOUS
10
44.280950
20
-54.489530
30
0.0
11
44.280970
21
-55.637380
31
0.0
0
LINE
8
0
6
CONTINUOUS
10
44.849150
20
-58.819940
30
0.0
11
44.849620
21
-56.954770
31
0.0
0
LINE
8
0
6
CONTINUOUS
10
44.351100
20
-58.864730
30
0.0
11
44.351130
21
-57.053840
31
0.0
0
LINE
8
0
6
CONTINUOUS
10
44.280910
20
-57.179120
30
0.0
11
44.280960
21
-58.921740
31
0.0
0
LINE
8
0
6
CONTINUOUS
10
44.849620
20
-56.954770
30
0.0
11
44.849580
21
-55.134500
31
0.0
0
LINE
8
0
6
CONTINUOUS
10
44.351130
20
-57.053840
30
0.0
11
44.351160
21
-55.351080
31
0.0
0
LINE
8
0
6
CONTINUOUS
10
44.280970
20
-55.637380
30
0.0
11
44.280910
21
-57.179120
31
0.0
0
LINE
8
0
6
CONTINUOUS
10
44.280960
20
-58.921740
30
0.0
11
44.280960
21
-59.248020
31
0.0
0
LINE
8
0
6
CONTINUOUS
10
44.351100
20
-58.864730
30
0.0
11
44.351090
21
-59.248240
31
0.0
0
LINE
8
0
6
CONTINUOUS
10
44.849390
20
-53.586570
30
0.0
11
44.849010
21
-52.575840
31
0.0
0
LINE
8
0
6
CONTINUOUS
10
44.351130
20
-53.974730
30
0.0
11
44.351080
21
-53.083600
31
0.0
0
LINE
8
0
6
CONTINUOUS
10
44.280970
20
-53.756820
30
0.0
11
44.280950
21
-54.489530
31
0.0
0
LINE
8
0
6
CONTINUOUS
10
44.849150
20
-58.819940
30
0.0
11
44.849050
21
-59.248170
31
0.0
0
LINE
8
0
6
CONTINUOUS
10
47.063030
20
-51.944120
30
0.0
11
45.545350
21
-52.106340
31
0.0
0
LINE
8
0
6
CONTINUOUS
10
58.121000
20
-33.302900
30
0.0
11
58.638820
21
-36.051880
31
0.0
0
LINE
8
0
6
CONTINUOUS
10
49.853330
20
-51.682530
30
0.0
11
47.063030
21
-51.944120
31
0.0
0
LINE
8
0
6
CONTINUOUS
10
52.616950
20
-51.216870
30
0.0
11
49.853330
21
-51.682530
31
0.0
0
LINE
8
0
6
CONTINUOUS
10
55.381670
20
-50.757930
30
0.0
11
52.616950
21
-51.216870
31
0.0
0
LINE
8
0
6
CONTINUOUS
10
57.795420
20
-49.370530
30
0.0
11
55.381670
21
-50.757930
31
0.0
0
LINE
8
0
6
CONTINUOUS
10
59.386890
20
-47.082230
30
0.0
11
57.795420
21
-49.370530
31
0.0
0
LINE
8
0
6
CONTINUOUS
10
57.795420
20
-49.370530
30
0.0
11
59.396740
21
-49.870030
31
0.0
0
LINE
8
0
6
CONTINUOUS
10
59.894620
20
-44.336350
30
0.0
11
59.386890
21
-47.082230
31
0.0
0
LINE
8
0
6
CONTINUOUS
10
59.675480
20
-41.550130
30
0.0
11
59.894620
21
-44.336350
31
0.0
0
LINE
8
0
6
CONTINUOUS
10
59.182010
20
-38.796090
30
0.0
11
59.675480
21
-41.550130
31
0.0
0
LINE
8
0
6
CONTINUOUS
10
58.638820
20
-36.051880
30
0.0
11
59.182010
21
-38.796090
31
0.0
0
LINE
8
0
6
CONTINUOUS
10
59.396740
20
-49.870030
30
0.0
11
62.539900
21
-49.883750
31
0.0
0
LINE
8
0
6
CONTINUOUS
10
57.724990
20
-30.743100
30
0.0
11
58.121000
21
-33.302900
31
0.0
0
LINE
8
0
6
CONTINUOUS
10
-59.967150
20
-30.200060
30
0.0
11
-60.059897
21
-30.200060
31
0.0
0
LINE
8
0
6
CONTINUOUS
10
-90.040360
20
-30.200070
30
0.0
11
-90.649541
21
-30.200070
31
0.0
0
LINE
8
0
6
CONTINUOUS
10
-91.566180
20
-30.200070
30
0.0
11
-91.774920
21
-30.200070
31
0.0
0
LINE
8
0
6
CONTINUOUS
10
-92.366550
20
-30.200070
30
0.0
11
-92.282540
21
-30.743100
31
0.0
0
LINE
8
0
6
CONTINUOUS
10
-91.774920
20
-30.200070
30
0.0
11
-91.990302
21
-30.200070
31
0.0
0
LINE
8
0
6
CONTINUOUS
10
-89.579305
20
-30.200164
30
0.0
11
-90.040360
21
-30.200070
31
0.0
0
LINE
8
0
6
CONTINUOUS
10
-87.287920
20
-30.200630
30
0.0
11
-87.830597
21
-30.200520
31
0.0
0
LINE
8
0
6
CONTINUOUS
10
-58.232610
20
-30.200060
30
0.0
11
-58.385018
21
-30.200060
31
0.0
0
LINE
8
0
6
CONTINUOUS
10
-59.477488
20
-30.200060
30
0.0
11
-59.967150
21
-30.200060
31
0.0
0
LINE
8
0
6
CONTINUOUS
10
-57.724990
20
-30.743090
30
0.0
11
-57.640980
21
-30.200060
31
0.0
0
LINE
8
0
6
CONTINUOUS
10
-59.967150
20
-30.200060
30
0.0
11
-60.337762
21
-30.200135
31
0.0
0
LINE
8
0
6
CONTINUOUS
10
-62.262848
20
-30.200527
30
0.0
11
-62.719600
21
-30.200620
31
0.0
0
LINE
8
0
6
CONTINUOUS
10
-79.497590
20
-30.200060
30
0.0
11
-79.575563
21
-30.200060
31
0.0
0
LINE
8
0
6
CONTINUOUS
10
-78.676957
20
-30.200060
30
0.0
11
-79.497590
21
-30.200060
31
0.0
0
LINE
8
0
6
CONTINUOUS
10
-83.685160
20
-30.200060
30
0.0
11
-84.072263
21
-30.200122
31
0.0
0
LINE
8
0
6
CONTINUOUS
10
-66.322360
20
-30.200060
30
0.0
11
-67.329172
21
-30.200060
31
0.0
0
LINE
8
0
6
CONTINUOUS
10
-70.445264
20
-30.200060
30
0.0
11
-70.509920
21
-30.200060
31
0.0
0
LINE
8
0
6
CONTINUOUS
10
-70.509920
20
-30.200060
30
0.0
11
-71.237921
21
-30.200060
31
0.0
0
LINE
8
0
6
CONTINUOUS
10
-86.433517
20
-30.200497
30
0.0
11
-87.287920
21
-30.200630
31
0.0
0
LINE
8
0
6
CONTINUOUS
10
-62.719600
20
-30.200620
30
0.0
11
-63.438760
21
-30.200512
31
0.0
0
LINE
8
0
6
CONTINUOUS
10
-66.839430
20
-60.700020
30
0.0
11
-64.395220
21
-60.700020
31
0.0
0
LINE
8
0
6
CONTINUOUS
10
-85.612290
20
-60.700020
30
0.0
11
-83.168080
21
-60.700020
31
0.0
0
LINE
8
0
6
CONTINUOUS
10
-71.113830
20
-60.049910
30
0.0
11
-75.003750
21
-60.049820
31
0.0
0
LINE
8
0
6
CONTINUOUS
10
-75.003750
20
-60.700020
30
0.0
11
-71.126950
21
-60.700020
31
0.0
0
LINE
8
0
6
CONTINUOUS
10
-69.985180
20
-60.049920
30
0.0
11
-69.917680
21
-59.248020
31
0.0
0
LINE
8
0
6
CONTINUOUS
10
-70.537960
20
-60.700020
30
0.0
11
-69.985180
21
-60.049920
31
0.0
0
LINE
8
0
6
CONTINUOUS
10
-70.016370
20
-60.049980
30
0.0
11
-69.956070
21
-59.248160
31
0.0
0
LINE
8
0
6
CONTINUOUS
10
-70.713800
20
-60.700020
30
0.0
11
-70.537960
21
-60.700020
31
0.0
0
LINE
8
0
6
CONTINUOUS
10
-70.016370
20
-60.049980
30
0.0
11
-70.448930
21
-60.050010
31
0.0
0
LINE
8
0
6
CONTINUOUS
10
-70.448930
20
-60.050010
30
0.0
11
-70.432450
21
-59.248220
31
0.0
0
LINE
8
0
6
CONTINUOUS
10
-70.448930
20
-60.050010
30
0.0
11
-71.113830
21
-60.049910
31
0.0
0
LINE
8
0
6
CONTINUOUS
10
-71.126950
20
-60.700020
30
0.0
11
-70.713800
21
-60.700020
31
0.0
0
LINE
8
0
6
CONTINUOUS
10
-68.301630
20
-60.049870
30
0.0
11
-69.500710
21
-60.050020
31
0.0
0
LINE
8
0
6
CONTINUOUS
10
-70.114940
20
-60.700020
30
0.0
11
-68.891210
21
-60.700020
31
0.0
0
LINE
8
0
6
CONTINUOUS
10
-69.500710
20
-60.050020
30
0.0
11
-70.015740
21
-60.049820
31
0.0
0
LINE
8
0
6
CONTINUOUS
10
-70.614760
20
-60.700020
30
0.0
11
-70.114940
21
-60.700020
31
0.0
0
LINE
8
0
6
CONTINUOUS
10
-68.891210
20
-60.700020
30
0.0
11
-66.839430
21
-60.700020
31
0.0
0
LINE
8
0
6
CONTINUOUS
10
-73.182160
20
-52.575820
30
0.0
11
-75.003750
21
-52.252160
31
0.0
0
LINE
8
0
6
CONTINUOUS
10
-73.366110
20
-53.083580
30
0.0
11
-75.003750
21
-52.810730
31
0.0
0
LINE
8
0
6
CONTINUOUS
10
-70.609180
20
-55.134490
30
0.0
11
-71.645440
21
-53.586550
31
0.0
0
LINE
8
0
6
CONTINUOUS
10
-71.065530
20
-55.351060
30
0.0
11
-72.000170
21
-53.974710
31
0.0
0
LINE
8
0
6
CONTINUOUS
10
-69.925780
20
-58.807610
30
0.0
11
-70.128470
21
-56.926670
31
0.0
0
LINE
8
0
6
CONTINUOUS
10
-69.965970
20
-58.819930
30
0.0
11
-70.194040
21
-56.954750
31
0.0
0
LINE
8
0
6
CONTINUOUS
10
-70.442610
20
-58.864720
30
0.0
11
-70.682940
21
-57.053820
31
0.0
0
LINE
8
0
6
CONTINUOUS
10
-70.194040
20
-56.954750
30
0.0
11
-70.609180
21
-55.134490
31
0.0
0
LINE
8
0
6
CONTINUOUS
10
-70.682940
20
-57.053820
30
0.0
11
-71.065530
21
-55.351060
31
0.0
0
LINE
8
0
6
CONTINUOUS
10
-70.442610
20
-58.864720
30
0.0
11
-70.432450
21
-59.248220
31
0.0
0
LINE
8
0
6
CONTINUOUS
10
-71.645440
20
-53.586550
30
0.0
11
-73.182160
21
-52.575820
31
0.0
0
LINE
8
0
6
CONTINUOUS
10
-72.000170
20
-53.974710
30
0.0
11
-73.366110
21
-53.083580
31
0.0
0
LINE
8
0
6
CONTINUOUS
10
-69.917680
20
-59.248020
30
0.0
11
-69.925780
21
-58.807610
31
0.0
0
LINE
8
0
6
CONTINUOUS
10
-69.965970
20
-58.819930
30
0.0
11
-69.956070
21
-59.248160
31
0.0
0
LINE
8
0
6
CONTINUOUS
10
-70.140300
20
-56.875680
30
0.0
11
-70.557020
21
-55.085500
31
0.0
0
LINE
8
0
6
CONTINUOUS
10
-70.128470
20
-56.926670
30
0.0
11
-70.140300
21
-56.875680
31
0.0
0
LINE
8
0
6
CONTINUOUS
10
-75.003750
20
-49.370520
30
0.0
11
-71.166760
21
-49.870020
31
0.0
0
LINE
8
0
6
CONTINUOUS
10
-71.166760
20
-49.870020
30
0.0
11
-68.404440
21
-49.883750
31
0.0
0
LINE
8
0
6
CONTINUOUS
10
-75.003750
20
-60.049820
30
0.0
11
-78.893680
21
-60.049910
31
0.0
0
LINE
8
0
6
CONTINUOUS
10
-78.880550
20
-60.700020
30
0.0
11
-75.003750
21
-60.700020
31
0.0
0
LINE
8
0
6
CONTINUOUS
10
-80.089820
20
-59.248010
30
0.0
11
-80.022330
21
-60.049910
31
0.0
0
LINE
8
0
6
CONTINUOUS
10
-80.022330
20
-60.049910
30
0.0
11
-79.469540
21
-60.700020
31
0.0
0
LINE
8
0
6
CONTINUOUS
10
-80.051440
20
-59.248150
30
0.0
11
-79.991140
21
-60.049980
31
0.0
0
LINE
8
0
6
CONTINUOUS
10
-79.558580
20
-60.050010
30
0.0
11
-79.991140
21
-60.049980
31
0.0
0
LINE
8
0
6
CONTINUOUS
10
-79.469540
20
-60.700020
30
0.0
11
-79.293700
21
-60.700020
31
0.0
0
LINE
8
0
6
CONTINUOUS
10
-79.575060
20
-59.248220
30
0.0
11
-79.558580
21
-60.050010
31
0.0
0
LINE
8
0
6
CONTINUOUS
10
-78.893680
20
-60.049910
30
0.0
11
-79.558580
21
-60.050010
31
0.0
0
LINE
8
0
6
CONTINUOUS
10
-79.293700
20
-60.700020
30
0.0
11
-78.880550
21
-60.700020
31
0.0
0
LINE
8
0
6
CONTINUOUS
10
-80.506800
20
-60.050020
30
0.0
11
-81.705890
21
-60.049870
31
0.0
0
LINE
8
0
6
CONTINUOUS
10
-81.116300
20
-60.700020
30
0.0
11
-79.892570
21
-60.700020
31
0.0
0
LINE
8
0
6
CONTINUOUS
10
-79.991770
20
-60.049820
30
0.0
11
-80.506800
21
-60.050020
31
0.0
0
LINE
8
0
6
CONTINUOUS
10
-79.892570
20
-60.700020
30
0.0
11
-79.392740
21
-60.700020
31
0.0
0
LINE
8
0
6
CONTINUOUS
10
-83.168080
20
-60.700020
30
0.0
11
-81.116300
21
-60.700020
31
0.0
0
LINE
8
0
6
CONTINUOUS
10
-75.003750
20
-52.252160
30
0.0
11
-76.825340
21
-52.575820
31
0.0
0
LINE
8
0
6
CONTINUOUS
10
-75.003750
20
-52.810730
30
0.0
11
-76.641390
21
-53.083590
31
0.0
0
LINE
8
0
6
CONTINUOUS
10
-78.362060
20
-53.586550
30
0.0
11
-79.398330
21
-55.134490
31
0.0
0
LINE
8
0
6
CONTINUOUS
10
-78.007340
20
-53.974710
30
0.0
11
-78.941970
21
-55.351060
31
0.0
0
LINE
8
0
6
CONTINUOUS
10
-79.879040
20
-56.926670
30
0.0
11
-80.081730
21
-58.807610
31
0.0
0
LINE
8
0
6
CONTINUOUS
10
-79.813470
20
-56.954750
30
0.0
11
-80.041540
21
-58.819930
31
0.0
0
LINE
8
0
6
CONTINUOUS
10
-79.324570
20
-57.053820
30
0.0
11
-79.564900
21
-58.864710
31
0.0
0
LINE
8
0
6
CONTINUOUS
10
-79.398330
20
-55.134490
30
0.0
11
-79.813470
21
-56.954750
31
0.0
0
LINE
8
0
6
CONTINUOUS
10
-78.941970
20
-55.351060
30
0.0
11
-79.324570
21
-57.053820
31
0.0
0
LINE
8
0
6
CONTINUOUS
10
-79.575060
20
-59.248220
30
0.0
11
-79.564900
21
-58.864710
31
0.0
0
LINE
8
0
6
CONTINUOUS
10
-76.825340
20
-52.575820
30
0.0
11
-78.362060
21
-53.586550
31
0.0
0
LINE
8
0
6
CONTINUOUS
10
-76.641390
20
-53.083590
30
0.0
11
-78.007340
21
-53.974710
31
0.0
0
LINE
8
0
6
CONTINUOUS
10
-80.081730
20
-58.807610
30
0.0
11
-80.089820
21
-59.248010
31
0.0
0
LINE
8
0
6
CONTINUOUS
10
-80.051440
20
-59.248150
30
0.0
11
-80.041540
21
-58.819930
31
0.0
0
LINE
8
0
6
CONTINUOUS
10
-79.867200
20
-56.875680
30
0.0
11
-79.879040
21
-56.926670
31
0.0
0
LINE
8
0
6
CONTINUOUS
10
-79.450490
20
-55.085500
30
0.0
11
-79.867200
21
-56.875680
31
0.0
0
LINE
8
0
6
CONTINUOUS
10
-75.003750
20
-50.757920
30
0.0
11
-75.003750
21
-49.370520
31
0.0
0
LINE
8
0
6
CONTINUOUS
10
-78.840750
20
-49.870020
30
0.0
11
-75.003750
21
-49.370520
31
0.0
0
LINE
8
0
6
CONTINUOUS
10
-81.603060
20
-49.883750
30
0.0
11
-78.840750
21
-49.870020
31
0.0
0
LINE
8
0
6
CONTINUOUS
10
-45.507630
20
-60.049920
30
0.0
11
-47.814440
21
-60.049820
31
0.0
0
LINE
8
0
6
CONTINUOUS
10
-47.813970
20
-60.700020
30
0.0
11
-45.734190
21
-60.700020
31
0.0
0
LINE
8
0
6
CONTINUOUS
10
-44.882320
20
-60.049980
30
0.0
11
-45.507630
21
-60.049920
31
0.0
0
LINE
8
0
6
CONTINUOUS
10
-45.734190
20
-60.700020
30
0.0
11
-45.318170
21
-60.700020
31
0.0
0
LINE
8
0
6
CONTINUOUS
10
-44.849030
20
-59.248160
30
0.0
11
-44.882320
21
-60.049980
31
0.0
0
LINE
8
0
6
CONTINUOUS
10
-44.427910
20
-60.050010
30
0.0
11
-44.882320
21
-60.049980
31
0.0
0
LINE
8
0
6
CONTINUOUS
10
-45.318170
20
-60.700020
30
0.0
11
-44.969850
21
-60.700020
31
0.0
0
LINE
8
0
6
CONTINUOUS
10
-44.351070
20
-59.248220
30
0.0
11
-44.427910
21
-60.050010
31
0.0
0
LINE
8
0
6
CONTINUOUS
10
-44.361200
20
-60.049910
30
0.0
11
-44.280930
21
-59.248010
31
0.0
0
LINE
8
0
6
CONTINUOUS
10
-44.361200
20
-60.049910
30
0.0
11
-44.427910
21
-60.050010
31
0.0
0
LINE
8
0
6
CONTINUOUS
10
-44.931130
20
-60.700020
30
0.0
11
-44.361200
21
-60.049910
31
0.0
0
LINE
8
0
6
CONTINUOUS
10
-61.775480
20
-60.050020
30
0.0
11
-64.384300
21
-60.049870
31
0.0
0
LINE
8
0
6
CONTINUOUS
10
-64.395220
20
-60.700020
30
0.0
11
-61.777930
21
-60.700020
31
0.0
0
LINE
8
0
6
CONTINUOUS
10
-47.814440
20
-60.049820
30
0.0
11
-51.353520
21
-60.049850
31
0.0
0
LINE
8
0
6
CONTINUOUS
10
-51.352800
20
-60.700020
30
0.0
11
-47.813970
21
-60.700020
31
0.0
0
LINE
8
0
6
CONTINUOUS
10
-51.353520
20
-60.049850
30
0.0
11
-54.892010
21
-60.049860
31
0.0
0
LINE
8
0
6
CONTINUOUS
10
-54.891140
20
-60.700020
30
0.0
11
-51.352800
21
-60.700020
31
0.0
0
LINE
8
0
6
CONTINUOUS
10
-54.892010
20
-60.049860
30
0.0
11
-58.429990
21
-60.049820
31
0.0
0
LINE
8
0
6
CONTINUOUS
10
-58.429330
20
-60.700020
30
0.0
11
-54.891140
21
-60.700020
31
0.0
0
LINE
8
0
6
CONTINUOUS
10
-58.429990
20
-60.049820
30
0.0
11
-61.775480
21
-60.050020
31
0.0
0
LINE
8
0
6
CONTINUOUS
10
-61.777930
20
-60.700020
30
0.0
11
-58.429330
21
-60.700020
31
0.0
0
LINE
8
0
6
CONTINUOUS
10
-44.847040
20
-52.252160
30
0.0
11
-45.545340
21
-52.106330
31
0.0
0
LINE
8
0
6
CONTINUOUS
10
-44.847040
20
-52.252160
30
0.0
11
-44.848990
21
-52.575820
31
0.0
0
LINE
8
0
6
CONTINUOUS
10
-44.350820
20
-52.810740
30
0.0
11
-44.847040
21
-52.252160
31
0.0
0
LINE
8
0
6
CONTINUOUS
10
-44.350820
20
-52.810740
30
0.0
11
-44.351070
21
-53.083590
31
0.0
0
LINE
8
0
6
CONTINUOUS
10
-44.280940
20
-53.529630
30
0.0
11
-44.350820
21
-52.810740
31
0.0
0
LINE
8
0
6
CONTINUOUS
10
-44.280940
20
-53.756810
30
0.0
11
-44.280940
21
-53.529630
31
0.0
0
LINE
8
0
6
CONTINUOUS
10
-44.849370
20
-53.586550
30
0.0
11
-44.849560
21
-55.134490
31
0.0
0
LINE
8
0
6
CONTINUOUS
10
-44.351110
20
-53.974710
30
0.0
11
-44.351140
21
-55.351060
31
0.0
0
LINE
8
0
6
CONTINUOUS
10
-44.849590
20
-56.954750
30
0.0
11
-44.849120
21
-58.819930
31
0.0
0
LINE
8
0
6
CONTINUOUS
10
-44.351110
20
-57.053830
30
0.0
11
-44.351080
21
-58.864720
31
0.0
0
LINE
8
0
6
CONTINUOUS
10
-44.280930
20
-58.921720
30
0.0
11
-44.280890
21
-57.179110
31
0.0
0
LINE
8
0
6
CONTINUOUS
10
-44.849560
20
-55.134490
30
0.0
11
-44.849590
21
-56.954750
31
0.0
0
LINE
8
0
6
CONTINUOUS
10
-44.351140
20
-55.351060
30
0.0
11
-44.351110
21
-57.053830
31
0.0
0
LINE
8
0
6
CONTINUOUS
10
-44.280890
20
-57.179110
30
0.0
11
-44.280950
21
-55.637370
31
0.0
0
LINE
8
0
6
CONTINUOUS
10
-44.280930
20
-59.248010
30
0.0
11
-44.280930
21
-58.921720
31
0.0
0
LINE
8
0
6
CONTINUOUS
10
-44.351070
20
-59.248220
30
0.0
11
-44.351080
21
-58.864720
31
0.0
0
LINE
8
0
6
CONTINUOUS
10
-44.848990
20
-52.575820
30
0.0
11
-44.849370
21
-53.586550
31
0.0
0
LINE
8
0
6
CONTINUOUS
10
-44.351070
20
-53.083590
30
0.0
11
-44.351110
21
-53.974710
31
0.0
0
LINE
8
0
6
CONTINUOUS
10
-44.280930
20
-54.489530
30
0.0
11
-44.280940
21
-53.756810
31
0.0
0
LINE
8
0
6
CONTINUOUS
10
-44.849030
20
-59.248160
30
0.0
11
-44.849120
21
-58.819930
31
0.0
0
LINE
8
0
6
CONTINUOUS
10
-45.545340
20
-52.106330
30
0.0
11
-47.063010
21
-51.944110
31
0.0
0
LINE
8
0
6
CONTINUOUS
10
-58.638810
20
-36.051870
30
0.0
11
-58.120990
21
-33.302890
31
0.0
0
LINE
8
0
6
CONTINUOUS
10
-47.063010
20
-51.944110
30
0.0
11
-49.853310
21
-51.682520
31
0.0
0
LINE
8
0
6
CONTINUOUS
10
-49.853310
20
-51.682520
30
0.0
11
-52.616930
21
-51.216860
31
0.0
0
LINE
8
0
6
CONTINUOUS
10
-52.616930
20
-51.216860
30
0.0
11
-55.381650
21
-50.757930
31
0.0
0
LINE
8
0
6
CONTINUOUS
10
-55.381650
20
-50.757930
30
0.0
11
-57.795410
21
-49.370520
31
0.0
0
LINE
8
0
6
CONTINUOUS
10
-59.396720
20
-49.870020
30
0.0
11
-57.795410
21
-49.370520
31
0.0
0
LINE
8
0
6
CONTINUOUS
10
-57.795410
20
-49.370520
30
0.0
11
-59.386870
21
-47.082220
31
0.0
0
LINE
8
0
6
CONTINUOUS
10
-59.386870
20
-47.082220
30
0.0
11
-59.894600
21
-44.336350
31
0.0
0
LINE
8
0
6
CONTINUOUS
10
-59.894600
20
-44.336350
30
0.0
11
-59.675460
21
-41.550120
31
0.0
0
LINE
8
0
6
CONTINUOUS
10
-59.675460
20
-41.550120
30
0.0
11
-59.181990
21
-38.796080
31
0.0
0
LINE
8
0
6
CONTINUOUS
10
-59.181990
20
-38.796080
30
0.0
11
-58.638810
21
-36.051870
31
0.0
0
LINE
8
0
6
CONTINUOUS
10
-62.539890
20
-49.883750
30
0.0
11
-59.396720
21
-49.870020
31
0.0
0
LINE
8
0
6
CONTINUOUS
10
-58.120990
20
-33.302890
30
0.0
11
-57.724990
21
-30.743090
31
0.0
0
LINE
8
0
6
CONTINUOUS
10
-104.273310
20
-60.700020
30
0.0
11
-102.193530
21
-60.700020
31
0.0
0
LINE
8
0
6
CONTINUOUS
10
-102.193060
20
-60.049830
30
0.0
11
-104.499880
21
-60.049930
31
0.0
0
LINE
8
0
6
CONTINUOUS
10
-104.689340
20
-60.700020
30
0.0
11
-104.273310
21
-60.700020
31
0.0
0
LINE
8
0
6
CONTINUOUS
10
-104.499880
20
-60.049930
30
0.0
11
-105.125180
21
-60.050000
31
0.0
0
LINE
8
0
6
CONTINUOUS
10
-105.125180
20
-60.050000
30
0.0
11
-105.158480
21
-59.248170
31
0.0
0
LINE
8
0
6
CONTINUOUS
10
-105.037650
20
-60.700020
30
0.0
11
-104.689340
21
-60.700020
31
0.0
0
LINE
8
0
6
CONTINUOUS
10
-105.125180
20
-60.050000
30
0.0
11
-105.579600
21
-60.050030
31
0.0
0
LINE
8
0
6
CONTINUOUS
10
-105.579600
20
-60.050030
30
0.0
11
-105.656440
21
-59.248240
31
0.0
0
LINE
8
0
6
CONTINUOUS
10
-105.726570
20
-59.248020
30
0.0
11
-105.646310
21
-60.049930
31
0.0
0
LINE
8
0
6
CONTINUOUS
10
-105.579600
20
-60.050030
30
0.0
11
-105.646310
21
-60.049930
31
0.0
0
LINE
8
0
6
CONTINUOUS
10
-105.646310
20
-60.049930
30
0.0
11
-105.076380
21
-60.700020
31
0.0
0
LINE
8
0
6
CONTINUOUS
10
-85.623200
20
-60.049870
30
0.0
11
-88.232030
21
-60.050030
31
0.0
0
LINE
8
0
6
CONTINUOUS
10
-88.229580
20
-60.700020
30
0.0
11
-85.612290
21
-60.700020
31
0.0
0
LINE
8
0
6
CONTINUOUS
10
-98.653990
20
-60.049860
30
0.0
11
-102.193060
21
-60.049830
31
0.0
0
LINE
8
0
6
CONTINUOUS
10
-102.193530
20
-60.700020
30
0.0
11
-98.654700
21
-60.700020
31
0.0
0
LINE
8
0
6
CONTINUOUS
10
-95.115490
20
-60.049870
30
0.0
11
-98.653990
21
-60.049860
31
0.0
0
LINE
8
0
6
CONTINUOUS
10
-98.654700
20
-60.700020
30
0.0
11
-95.116360
21
-60.700020
31
0.0
0
LINE
8
0
6
CONTINUOUS
10
-91.577510
20
-60.049830
30
0.0
11
-95.115490
21
-60.049870
31
0.0
0
LINE
8
0
6
CONTINUOUS
10
-95.116360
20
-60.700020
30
0.0
11
-91.578170
21
-60.700020
31
0.0
0
LINE
8
0
6
CONTINUOUS
10
-88.232030
20
-60.050030
30
0.0
11
-91.577510
21
-60.049830
31
0.0
0
LINE
8
0
6
CONTINUOUS
10
-91.578170
20
-60.700020
30
0.0
11
-88.229580
21
-60.700020
31
0.0
0
LINE
8
0
6
CONTINUOUS
10
-104.462180
20
-52.106340
30
0.0
11
-105.160470
21
-52.252180
31
0.0
0
LINE
8
0
6
CONTINUOUS
10
-105.158520
20
-52.575840
30
0.0
11
-105.160470
21
-52.252180
31
0.0
0
LINE
8
0
6
CONTINUOUS
10
-105.160470
20
-52.252180
30
0.0
11
-105.656690
21
-52.810750
31
0.0
0
LINE
8
0
6
CONTINUOUS
10
-105.656450
20
-53.083600
30
0.0
11
-105.656690
21
-52.810750
31
0.0
0
LINE
8
0
6
CONTINUOUS
10
-105.726570
20
-53.529650
30
0.0
11
-105.726560
21
-53.756820
31
0.0
0
LINE
8
0
6
CONTINUOUS
10
-105.656690
20
-52.810750
30
0.0
11
-105.726570
21
-53.529650
31
0.0
0
LINE
8
0
6
CONTINUOUS
10
-105.157950
20
-55.134500
30
0.0
11
-105.158140
21
-53.586570
31
0.0
0
LINE
8
0
6
CONTINUOUS
10
-105.656370
20
-55.351080
30
0.0
11
-105.656400
21
-53.974730
31
0.0
0
LINE
8
0
6
CONTINUOUS
10
-105.726580
20
-54.489530
30
0.0
11
-105.726560
21
-55.637380
31
0.0
0
LINE
8
0
6
CONTINUOUS
10
-105.158380
20
-58.819940
30
0.0
11
-105.157910
21
-56.954770
31
0.0
0
LINE
8
0
6
CONTINUOUS
10
-105.656430
20
-58.864730
30
0.0
11
-105.656400
21
-57.053840
31
0.0
0
LINE
8
0
6
CONTINUOUS
10
-105.726620
20
-57.179120
30
0.0
11
-105.726570
21
-58.921740
31
0.0
0
LINE
8
0
6
CONTINUOUS
10
-105.157910
20
-56.954770
30
0.0
11
-105.157950
21
-55.134500
31
0.0
0
LINE
8
0
6
CONTINUOUS
10
-105.656400
20
-57.053840
30
0.0
11
-105.656370
21
-55.351080
31
0.0
0
LINE
8
0
6
CONTINUOUS
10
-105.726560
20
-55.637380
30
0.0
11
-105.726620
21
-57.179120
31
0.0
0
LINE
8
0
6
CONTINUOUS
10
-105.726570
20
-58.921740
30
0.0
11
-105.726570
21
-59.248020
31
0.0
0
LINE
8
0
6
CONTINUOUS
10
-105.656430
20
-58.864730
30
0.0
11
-105.656440
21
-59.248240
31
0.0
0
LINE
8
0
6
CONTINUOUS
10
-105.158140
20
-53.586570
30
0.0
11
-105.158520
21
-52.575840
31
0.0
0
LINE
8
0
6
CONTINUOUS
10
-105.656400
20
-53.974730
30
0.0
11
-105.656450
21
-53.083600
31
0.0
0
LINE
8
0
6
CONTINUOUS
10
-105.726560
20
-53.756820
30
0.0
11
-105.726580
21
-54.489530
31
0.0
0
LINE
8
0
6
CONTINUOUS
10
-105.158380
20
-58.819940
30
0.0
11
-105.158480
21
-59.248170
31
0.0
0
LINE
8
0
6
CONTINUOUS
10
-102.944500
20
-51.944120
30
0.0
11
-104.462180
21
-52.106340
31
0.0
0
LINE
8
0
6
CONTINUOUS
10
-91.886530
20
-33.302900
30
0.0
11
-91.368710
21
-36.051880
31
0.0
0
LINE
8
0
6
CONTINUOUS
10
-100.154200
20
-51.682530
30
0.0
11
-102.944500
21
-51.944120
31
0.0
0
LINE
8
0
6
CONTINUOUS
10
-97.390580
20
-51.216870
30
0.0
11
-100.154200
21
-51.682530
31
0.0
0
LINE
8
0
6
CONTINUOUS
10
-94.625860
20
-50.757930
30
0.0
11
-97.390580
21
-51.216870
31
0.0
0
LINE
8
0
6
CONTINUOUS
10
-92.212110
20
-49.370530
30
0.0
11
-94.625860
21
-50.757930
31
0.0
0
LINE
8
0
6
CONTINUOUS
10
-90.620640
20
-47.082230
30
0.0
11
-92.212110
21
-49.370530
31
0.0
0
LINE
8
0
6
CONTINUOUS
10
-92.212110
20
-49.370530
30
0.0
11
-90.610790
21
-49.870030
31
0.0
0
LINE
8
0
6
CONTINUOUS
10
-90.112910
20
-44.336350
30
0.0
11
-90.620640
21
-47.082230
31
0.0
0
LINE
8
0
6
CONTINUOUS
10
-90.332050
20
-41.550130
30
0.0
11
-90.112910
21
-44.336350
31
0.0
0
LINE
8
0
6
CONTINUOUS
10
-90.825520
20
-38.796090
30
0.0
11
-90.332050
21
-41.550130
31
0.0
0
LINE
8
0
6
CONTINUOUS
10
-91.368710
20
-36.051880
30
0.0
11
-90.825520
21
-38.796090
31
0.0
0
LINE
8
0
6
CONTINUOUS
10
-90.610790
20
-49.870030
30
0.0
11
-87.467630
21
-49.883750
31
0.0
0
LINE
8
0
6
CONTINUOUS
10
-92.282540
20
-30.743100
30
0.0
11
-91.886530
21
-33.302900
31
0.0
0
LINE
8
0
6
CONTINUOUS
10
-71.237921
20
-30.200060
30
0.0
11
-71.146867
21
-30.200050
31
0.0
0
ENDSEC
0
EOF
