999
Erzeugt mit innoplus bad 
0
SECTION
2
HEADER
9
$ACADVER
1
AC1009
9
$DWGCODEPAGE
3
ISO8859-1
0
ENDSEC
0
SECTION
2
TABLES
0
TABLE
2
LAYER
70
1
0
LAYER
2
0
70
0
62
7
6
CONTINUOUS
0
ENDTAB
0
ENDSEC
0
SECTION
2
ENTITIES
0
LINE
8
0
6
CONTINUOUS
10
18.203953
20
50.435570
30
0.0
11
17.199960
21
50.435570
31
0.0
0
LINE
8
0
6
CONTINUOUS
10
55.291000
20
5.602500
30
0.0
11
55.678750
21
5.602500
31
0.0
0
LINE
8
0
6
CONTINUOUS
10
54.153630
20
75.068910
30
0.0
11
53.830800
21
74.720790
31
0.0
0
LINE
8
0
6
CONTINUOUS
10
53.830830
20
6.448020
30
0.0
11
54.153650
21
6.099900
31
0.0
0
LINE
8
0
6
CONTINUOUS
10
55.678730
20
75.566320
30
0.0
11
55.290970
21
75.566320
31
0.0
0
LINE
8
0
6
CONTINUOUS
10
60.264720
20
75.566320
30
0.0
11
55.678730
21
75.566320
31
0.0
0
LINE
8
0
6
CONTINUOUS
10
55.678750
20
5.602500
30
0.0
11
60.264750
21
5.602500
31
0.0
0
LINE
8
0
6
CONTINUOUS
10
60.699910
20
75.566320
30
0.0
11
60.264720
21
75.566320
31
0.0
0
LINE
8
0
6
CONTINUOUS
10
60.699890
20
67.934360
30
0.0
11
60.699890
21
72.102010
31
0.0
0
LINE
8
0
6
CONTINUOUS
10
60.699880
20
62.395260
30
0.0
11
60.699890
21
67.934360
31
0.0
0
LINE
8
0
6
CONTINUOUS
10
60.699890
20
55.762470
30
0.0
11
60.699880
21
62.395260
31
0.0
0
LINE
8
0
6
CONTINUOUS
10
60.699880
20
48.368590
30
0.0
11
60.699890
21
55.762470
31
0.0
0
LINE
8
0
6
CONTINUOUS
10
60.699890
20
40.584380
30
0.0
11
60.699880
21
48.368590
31
0.0
0
LINE
8
0
6
CONTINUOUS
10
60.699890
20
32.800170
30
0.0
11
60.699890
21
40.584380
31
0.0
0
LINE
8
0
6
CONTINUOUS
10
60.699890
20
25.406290
30
0.0
11
60.699890
21
32.800170
31
0.0
0
LINE
8
0
6
CONTINUOUS
10
60.699900
20
18.773510
30
0.0
11
60.699890
21
25.406290
31
0.0
0
LINE
8
0
6
CONTINUOUS
10
60.699910
20
13.234430
30
0.0
11
60.699900
21
18.773510
31
0.0
0
LINE
8
0
6
CONTINUOUS
10
60.699910
20
9.066780
30
0.0
11
60.699910
21
13.234430
31
0.0
0
LINE
8
0
6
CONTINUOUS
10
60.264750
20
5.602500
30
0.0
11
60.699930
21
5.602500
31
0.0
0
LINE
8
0
6
CONTINUOUS
10
55.290970
20
75.566320
30
0.0
11
54.677810
21
75.419340
31
0.0
0
LINE
8
0
6
CONTINUOUS
10
54.677810
20
75.419340
30
0.0
11
54.153630
21
75.068910
31
0.0
0
LINE
8
0
6
CONTINUOUS
10
54.677840
20
5.749470
30
0.0
11
55.291000
21
5.602500
31
0.0
0
LINE
8
0
6
CONTINUOUS
10
54.153650
20
6.099900
30
0.0
11
54.677840
21
5.749470
31
0.0
0
LINE
8
0
6
CONTINUOUS
10
53.830800
20
74.720790
30
0.0
11
36.037940
21
55.533680
31
0.0
0
LINE
8
0
6
CONTINUOUS
10
36.135942
20
25.529440
30
0.0
11
53.830830
21
6.448020
31
0.0
0
LINE
8
0
6
CONTINUOUS
10
35.812810
20
55.290910
30
0.0
11
35.812810
21
54.922190
31
0.0
0
LINE
8
0
6
CONTINUOUS
10
36.037940
20
55.533680
30
0.0
11
35.812810
21
55.290910
31
0.0
0
LINE
8
0
6
CONTINUOUS
10
35.812810
20
54.922190
30
0.0
11
35.812810
21
53.834500
31
0.0
0
LINE
8
0
6
CONTINUOUS
10
35.812810
20
53.834500
30
0.0
11
35.812810
21
52.082400
31
0.0
0
LINE
8
0
6
CONTINUOUS
10
35.812810
20
52.082400
30
0.0
11
35.812800
21
49.753750
31
0.0
0
LINE
8
0
6
CONTINUOUS
10
35.812810
20
46.965300
30
0.0
11
35.812800
21
43.856890
31
0.0
0
LINE
8
0
6
CONTINUOUS
10
35.812800
20
43.856890
30
0.0
11
35.812800
21
40.584380
31
0.0
0
LINE
8
0
6
CONTINUOUS
10
35.812800
20
40.584380
30
0.0
11
35.812810
21
37.311880
31
0.0
0
LINE
8
0
6
CONTINUOUS
10
35.812810
20
37.311880
30
0.0
11
35.812810
21
34.203460
31
0.0
0
LINE
8
0
6
CONTINUOUS
10
35.812810
20
34.203460
30
0.0
11
35.812810
21
31.415020
31
0.0
0
LINE
8
0
6
CONTINUOUS
10
35.812810
20
31.415020
30
0.0
11
35.812810
21
30.981986
31
0.0
0
LINE
8
0
6
CONTINUOUS
10
35.812810
20
30.955882
30
0.0
11
35.812810
21
29.086370
31
0.0
0
LINE
8
0
6
CONTINUOUS
10
35.812810
20
29.086370
30
0.0
11
35.812810
21
27.361094
31
0.0
0
LINE
8
0
6
CONTINUOUS
10
35.812820
20
26.246600
30
0.0
11
35.812820
21
26.191954
31
0.0
0
LINE
8
0
6
CONTINUOUS
10
35.812810
20
27.334270
30
0.0
11
35.812820
21
26.246600
31
0.0
0
LINE
8
0
6
CONTINUOUS
10
18.203953
20
50.435570
30
0.0
11
17.199960
21
50.435570
31
0.0
0
LINE
8
0
6
CONTINUOUS
10
17.199960
20
30.733240
30
0.0
11
18.203860
21
30.733240
31
0.0
0
LINE
8
0
6
CONTINUOUS
10
60.699910
20
75.566320
30
0.0
11
60.699900
21
74.689260
31
0.0
0
LINE
8
0
6
CONTINUOUS
10
60.699900
20
74.689260
30
0.0
11
60.699890
21
72.102010
31
0.0
0
LINE
8
0
6
CONTINUOUS
10
60.699910
20
9.066780
30
0.0
11
60.699920
21
6.479550
31
0.0
0
LINE
8
0
6
CONTINUOUS
10
60.699920
20
6.479550
30
0.0
11
60.699930
21
5.602500
31
0.0
0
LINE
8
0
6
CONTINUOUS
10
35.812810
20
46.965300
30
0.0
11
35.812800
21
49.753750
31
0.0
0
LINE
8
0
6
CONTINUOUS
10
36.150090
20
46.446730
30
0.0
11
33.619020
21
40.751860
31
0.0
0
LINE
8
0
6
CONTINUOUS
10
33.619030
20
54.474290
30
0.0
11
36.150090
21
48.779420
31
0.0
0
LINE
8
0
6
CONTINUOUS
10
18.203840
20
48.779420
30
0.0
11
18.203840
21
46.446730
31
0.0
0
LINE
8
0
6
CONTINUOUS
10
18.203850
20
34.056990
30
0.0
11
18.203860
21
31.724300
31
0.0
0
LINE
8
0
6
CONTINUOUS
10
18.203860
20
31.724300
30
0.0
11
18.203860
21
25.529440
31
0.0
0
LINE
8
0
6
CONTINUOUS
10
18.203860
20
25.529440
30
0.0
11
20.764690
21
25.529440
31
0.0
0
LINE
8
0
6
CONTINUOUS
10
20.734910
20
26.029440
30
0.0
11
18.203960
21
31.724075
31
0.0
0
LINE
8
0
6
CONTINUOUS
10
18.203850
20
34.056990
30
0.0
11
20.764670
21
39.818850
31
0.0
0
LINE
8
0
6
CONTINUOUS
10
20.734910
20
40.751860
30
0.0
11
18.203950
21
46.446483
31
0.0
0
LINE
8
0
6
CONTINUOUS
10
18.203840
20
46.446730
30
0.0
11
18.203850
21
34.056990
31
0.0
0
LINE
8
0
6
CONTINUOUS
10
20.764670
20
54.974280
30
0.0
11
18.203960
21
54.974280
31
0.0
0
LINE
8
0
6
CONTINUOUS
10
18.203840
20
48.779420
30
0.0
11
20.734910
21
54.474290
31
0.0
0
LINE
8
0
6
CONTINUOUS
10
18.203860
20
54.974280
30
0.0
11
18.203840
21
48.779420
31
0.0
0
LINE
8
0
6
CONTINUOUS
10
33.619030
20
26.029440
30
0.0
11
35.815642
21
30.971816
31
0.0
0
LINE
8
0
6
CONTINUOUS
10
33.589260
20
39.818850
30
0.0
11
36.150080
21
34.056990
31
0.0
0
LINE
8
0
6
CONTINUOUS
10
36.150100
20
25.529440
30
0.0
11
36.150100
21
25.617379
31
0.0
0
LINE
8
0
6
CONTINUOUS
10
33.589250
20
25.529440
30
0.0
11
36.135942
21
25.529440
31
0.0
0
LINE
8
0
6
CONTINUOUS
10
36.150090
20
54.974280
30
0.0
11
33.589270
21
54.974280
31
0.0
0
LINE
8
0
6
CONTINUOUS
10
20.764690
20
25.529440
30
0.0
11
33.589250
21
25.529440
31
0.0
0
LINE
8
0
6
CONTINUOUS
10
20.734910
20
26.029440
30
0.0
11
20.764690
21
25.529440
31
0.0
0
LINE
8
0
6
CONTINUOUS
10
33.589250
20
25.529440
30
0.0
11
33.619030
21
26.029440
31
0.0
0
LINE
8
0
6
CONTINUOUS
10
20.734910
20
40.751860
30
0.0
11
20.764670
21
39.818850
31
0.0
0
LINE
8
0
6
CONTINUOUS
10
33.589260
20
39.818850
30
0.0
11
33.619020
21
40.751860
31
0.0
0
LINE
8
0
6
CONTINUOUS
10
20.764670
20
54.974280
30
0.0
11
20.734910
21
54.474290
31
0.0
0
LINE
8
0
6
CONTINUOUS
10
33.589270
20
54.974280
30
0.0
11
20.764670
21
54.974280
31
0.0
0
LINE
8
0
6
CONTINUOUS
10
33.619030
20
54.474290
30
0.0
11
33.589270
21
54.974280
31
0.0
0
LINE
8
0
6
CONTINUOUS
10
-15.809610
20
57.904780
30
0.0
11
-17.335570
21
57.924780
31
0.0
0
LINE
8
0
6
CONTINUOUS
10
-17.335570
20
22.961230
30
0.0
11
-15.809610
21
22.941240
31
0.0
0
LINE
8
0
6
CONTINUOUS
10
-29.777880
20
23.060390
30
0.0
11
-19.617840
21
22.990870
31
0.0
0
LINE
8
0
6
CONTINUOUS
10
-19.617830
20
57.954410
30
0.0
11
-29.777880
21
58.023930
31
0.0
0
LINE
8
0
6
CONTINUOUS
10
-30.200070
20
46.290670
30
0.0
11
-30.200070
21
45.580034
31
0.0
0
LINE
8
0
6
CONTINUOUS
10
-30.200070
20
43.438931
30
0.0
11
-30.200070
21
41.025250
31
0.0
0
LINE
8
0
6
CONTINUOUS
10
-30.200070
20
51.042750
30
0.0
11
-30.200070
21
49.869523
31
0.0
0
LINE
8
0
6
CONTINUOUS
10
-30.200070
20
47.796394
30
0.0
11
-30.200070
21
46.290670
31
0.0
0
LINE
8
0
6
CONTINUOUS
10
-30.200070
20
26.545430
30
0.0
11
-30.200070
21
25.833888
31
0.0
0
LINE
8
0
6
CONTINUOUS
10
-30.200070
20
25.196764
30
0.0
11
-30.200070
21
23.975860
31
0.0
0
LINE
8
0
6
CONTINUOUS
10
-30.200070
20
23.075840
30
0.0
11
-29.777880
21
23.060390
31
0.0
0
LINE
8
0
6
CONTINUOUS
10
-30.200070
20
23.975860
30
0.0
11
-30.200070
21
23.812093
31
0.0
0
LINE
8
0
6
CONTINUOUS
10
-30.200070
20
23.812093
30
0.0
11
-30.200070
21
23.075840
31
0.0
0
LINE
8
0
6
CONTINUOUS
10
-29.777880
20
58.023930
30
0.0
11
-30.200070
21
58.039380
31
0.0
0
LINE
8
0
6
CONTINUOUS
10
-30.200070
20
58.039380
30
0.0
11
-30.200070
21
57.464095
31
0.0
0
LINE
8
0
6
CONTINUOUS
10
-30.200070
20
57.323401
30
0.0
11
-30.200070
21
57.208020
31
0.0
0
LINE
8
0
6
CONTINUOUS
10
-30.200070
20
57.208020
30
0.0
11
-30.200070
21
56.107438
31
0.0
0
LINE
8
0
6
CONTINUOUS
10
-30.200070
20
55.325012
30
0.0
11
-30.200070
21
54.798010
31
0.0
0
LINE
8
0
6
CONTINUOUS
10
-30.200070
20
54.798010
30
0.0
11
-30.200070
21
53.522117
31
0.0
0
LINE
8
0
6
CONTINUOUS
10
-30.200070
20
52.157330
30
0.0
11
-30.200070
21
51.042750
31
0.0
0
LINE
8
0
6
CONTINUOUS
10
-30.200070
20
41.025250
30
0.0
11
-30.200070
21
38.254922
31
0.0
0
LINE
8
0
6
CONTINUOUS
10
-30.200070
20
35.962991
30
0.0
11
-30.200070
21
35.532580
31
0.0
0
LINE
8
0
6
CONTINUOUS
10
-30.200070
20
35.532580
30
0.0
11
-30.200070
21
33.469755
31
0.0
0
LINE
8
0
6
CONTINUOUS
10
-30.200070
20
31.606840
30
0.0
11
-30.200070
21
30.524790
31
0.0
0
LINE
8
0
6
CONTINUOUS
10
-30.200070
20
30.524790
30
0.0
11
-30.200070
21
29.018845
31
0.0
0
LINE
8
0
6
CONTINUOUS
10
-30.200070
20
27.844280
30
0.0
11
-30.200070
21
26.545430
31
0.0
0
LINE
8
0
6
CONTINUOUS
10
-17.335570
20
57.924780
30
0.0
11
-19.617830
21
57.954410
31
0.0
0
LINE
8
0
6
CONTINUOUS
10
-19.617840
20
22.990870
30
0.0
11
-17.335570
21
22.961230
31
0.0
0
LINE
8
0
6
CONTINUOUS
10
17.199960
20
30.362190
30
0.0
11
17.199960
21
35.369970
31
0.0
0
LINE
8
0
6
CONTINUOUS
10
-14.120520
20
22.913230
30
0.0
11
-11.826470
21
22.913230
31
0.0
0
LINE
8
0
6
CONTINUOUS
10
-11.826470
20
57.876770
30
0.0
11
-14.120520
21
57.876770
31
0.0
0
LINE
8
0
6
CONTINUOUS
10
17.199960
20
22.913230
30
0.0
11
17.199960
21
23.813260
31
0.0
0
LINE
8
0
6
CONTINUOUS
10
15.398520
20
22.913230
30
0.0
11
17.199960
21
22.913230
31
0.0
0
LINE
8
0
6
CONTINUOUS
10
17.199960
20
50.880140
30
0.0
11
17.199960
21
54.635400
31
0.0
0
LINE
8
0
6
CONTINUOUS
10
17.199960
20
57.876770
30
0.0
11
15.398520
21
57.876770
31
0.0
0
LINE
8
0
6
CONTINUOUS
10
17.199960
20
57.045410
30
0.0
11
17.199960
21
57.876770
31
0.0
0
LINE
8
0
6
CONTINUOUS
10
17.199960
20
35.369970
30
0.0
11
17.199960
21
40.862650
31
0.0
0
LINE
8
0
6
CONTINUOUS
10
17.199960
20
23.813260
30
0.0
11
17.199960
21
26.382830
31
0.0
0
LINE
8
0
6
CONTINUOUS
10
17.199960
20
54.635400
30
0.0
11
17.199960
21
57.045410
31
0.0
0
LINE
8
0
6
CONTINUOUS
10
17.199960
20
46.128070
30
0.0
11
17.199960
21
50.880140
31
0.0
0
LINE
8
0
6
CONTINUOUS
10
17.199960
20
40.862650
30
0.0
11
17.199960
21
46.128070
31
0.0
0
LINE
8
0
6
CONTINUOUS
10
17.199960
20
26.382830
30
0.0
11
17.199960
21
30.362190
31
0.0
0
LINE
8
0
6
CONTINUOUS
10
-15.809610
20
22.941240
30
0.0
11
-14.120520
21
22.913230
31
0.0
0
LINE
8
0
6
CONTINUOUS
10
-14.120520
20
57.876770
30
0.0
11
-15.809610
21
57.904780
31
0.0
0
LINE
8
0
6
CONTINUOUS
10
15.398520
20
57.876770
30
0.0
11
-11.826470
21
57.876770
31
0.0
0
LINE
8
0
6
CONTINUOUS
10
-11.826470
20
22.913230
30
0.0
11
15.398520
21
22.913230
31
0.0
0
LINE
8
0
6
CONTINUOUS
10
-6.350080
20
-75.223290
30
0.0
11
-5.607470
21
-74.239910
31
0.0
0
LINE
8
0
6
CONTINUOUS
10
8.082430
20
-63.912170
30
0.0
11
8.338930
21
-63.722510
31
0.0
0
LINE
8
0
6
CONTINUOUS
10
8.333047
20
-7.685440
30
0.0
11
8.338930
21
-63.722510
31
0.0
0
LINE
8
0
6
CONTINUOUS
10
-6.600550
20
-75.566320
30
0.0
11
-6.350080
21
-75.223290
31
0.0
0
LINE
8
0
6
CONTINUOUS
10
2.792040
20
-67.257070
30
0.0
11
4.595590
21
-66.198000
31
0.0
0
LINE
8
0
6
CONTINUOUS
10
-4.423150
20
-72.837190
30
0.0
11
-2.877770
21
-71.278240
31
0.0
0
LINE
8
0
6
CONTINUOUS
10
7.334110
20
-64.449630
30
0.0
11
8.082430
21
-63.912170
31
0.0
0
LINE
8
0
6
CONTINUOUS
10
4.595590
20
-66.198000
30
0.0
11
6.144830
21
-65.244950
31
0.0
0
LINE
8
0
6
CONTINUOUS
10
-2.877770
20
-71.278240
30
0.0
11
-1.076670
21
-69.776600
31
0.0
0
LINE
8
0
6
CONTINUOUS
10
-5.607470
20
-74.239910
30
0.0
11
-4.423150
21
-72.837190
31
0.0
0
LINE
8
0
6
CONTINUOUS
10
0.857270
20
-68.435970
30
0.0
11
2.792040
21
-67.257070
31
0.0
0
LINE
8
0
6
CONTINUOUS
10
6.144830
20
-65.244950
30
0.0
11
7.334110
21
-64.449630
31
0.0
0
LINE
8
0
6
CONTINUOUS
10
-1.076670
20
-69.776600
30
0.0
11
0.857270
21
-68.435970
31
0.0
0
LINE
8
0
6
CONTINUOUS
10
-6.600550
20
-75.566320
30
0.0
11
-6.615303
21
-7.685440
31
0.0
0
LINE
8
0
6
CONTINUOUS
10
-10.632900
20
22.034070
30
0.0
11
-10.642260
21
22.314560
31
0.0
0
LINE
8
0
6
CONTINUOUS
10
11.358150
20
-7.685440
30
0.0
11
10.958140
21
-7.685440
31
0.0
0
LINE
8
0
6
CONTINUOUS
10
9.958150
20
-7.685440
30
0.0
11
8.258150
21
-7.685440
31
0.0
0
LINE
8
0
6
CONTINUOUS
10
6.058140
20
-7.685440
30
0.0
11
3.558140
21
-7.685440
31
0.0
0
LINE
8
0
6
CONTINUOUS
10
10.958140
20
-7.685440
30
0.0
11
9.958150
21
-7.685440
31
0.0
0
LINE
8
0
6
CONTINUOUS
10
3.558140
20
-7.685440
30
0.0
11
0.858150
21
-7.685440
31
0.0
0
LINE
8
0
6
CONTINUOUS
10
8.258150
20
-7.685440
30
0.0
11
6.058140
21
-7.685440
31
0.0
0
LINE
8
0
6
CONTINUOUS
10
-1.841860
20
-7.685440
30
0.0
11
0.858150
21
-7.685440
31
0.0
0
LINE
8
0
6
CONTINUOUS
10
-9.641860
20
-7.685440
30
0.0
11
-9.241860
21
-7.685440
31
0.0
0
LINE
8
0
6
CONTINUOUS
10
-9.241860
20
-7.685440
30
0.0
11
-8.241850
21
-7.685440
31
0.0
0
LINE
8
0
6
CONTINUOUS
10
-9.641860
20
-7.685440
30
0.0
11
-9.659770
21
-7.148260
31
0.0
0
LINE
8
0
6
CONTINUOUS
10
-8.241850
20
-7.685440
30
0.0
11
-6.541860
21
-7.685440
31
0.0
0
LINE
8
0
6
CONTINUOUS
10
11.376050
20
-7.148260
30
0.0
11
11.358150
21
-7.685440
31
0.0
0
LINE
8
0
6
CONTINUOUS
10
-4.341860
20
-7.685440
30
0.0
11
-1.841860
21
-7.685440
31
0.0
0
LINE
8
0
6
CONTINUOUS
10
-6.541860
20
-7.685440
30
0.0
11
-4.341860
21
-7.685440
31
0.0
0
LINE
8
0
6
CONTINUOUS
10
-9.659770
20
-7.148260
30
0.0
11
-10.632900
21
22.034070
31
0.0
0
LINE
8
0
6
CONTINUOUS
10
12.348800
20
22.034070
30
0.0
11
11.376050
21
-7.148260
31
0.0
0
LINE
8
0
6
CONTINUOUS
10
12.348800
20
22.034070
30
0.0
11
12.358150
21
22.314560
31
0.0
0
LINE
8
0
6
CONTINUOUS
10
-7.241860
20
22.314560
30
0.0
11
-4.841860
21
22.314560
31
0.0
0
LINE
8
0
6
CONTINUOUS
10
-4.841860
20
22.314560
30
0.0
11
-2.141860
21
22.314560
31
0.0
0
LINE
8
0
6
CONTINUOUS
10
10.858160
20
22.314560
30
0.0
11
11.958140
21
22.314560
31
0.0
0
LINE
8
0
6
CONTINUOUS
10
12.358150
20
22.314560
30
0.0
11
11.958140
21
22.314560
31
0.0
0
LINE
8
0
6
CONTINUOUS
10
-2.141860
20
22.314560
30
0.0
11
0.858150
21
22.314560
31
0.0
0
LINE
8
0
6
CONTINUOUS
10
0.858150
20
22.314560
30
0.0
11
3.858150
21
22.314560
31
0.0
0
LINE
8
0
6
CONTINUOUS
10
8.958150
20
22.314560
30
0.0
11
10.858160
21
22.314560
31
0.0
0
LINE
8
0
6
CONTINUOUS
10
6.558150
20
22.314560
30
0.0
11
8.958150
21
22.314560
31
0.0
0
LINE
8
0
6
CONTINUOUS
10
3.858150
20
22.314560
30
0.0
11
6.558150
21
22.314560
31
0.0
0
LINE
8
0
6
CONTINUOUS
10
11.958140
20
22.314560
30
0.0
11
12.358150
21
22.314560
31
0.0
0
LINE
8
0
6
CONTINUOUS
10
-10.242260
20
22.314560
30
0.0
11
-10.642260
21
22.314560
31
0.0
0
LINE
8
0
6
CONTINUOUS
10
-10.642260
20
22.314560
30
0.0
11
-10.242260
21
22.314560
31
0.0
0
LINE
8
0
6
CONTINUOUS
10
-9.141850
20
22.314560
30
0.0
11
-7.241860
21
22.314560
31
0.0
0
LINE
8
0
6
CONTINUOUS
10
-10.242260
20
22.314560
30
0.0
11
-9.141850
21
22.314560
31
0.0
0
LINE
8
0
6
CONTINUOUS
10
-30.200060
20
31.902860
30
0.0
11
-30.200060
21
33.473255
31
0.0
0
LINE
8
0
6
CONTINUOUS
10
-30.200060
20
35.961123
30
0.0
11
-30.200060
21
36.090420
31
0.0
0
LINE
8
0
6
CONTINUOUS
10
-30.200060
20
36.090420
30
0.0
11
-30.200060
21
38.238867
31
0.0
0
LINE
8
0
6
CONTINUOUS
10
-30.200620
20
28.300100
30
0.0
11
-30.200512
21
29.018201
31
0.0
0
LINE
8
0
6
CONTINUOUS
10
-30.200060
20
25.196247
30
0.0
11
-30.200060
21
25.547660
31
0.0
0
LINE
8
0
6
CONTINUOUS
10
-30.743090
20
23.305480
30
0.0
11
-30.200060
21
23.221480
31
0.0
0
LINE
8
0
6
CONTINUOUS
10
-30.200060
20
25.547660
30
0.0
11
-30.200120
21
25.833826
31
0.0
0
LINE
8
0
6
CONTINUOUS
10
-30.200531
20
27.845017
30
0.0
11
-30.200620
21
28.300100
31
0.0
0
LINE
8
0
6
CONTINUOUS
10
-30.200060
20
45.078090
30
0.0
11
-30.200060
21
45.582132
31
0.0
0
LINE
8
0
6
CONTINUOUS
10
-30.200060
20
47.794609
30
0.0
11
-30.200060
21
49.265650
31
0.0
0
LINE
8
0
6
CONTINUOUS
10
-30.200060
20
43.441818
30
0.0
11
-30.200060
21
45.078090
31
0.0
0
LINE
8
0
6
CONTINUOUS
10
-30.200060
20
49.265650
30
0.0
11
-30.200154
21
49.869295
31
0.0
0
LINE
8
0
6
CONTINUOUS
10
-30.200510
20
52.157976
30
0.0
11
-30.200620
21
52.868410
31
0.0
0
LINE
8
0
6
CONTINUOUS
10
-30.200060
20
55.620850
30
0.0
11
-30.200060
21
56.108294
31
0.0
0
LINE
8
0
6
CONTINUOUS
10
-30.200060
20
57.947030
30
0.0
11
-30.743090
21
57.863030
31
0.0
0
LINE
8
0
6
CONTINUOUS
10
-30.200060
20
57.355400
30
0.0
11
-30.200060
21
57.463467
31
0.0
0
LINE
8
0
6
CONTINUOUS
10
-30.200620
20
52.868410
30
0.0
11
-30.200492
21
53.521290
31
0.0
0
LINE
8
0
6
CONTINUOUS
10
-53.756810
20
71.307070
30
0.0
11
-54.489530
21
71.307090
31
0.0
0
LINE
8
0
6
CONTINUOUS
10
-60.700020
20
48.663200
30
0.0
11
-60.700020
21
46.696810
31
0.0
0
LINE
8
0
6
CONTINUOUS
10
-60.700020
20
69.853820
30
0.0
11
-60.700020
21
67.774040
31
0.0
0
LINE
8
0
6
CONTINUOUS
10
-60.049810
20
67.773570
30
0.0
11
-60.049920
21
70.080390
31
0.0
0
LINE
8
0
6
CONTINUOUS
10
-60.700020
20
70.269840
30
0.0
11
-60.700020
21
69.853820
31
0.0
0
LINE
8
0
6
CONTINUOUS
10
-60.049920
20
70.080390
30
0.0
11
-60.049980
21
70.705690
31
0.0
0
LINE
8
0
6
CONTINUOUS
10
-60.049980
20
70.705690
30
0.0
11
-59.248160
21
70.738990
31
0.0
0
LINE
8
0
6
CONTINUOUS
10
-60.700020
20
70.618160
30
0.0
11
-60.700020
21
70.269840
31
0.0
0
LINE
8
0
6
CONTINUOUS
10
-60.049980
20
70.705690
30
0.0
11
-60.050010
21
71.160100
31
0.0
0
LINE
8
0
6
CONTINUOUS
10
-60.050010
20
71.160100
30
0.0
11
-59.248220
21
71.236950
31
0.0
0
LINE
8
0
6
CONTINUOUS
10
-59.248000
20
71.307080
30
0.0
11
-60.049910
21
71.226810
31
0.0
0
LINE
8
0
6
CONTINUOUS
10
-60.050010
20
71.160100
30
0.0
11
-60.049910
21
71.226810
31
0.0
0
LINE
8
0
6
CONTINUOUS
10
-60.049910
20
71.226810
30
0.0
11
-60.700020
21
70.656890
31
0.0
0
LINE
8
0
6
CONTINUOUS
10
-60.049870
20
51.203710
30
0.0
11
-60.050020
21
53.812530
31
0.0
0
LINE
8
0
6
CONTINUOUS
10
-60.700020
20
53.810080
30
0.0
11
-60.700020
21
51.192790
31
0.0
0
LINE
8
0
6
CONTINUOUS
10
-60.049850
20
64.234500
30
0.0
11
-60.049810
21
67.773570
31
0.0
0
LINE
8
0
6
CONTINUOUS
10
-60.700020
20
67.774040
30
0.0
11
-60.700020
21
64.235210
31
0.0
0
LINE
8
0
6
CONTINUOUS
10
-60.049860
20
60.696000
30
0.0
11
-60.049850
21
64.234500
31
0.0
0
LINE
8
0
6
CONTINUOUS
10
-60.700020
20
64.235210
30
0.0
11
-60.700020
21
60.696870
31
0.0
0
LINE
8
0
6
CONTINUOUS
10
-60.049820
20
57.158020
30
0.0
11
-60.049860
21
60.696000
31
0.0
0
LINE
8
0
6
CONTINUOUS
10
-60.700020
20
60.696870
30
0.0
11
-60.700020
21
57.158680
31
0.0
0
LINE
8
0
6
CONTINUOUS
10
-60.050020
20
53.812530
30
0.0
11
-60.049820
21
57.158020
31
0.0
0
LINE
8
0
6
CONTINUOUS
10
-60.700020
20
57.158680
30
0.0
11
-60.700020
21
53.810080
31
0.0
0
LINE
8
0
6
CONTINUOUS
10
-60.700020
20
51.192790
30
0.0
11
-60.700020
21
48.663200
31
0.0
0
LINE
8
0
6
CONTINUOUS
10
-52.106320
20
70.042680
30
0.0
11
-52.252160
21
70.740970
31
0.0
0
LINE
8
0
6
CONTINUOUS
10
-52.575820
20
70.739020
30
0.0
11
-52.252160
21
70.740970
31
0.0
0
LINE
8
0
6
CONTINUOUS
10
-52.252160
20
70.740970
30
0.0
11
-52.810730
21
71.237190
31
0.0
0
LINE
8
0
6
CONTINUOUS
10
-53.083580
20
71.236950
30
0.0
11
-52.810730
21
71.237190
31
0.0
0
LINE
8
0
6
CONTINUOUS
10
-53.529630
20
71.307070
30
0.0
11
-53.756800
21
71.307070
31
0.0
0
LINE
8
0
6
CONTINUOUS
10
-52.810730
20
71.237190
30
0.0
11
-53.529630
21
71.307070
31
0.0
0
LINE
8
0
6
CONTINUOUS
10
-55.134490
20
70.738450
30
0.0
11
-53.586550
21
70.738640
31
0.0
0
LINE
8
0
6
CONTINUOUS
10
-55.351060
20
71.236870
30
0.0
11
-53.974710
21
71.236900
31
0.0
0
LINE
8
0
6
CONTINUOUS
10
-54.489520
20
71.307080
30
0.0
11
-55.637360
21
71.307060
31
0.0
0
LINE
8
0
6
CONTINUOUS
10
-58.819930
20
70.738890
30
0.0
11
-56.954750
21
70.738410
31
0.0
0
LINE
8
0
6
CONTINUOUS
10
-58.864720
20
71.236940
30
0.0
11
-57.053820
21
71.236900
31
0.0
0
LINE
8
0
6
CONTINUOUS
10
-57.179100
20
71.307130
30
0.0
11
-58.921720
21
71.307080
31
0.0
0
LINE
8
0
6
CONTINUOUS
10
-56.954750
20
70.738410
30
0.0
11
-55.134490
21
70.738450
31
0.0
0
LINE
8
0
6
CONTINUOUS
10
-57.053820
20
71.236900
30
0.0
11
-55.351060
21
71.236870
31
0.0
0
LINE
8
0
6
CONTINUOUS
10
-55.637360
20
71.307060
30
0.0
11
-57.179100
21
71.307130
31
0.0
0
LINE
8
0
6
CONTINUOUS
10
-58.921720
20
71.307080
30
0.0
11
-59.248000
21
71.307080
31
0.0
0
LINE
8
0
6
CONTINUOUS
10
-58.864720
20
71.236940
30
0.0
11
-59.248220
21
71.236950
31
0.0
0
LINE
8
0
6
CONTINUOUS
10
-53.586550
20
70.738640
30
0.0
11
-52.575820
21
70.739020
31
0.0
0
LINE
8
0
6
CONTINUOUS
10
-53.974710
20
71.236900
30
0.0
11
-53.083580
21
71.236950
31
0.0
0
LINE
8
0
6
CONTINUOUS
10
-53.756800
20
71.307070
30
0.0
11
-54.489520
21
71.307080
31
0.0
0
LINE
8
0
6
CONTINUOUS
10
-58.819930
20
70.738890
30
0.0
11
-59.248160
21
70.738990
31
0.0
0
LINE
8
0
6
CONTINUOUS
10
-51.944110
20
68.525000
30
0.0
11
-52.106320
21
70.042680
31
0.0
0
LINE
8
0
6
CONTINUOUS
10
-33.302890
20
57.467020
30
0.0
11
-36.051870
21
56.949200
31
0.0
0
LINE
8
0
6
CONTINUOUS
10
-51.682510
20
65.734700
30
0.0
11
-51.944110
21
68.525000
31
0.0
0
LINE
8
0
6
CONTINUOUS
10
-51.216860
20
62.971080
30
0.0
11
-51.682510
21
65.734700
31
0.0
0
LINE
8
0
6
CONTINUOUS
10
-50.757920
20
60.206360
30
0.0
11
-51.216860
21
62.971080
31
0.0
0
LINE
8
0
6
CONTINUOUS
10
-49.370520
20
57.792600
30
0.0
11
-50.757920
21
60.206360
31
0.0
0
LINE
8
0
6
CONTINUOUS
10
-47.082220
20
56.201140
30
0.0
11
-49.370520
21
57.792600
31
0.0
0
LINE
8
0
6
CONTINUOUS
10
-49.370520
20
57.792600
30
0.0
11
-49.870020
21
56.191290
31
0.0
0
LINE
8
0
6
CONTINUOUS
10
-44.336350
20
55.693410
30
0.0
11
-47.082220
21
56.201140
31
0.0
0
LINE
8
0
6
CONTINUOUS
10
-41.550120
20
55.912550
30
0.0
11
-44.336350
21
55.693410
31
0.0
0
LINE
8
0
6
CONTINUOUS
10
-38.796080
20
56.406020
30
0.0
11
-41.550120
21
55.912550
31
0.0
0
LINE
8
0
6
CONTINUOUS
10
-36.051870
20
56.949200
30
0.0
11
-38.796080
21
56.406020
31
0.0
0
LINE
8
0
6
CONTINUOUS
10
-49.870020
20
56.191290
30
0.0
11
-49.883750
21
53.048130
31
0.0
0
LINE
8
0
6
CONTINUOUS
10
-30.743090
20
57.863030
30
0.0
11
-33.302890
21
57.467020
31
0.0
0
LINE
8
0
6
CONTINUOUS
10
-60.049820
20
40.584260
30
0.0
11
-60.049910
21
44.474180
31
0.0
0
LINE
8
0
6
CONTINUOUS
10
-60.700020
20
44.461060
30
0.0
11
-60.700020
21
40.584260
31
0.0
0
LINE
8
0
6
CONTINUOUS
10
-59.248020
20
45.670320
30
0.0
11
-60.049920
21
45.602840
31
0.0
0
LINE
8
0
6
CONTINUOUS
10
-60.049920
20
45.602840
30
0.0
11
-60.700020
21
45.050050
31
0.0
0
LINE
8
0
6
CONTINUOUS
10
-59.248160
20
45.631940
30
0.0
11
-60.049980
21
45.571650
31
0.0
0
LINE
8
0
6
CONTINUOUS
10
-60.050010
20
45.139080
30
0.0
11
-60.049980
21
45.571650
31
0.0
0
LINE
8
0
6
CONTINUOUS
10
-60.700020
20
45.050050
30
0.0
11
-60.700020
21
44.874210
31
0.0
0
LINE
8
0
6
CONTINUOUS
10
-59.248220
20
45.155560
30
0.0
11
-60.050010
21
45.139080
31
0.0
0
LINE
8
0
6
CONTINUOUS
10
-60.049910
20
44.474180
30
0.0
11
-60.050010
21
45.139080
31
0.0
0
LINE
8
0
6
CONTINUOUS
10
-60.700020
20
44.874210
30
0.0
11
-60.700020
21
44.461060
31
0.0
0
LINE
8
0
6
CONTINUOUS
10
-60.050020
20
46.087300
30
0.0
11
-60.049870
21
47.286390
31
0.0
0
LINE
8
0
6
CONTINUOUS
10
-60.700020
20
46.696810
30
0.0
11
-60.700020
21
45.473070
31
0.0
0
LINE
8
0
6
CONTINUOUS
10
-60.049820
20
45.572280
30
0.0
11
-60.050020
21
46.087300
31
0.0
0
LINE
8
0
6
CONTINUOUS
10
-60.700020
20
45.473070
30
0.0
11
-60.700020
21
44.973250
31
0.0
0
LINE
8
0
6
CONTINUOUS
10
-52.252160
20
40.584260
30
0.0
11
-52.575820
21
42.405850
31
0.0
0
LINE
8
0
6
CONTINUOUS
10
-52.810740
20
40.584260
30
0.0
11
-53.083590
21
42.221900
31
0.0
0
LINE
8
0
6
CONTINUOUS
10
-53.586550
20
43.942570
30
0.0
11
-55.134490
21
44.978830
31
0.0
0
LINE
8
0
6
CONTINUOUS
10
-53.974710
20
43.587840
30
0.0
11
-55.351060
21
44.522480
31
0.0
0
LINE
8
0
6
CONTINUOUS
10
-56.926670
20
45.459540
30
0.0
11
-58.807610
21
45.662230
31
0.0
0
LINE
8
0
6
CONTINUOUS
10
-56.954750
20
45.393970
30
0.0
11
-58.819930
21
45.622040
31
0.0
0
LINE
8
0
6
CONTINUOUS
10
-57.053830
20
44.905070
30
0.0
11
-58.864720
21
45.145400
31
0.0
0
LINE
8
0
6
CONTINUOUS
10
-55.134490
20
44.978830
30
0.0
11
-56.954750
21
45.393970
31
0.0
0
LINE
8
0
6
CONTINUOUS
10
-55.351060
20
44.522480
30
0.0
11
-57.053830
21
44.905070
31
0.0
0
LINE
8
0
6
CONTINUOUS
10
-59.248220
20
45.155560
30
0.0
11
-58.864720
21
45.145400
31
0.0
0
LINE
8
0
6
CONTINUOUS
10
-52.575820
20
42.405850
30
0.0
11
-53.586550
21
43.942570
31
0.0
0
LINE
8
0
6
CONTINUOUS
10
-53.083590
20
42.221900
30
0.0
11
-53.974710
21
43.587840
31
0.0
0
LINE
8
0
6
CONTINUOUS
10
-58.807610
20
45.662230
30
0.0
11
-59.248020
21
45.670320
31
0.0
0
LINE
8
0
6
CONTINUOUS
10
-59.248160
20
45.631940
30
0.0
11
-58.819930
21
45.622040
31
0.0
0
LINE
8
0
6
CONTINUOUS
10
-56.875680
20
45.447710
30
0.0
11
-56.926670
21
45.459540
31
0.0
0
LINE
8
0
6
CONTINUOUS
10
-55.085500
20
45.030990
30
0.0
11
-56.875680
21
45.447710
31
0.0
0
LINE
8
0
6
CONTINUOUS
10
-49.870020
20
44.421250
30
0.0
11
-49.370520
21
40.584260
31
0.0
0
LINE
8
0
6
CONTINUOUS
10
-49.883750
20
47.183570
30
0.0
11
-49.870020
21
44.421250
31
0.0
0
LINE
8
0
6
CONTINUOUS
10
-60.700020
20
34.471710
30
0.0
11
-60.700020
21
32.505310
31
0.0
0
LINE
8
0
6
CONTINUOUS
10
-60.049920
20
11.088120
30
0.0
11
-60.049820
21
13.394940
31
0.0
0
LINE
8
0
6
CONTINUOUS
10
-60.700020
20
13.394480
30
0.0
11
-60.700020
21
11.314690
31
0.0
0
LINE
8
0
6
CONTINUOUS
10
-60.049990
20
10.462830
30
0.0
11
-60.049920
21
11.088120
31
0.0
0
LINE
8
0
6
CONTINUOUS
10
-60.700020
20
11.314690
30
0.0
11
-60.700020
21
10.898670
31
0.0
0
LINE
8
0
6
CONTINUOUS
10
-59.248160
20
10.429530
30
0.0
11
-60.049990
21
10.462830
31
0.0
0
LINE
8
0
6
CONTINUOUS
10
-60.050020
20
10.008410
30
0.0
11
-60.049990
21
10.462830
31
0.0
0
LINE
8
0
6
CONTINUOUS
10
-60.700020
20
10.898670
30
0.0
11
-60.700020
21
10.550360
31
0.0
0
LINE
8
0
6
CONTINUOUS
10
-59.248230
20
9.931570
30
0.0
11
-60.050020
21
10.008410
31
0.0
0
LINE
8
0
6
CONTINUOUS
10
-60.049910
20
9.941700
30
0.0
11
-59.248010
21
9.861440
31
0.0
0
LINE
8
0
6
CONTINUOUS
10
-60.049910
20
9.941700
30
0.0
11
-60.050020
21
10.008410
31
0.0
0
LINE
8
0
6
CONTINUOUS
10
-60.700020
20
10.511630
30
0.0
11
-60.049910
21
9.941700
31
0.0
0
LINE
8
0
6
CONTINUOUS
10
-60.050020
20
27.355980
30
0.0
11
-60.049870
21
29.964810
31
0.0
0
LINE
8
0
6
CONTINUOUS
10
-60.700020
20
29.975720
30
0.0
11
-60.700020
21
27.358430
31
0.0
0
LINE
8
0
6
CONTINUOUS
10
-60.049820
20
13.394940
30
0.0
11
-60.049850
21
16.934010
31
0.0
0
LINE
8
0
6
CONTINUOUS
10
-60.700020
20
16.933300
30
0.0
11
-60.700020
21
13.394480
31
0.0
0
LINE
8
0
6
CONTINUOUS
10
-60.049850
20
16.934010
30
0.0
11
-60.049860
21
20.472520
31
0.0
0
LINE
8
0
6
CONTINUOUS
10
-60.700020
20
20.471640
30
0.0
11
-60.700020
21
16.933300
31
0.0
0
LINE
8
0
6
CONTINUOUS
10
-60.049860
20
20.472520
30
0.0
11
-60.049820
21
24.010500
31
0.0
0
LINE
8
0
6
CONTINUOUS
10
-60.700020
20
24.009830
30
0.0
11
-60.700020
21
20.471640
31
0.0
0
LINE
8
0
6
CONTINUOUS
10
-60.049820
20
24.010500
30
0.0
11
-60.050020
21
27.355980
31
0.0
0
LINE
8
0
6
CONTINUOUS
10
-60.700020
20
27.358430
30
0.0
11
-60.700020
21
24.009830
31
0.0
0
LINE
8
0
6
CONTINUOUS
10
-60.700020
20
32.505310
30
0.0
11
-60.700020
21
29.975720
31
0.0
0
LINE
8
0
6
CONTINUOUS
10
-52.252170
20
10.427540
30
0.0
11
-52.106330
21
11.125830
31
0.0
0
LINE
8
0
6
CONTINUOUS
10
-52.252170
20
10.427540
30
0.0
11
-52.575820
21
10.429500
31
0.0
0
LINE
8
0
6
CONTINUOUS
10
-52.810740
20
9.931330
30
0.0
11
-52.252170
21
10.427540
31
0.0
0
LINE
8
0
6
CONTINUOUS
10
-52.810740
20
9.931330
30
0.0
11
-53.083590
21
9.931570
31
0.0
0
LINE
8
0
6
CONTINUOUS
10
-53.529640
20
9.861440
30
0.0
11
-52.810740
21
9.931330
31
0.0
0
LINE
8
0
6
CONTINUOUS
10
-53.756810
20
9.861450
30
0.0
11
-53.529640
21
9.861440
31
0.0
0
LINE
8
0
6
CONTINUOUS
10
-53.586550
20
10.429870
30
0.0
11
-55.134490
21
10.430060
31
0.0
0
LINE
8
0
6
CONTINUOUS
10
-53.974720
20
9.931610
30
0.0
11
-55.351060
21
9.931640
31
0.0
0
LINE
8
0
6
CONTINUOUS
10
-56.954760
20
10.430100
30
0.0
11
-58.819930
21
10.429620
31
0.0
0
LINE
8
0
6
CONTINUOUS
10
-57.053830
20
9.931620
30
0.0
11
-58.864720
21
9.931580
31
0.0
0
LINE
8
0
6
CONTINUOUS
10
-58.921720
20
9.861440
30
0.0
11
-57.179110
21
9.861390
31
0.0
0
LINE
8
0
6
CONTINUOUS
10
-55.134490
20
10.430060
30
0.0
11
-56.954760
21
10.430100
31
0.0
0
LINE
8
0
6
CONTINUOUS
10
-55.351060
20
9.931640
30
0.0
11
-57.053830
21
9.931620
31
0.0
0
LINE
8
0
6
CONTINUOUS
10
-57.179110
20
9.861390
30
0.0
11
-55.637370
21
9.861460
31
0.0
0
LINE
8
0
6
CONTINUOUS
10
-59.248010
20
9.861440
30
0.0
11
-58.921720
21
9.861440
31
0.0
0
LINE
8
0
6
CONTINUOUS
10
-59.248230
20
9.931570
30
0.0
11
-58.864720
21
9.931580
31
0.0
0
LINE
8
0
6
CONTINUOUS
10
-52.575820
20
10.429500
30
0.0
11
-53.586550
21
10.429870
31
0.0
0
LINE
8
0
6
CONTINUOUS
10
-53.083590
20
9.931570
30
0.0
11
-53.974720
21
9.931610
31
0.0
0
LINE
8
0
6
CONTINUOUS
10
-54.489530
20
9.861430
30
0.0
11
-53.756810
21
9.861450
31
0.0
0
LINE
8
0
6
CONTINUOUS
10
-59.248160
20
10.429530
30
0.0
11
-58.819930
21
10.429620
31
0.0
0
LINE
8
0
6
CONTINUOUS
10
-52.106330
20
11.125830
30
0.0
11
-51.944110
21
12.643510
31
0.0
0
LINE
8
0
6
CONTINUOUS
10
-36.051870
20
24.219310
30
0.0
11
-33.302890
21
23.701490
31
0.0
0
LINE
8
0
6
CONTINUOUS
10
-51.944110
20
12.643510
30
0.0
11
-51.682520
21
15.433820
31
0.0
0
LINE
8
0
6
CONTINUOUS
10
-51.682520
20
15.433820
30
0.0
11
-51.216860
21
18.197430
31
0.0
0
LINE
8
0
6
CONTINUOUS
10
-51.216860
20
18.197430
30
0.0
11
-50.757930
21
20.962150
31
0.0
0
LINE
8
0
6
CONTINUOUS
10
-50.757930
20
20.962150
30
0.0
11
-49.370520
21
23.375910
31
0.0
0
LINE
8
0
6
CONTINUOUS
10
-49.870020
20
24.977230
30
0.0
11
-49.370520
21
23.375910
31
0.0
0
LINE
8
0
6
CONTINUOUS
10
-49.370520
20
23.375910
30
0.0
11
-47.082220
21
24.967370
31
0.0
0
LINE
8
0
6
CONTINUOUS
10
-47.082220
20
24.967370
30
0.0
11
-44.336350
21
25.475100
31
0.0
0
LINE
8
0
6
CONTINUOUS
10
-44.336350
20
25.475100
30
0.0
11
-41.550120
21
25.255960
31
0.0
0
LINE
8
0
6
CONTINUOUS
10
-41.550120
20
25.255960
30
0.0
11
-38.796080
21
24.762490
31
0.0
0
LINE
8
0
6
CONTINUOUS
10
-38.796080
20
24.762490
30
0.0
11
-36.051870
21
24.219310
31
0.0
0
LINE
8
0
6
CONTINUOUS
10
-49.883750
20
28.120390
30
0.0
11
-49.870020
21
24.977230
31
0.0
0
LINE
8
0
6
CONTINUOUS
10
-33.302890
20
23.701490
30
0.0
11
-30.743090
21
23.305480
31
0.0
0
LINE
8
0
6
CONTINUOUS
10
-60.049910
20
36.694330
30
0.0
11
-60.049820
21
40.584260
31
0.0
0
LINE
8
0
6
CONTINUOUS
10
-60.700020
20
40.584260
30
0.0
11
-60.700020
21
36.707450
31
0.0
0
LINE
8
0
6
CONTINUOUS
10
-60.049920
20
35.565680
30
0.0
11
-59.248020
21
35.498190
31
0.0
0
LINE
8
0
6
CONTINUOUS
10
-60.700020
20
36.118470
30
0.0
11
-60.049920
21
35.565680
31
0.0
0
LINE
8
0
6
CONTINUOUS
10
-60.049990
20
35.596870
30
0.0
11
-59.248160
21
35.536570
31
0.0
0
LINE
8
0
6
CONTINUOUS
10
-60.700020
20
36.294310
30
0.0
11
-60.700020
21
36.118470
31
0.0
0
LINE
8
0
6
CONTINUOUS
10
-60.049990
20
35.596870
30
0.0
11
-60.050010
21
36.029430
31
0.0
0
LINE
8
0
6
CONTINUOUS
10
-60.050010
20
36.029430
30
0.0
11
-59.248220
21
36.012950
31
0.0
0
LINE
8
0
6
CONTINUOUS
10
-60.050010
20
36.029430
30
0.0
11
-60.049910
21
36.694330
31
0.0
0
LINE
8
0
6
CONTINUOUS
10
-60.700020
20
36.707450
30
0.0
11
-60.700020
21
36.294310
31
0.0
0
LINE
8
0
6
CONTINUOUS
10
-60.049870
20
33.882120
30
0.0
11
-60.050020
21
35.081210
31
0.0
0
LINE
8
0
6
CONTINUOUS
10
-60.700020
20
35.695440
30
0.0
11
-60.700020
21
34.471710
31
0.0
0
LINE
8
0
6
CONTINUOUS
10
-60.050020
20
35.081210
30
0.0
11
-60.049820
21
35.596240
31
0.0
0
LINE
8
0
6
CONTINUOUS
10
-60.700020
20
36.195270
30
0.0
11
-60.700020
21
35.695440
31
0.0
0
LINE
8
0
6
CONTINUOUS
10
-52.575820
20
38.762670
30
0.0
11
-52.252160
21
40.584260
31
0.0
0
LINE
8
0
6
CONTINUOUS
10
-53.083590
20
38.946620
30
0.0
11
-52.810740
21
40.584260
31
0.0
0
LINE
8
0
6
CONTINUOUS
10
-55.134490
20
36.189680
30
0.0
11
-53.586550
21
37.225940
31
0.0
0
LINE
8
0
6
CONTINUOUS
10
-55.351060
20
36.646040
30
0.0
11
-53.974710
21
37.580680
31
0.0
0
LINE
8
0
6
CONTINUOUS
10
-58.807610
20
35.506280
30
0.0
11
-56.926670
21
35.708970
31
0.0
0
LINE
8
0
6
CONTINUOUS
10
-58.819930
20
35.546470
30
0.0
11
-56.954760
21
35.774540
31
0.0
0
LINE
8
0
6
CONTINUOUS
10
-58.864720
20
36.023120
30
0.0
11
-57.053830
21
36.263440
31
0.0
0
LINE
8
0
6
CONTINUOUS
10
-56.954760
20
35.774540
30
0.0
11
-55.134490
21
36.189680
31
0.0
0
LINE
8
0
6
CONTINUOUS
10
-57.053830
20
36.263440
30
0.0
11
-55.351060
21
36.646040
31
0.0
0
LINE
8
0
6
CONTINUOUS
10
-58.864720
20
36.023120
30
0.0
11
-59.248220
21
36.012950
31
0.0
0
LINE
8
0
6
CONTINUOUS
10
-53.586550
20
37.225940
30
0.0
11
-52.575820
21
38.762670
31
0.0
0
LINE
8
0
6
CONTINUOUS
10
-53.974710
20
37.580680
30
0.0
11
-53.083590
21
38.946620
31
0.0
0
LINE
8
0
6
CONTINUOUS
10
-59.248020
20
35.498190
30
0.0
11
-58.807610
21
35.506280
31
0.0
0
LINE
8
0
6
CONTINUOUS
10
-58.819930
20
35.546470
30
0.0
11
-59.248160
21
35.536570
31
0.0
0
LINE
8
0
6
CONTINUOUS
10
-56.875680
20
35.720810
30
0.0
11
-55.085500
21
36.137520
31
0.0
0
LINE
8
0
6
CONTINUOUS
10
-56.926670
20
35.708970
30
0.0
11
-56.875680
21
35.720810
31
0.0
0
LINE
8
0
6
CONTINUOUS
10
-49.370520
20
40.584260
30
0.0
11
-50.757930
21
40.584260
31
0.0
0
LINE
8
0
6
CONTINUOUS
10
-49.370520
20
40.584260
30
0.0
11
-49.870020
21
36.747270
31
0.0
0
LINE
8
0
6
CONTINUOUS
10
-49.870020
20
36.747270
30
0.0
11
-49.883750
21
33.984950
31
0.0
0
LINE
8
0
6
CONTINUOUS
10
-53.756810
20
71.307070
30
0.0
11
-54.489530
21
71.307090
31
0.0
0
LINE
8
0
6
CONTINUOUS
10
-58.921720
20
71.307080
30
0.0
11
-59.248000
21
71.307080
31
0.0
0
LINE
8
0
6
CONTINUOUS
10
-38.796080
20
56.406020
30
0.0
11
-41.550120
21
55.912550
31
0.0
0
LINE
8
0
6
CONTINUOUS
10
-36.051870
20
56.949200
30
0.0
11
-38.796080
21
56.406020
31
0.0
0
LINE
8
0
6
CONTINUOUS
10
-41.550120
20
25.255960
30
0.0
11
-38.796080
21
24.762490
31
0.0
0
LINE
8
0
6
CONTINUOUS
10
-38.796080
20
24.762490
30
0.0
11
-36.051870
21
24.219310
31
0.0
0
LINE
8
0
6
CONTINUOUS
10
11.462160
20
22.314560
30
0.0
11
10.406150
21
22.314560
31
0.0
0
LINE
8
0
6
CONTINUOUS
10
10.406150
20
22.314560
30
0.0
11
8.646140
21
22.314560
31
0.0
0
LINE
8
0
6
CONTINUOUS
10
0.858150
20
22.314560
30
0.0
11
3.674150
21
22.314560
31
0.0
0
ENDSEC
0
EOF
