999
Erzeugt mit innoplus bad 
0
SECTION
2
HEADER
9
$ACADVER
1
AC1009
9
$DWGCODEPAGE
3
ISO8859-1
0
ENDSEC
0
SECTION
2
TABLES
0
TABLE
2
LAYER
70
1
0
LAYER
2
0
70
0
62
7
6
CONTINUOUS
0
ENDTAB
0
ENDSEC
0
SECTION
2
ENTITIES
0
LINE
8
0
6
CONTINUOUS
10
-6.823860
20
-84.895190
30
0.0
11
-6.842880
21
-85.425160
31
0.0
0
LINE
8
0
6
CONTINUOUS
10
-6.890970
20
-92.179590
30
0.0
11
-6.893000
21
-92.464970
31
0.0
0
LINE
8
0
6
CONTINUOUS
10
-6.893000
20
-92.464970
30
0.0
11
-6.758300
21
-93.238310
31
0.0
0
LINE
8
0
6
CONTINUOUS
10
-6.758300
20
-93.238310
30
0.0
11
-6.367160
21
-93.923380
31
0.0
0
LINE
8
0
6
CONTINUOUS
10
-6.367160
20
-93.923380
30
0.0
11
-5.744180
21
-94.439510
31
0.0
0
LINE
8
0
6
CONTINUOUS
10
-5.744180
20
-94.439510
30
0.0
11
-4.976780
21
-94.714700
31
0.0
0
LINE
8
0
6
CONTINUOUS
10
-4.976780
20
-94.714700
30
0.0
11
-4.155670
21
-94.760440
31
0.0
0
LINE
8
0
6
CONTINUOUS
10
-26.224400
20
32.871540
30
0.0
11
-26.223620
21
32.255390
31
0.0
0
LINE
8
0
6
CONTINUOUS
10
-4.155670
20
58.967880
30
0.0
11
-9.828010
21
58.197370
31
0.0
0
LINE
8
0
6
CONTINUOUS
10
-15.107490
20
56.124310
30
0.0
11
-19.650950
21
52.971410
31
0.0
0
LINE
8
0
6
CONTINUOUS
10
-9.828010
20
58.197370
30
0.0
11
-15.107490
21
56.124310
31
0.0
0
LINE
8
0
6
CONTINUOUS
10
-19.650950
20
52.971410
30
0.0
11
-23.136970
21
48.886950
31
0.0
0
LINE
8
0
6
CONTINUOUS
10
-23.136970
20
48.886950
30
0.0
11
-25.413760
21
44.153030
31
0.0
0
LINE
8
0
6
CONTINUOUS
10
-26.224400
20
39.111330
30
0.0
11
-26.224400
21
38.940500
31
0.0
0
LINE
8
0
6
CONTINUOUS
10
-25.413760
20
44.153030
30
0.0
11
-26.224400
21
39.111330
31
0.0
0
LINE
8
0
6
CONTINUOUS
10
-6.844880
20
-85.700490
30
0.0
11
-6.890970
21
-92.179590
31
0.0
0
LINE
8
0
6
CONTINUOUS
10
-10.630936
20
-47.263726
30
0.0
11
-8.235110
21
-61.734790
31
0.0
0
LINE
8
0
6
CONTINUOUS
10
-26.223620
20
32.255390
30
0.0
11
-26.222830
21
31.639240
31
0.0
0
LINE
8
0
6
CONTINUOUS
10
-6.747820
20
-82.775320
30
0.0
11
-6.823860
21
-84.895190
31
0.0
0
LINE
8
0
6
CONTINUOUS
10
-14.705760
20
-25.917000
30
0.0
11
-12.557590
21
-36.907400
31
0.0
0
LINE
8
0
6
CONTINUOUS
10
-11.724460
20
-40.682550
30
0.0
11
-8.232920
21
-61.468380
31
0.0
0
LINE
8
0
6
CONTINUOUS
10
-8.232920
20
-61.468380
30
0.0
11
-7.983420
21
-63.436050
31
0.0
0
LINE
8
0
6
CONTINUOUS
10
-17.384750
20
-13.023490
30
0.0
11
-14.705760
21
-25.917000
31
0.0
0
LINE
8
0
6
CONTINUOUS
10
-20.061050
20
-0.129500
30
0.0
11
-17.384750
21
-13.023490
31
0.0
0
LINE
8
0
6
CONTINUOUS
10
-22.738610
20
12.764250
30
0.0
11
-20.061050
21
-0.129500
31
0.0
0
LINE
8
0
6
CONTINUOUS
10
-25.426790
20
25.655780
30
0.0
11
-22.738610
21
12.764250
31
0.0
0
LINE
8
0
6
CONTINUOUS
10
-7.983420
20
-63.436050
30
0.0
11
-6.747820
21
-82.775320
31
0.0
0
LINE
8
0
6
CONTINUOUS
10
-12.557590
20
-36.907400
30
0.0
11
-12.178500
21
-38.846890
31
0.0
0
LINE
8
0
6
CONTINUOUS
10
-12.178500
20
-38.846890
30
0.0
11
-11.724460
21
-40.682550
31
0.0
0
LINE
8
0
6
CONTINUOUS
10
-26.222650
20
31.505830
30
0.0
11
-25.426790
21
25.655780
31
0.0
0
LINE
8
0
6
CONTINUOUS
10
-6.842880
20
-85.425160
30
0.0
11
-6.844880
21
-85.700490
31
0.0
0
LINE
8
0
6
CONTINUOUS
10
-6.725420
20
-86.170760
30
0.0
11
-6.842880
21
-85.425160
31
0.0
0
LINE
8
0
6
CONTINUOUS
10
-6.347130
20
-86.833740
30
0.0
11
-6.725420
21
-86.170760
31
0.0
0
LINE
8
0
6
CONTINUOUS
10
-5.731930
20
-87.332110
30
0.0
11
-6.347130
21
-86.833740
31
0.0
0
LINE
8
0
6
CONTINUOUS
10
-4.970700
20
-87.595210
30
0.0
11
-5.731930
21
-87.332110
31
0.0
0
LINE
8
0
6
CONTINUOUS
10
-9.825740
20
53.549100
30
0.0
11
-4.155670
21
54.436580
31
0.0
0
LINE
8
0
6
CONTINUOUS
10
-11.826440
20
-39.970910
30
0.0
11
-8.287750
21
-67.542050
31
0.0
0
LINE
8
0
6
CONTINUOUS
10
-8.047820
20
-70.154350
30
0.0
11
-6.859400
21
-89.750840
31
0.0
0
LINE
8
0
6
CONTINUOUS
10
-26.224400
20
34.495920
30
0.0
11
-26.224400
21
33.683730
31
0.0
0
LINE
8
0
6
CONTINUOUS
10
-26.224400
20
35.308120
30
0.0
11
-26.224400
21
34.495920
31
0.0
0
LINE
8
0
6
CONTINUOUS
10
-4.155670
20
-87.638220
30
0.0
11
-4.970700
21
-87.595210
31
0.0
0
LINE
8
0
6
CONTINUOUS
10
-8.287750
20
-67.542050
30
0.0
11
-8.047820
21
-70.154350
31
0.0
0
LINE
8
0
6
CONTINUOUS
10
-26.224400
20
33.683730
30
0.0
11
-26.224400
21
32.871540
31
0.0
0
LINE
8
0
6
CONTINUOUS
10
-26.224400
20
38.940500
30
0.0
11
-26.224400
21
35.308120
31
0.0
0
LINE
8
0
6
CONTINUOUS
10
-19.647600
20
47.529120
30
0.0
11
-15.104480
21
51.161090
31
0.0
0
LINE
8
0
6
CONTINUOUS
10
-15.104480
20
51.161090
30
0.0
11
-9.825740
21
53.549100
31
0.0
0
LINE
8
0
6
CONTINUOUS
10
-23.133730
20
42.824000
30
0.0
11
-19.647600
21
47.529120
31
0.0
0
LINE
8
0
6
CONTINUOUS
10
-25.411060
20
37.370680
30
0.0
11
-23.133730
21
42.824000
31
0.0
0
LINE
8
0
6
CONTINUOUS
10
-26.222650
20
31.505830
30
0.0
11
-25.411060
21
37.370680
31
0.0
0
LINE
8
0
6
CONTINUOUS
10
-1.468470
20
-85.425160
30
0.0
11
-1.487480
21
-84.895190
31
0.0
0
LINE
8
0
6
CONTINUOUS
10
-1.418350
20
-92.464970
30
0.0
11
-1.420380
21
-92.179590
31
0.0
0
LINE
8
0
6
CONTINUOUS
10
-1.553050
20
-93.238310
30
0.0
11
-1.418350
21
-92.464970
31
0.0
0
LINE
8
0
6
CONTINUOUS
10
-1.944180
20
-93.923380
30
0.0
11
-1.553050
21
-93.238310
31
0.0
0
LINE
8
0
6
CONTINUOUS
10
-2.567170
20
-94.439510
30
0.0
11
-1.944180
21
-93.923380
31
0.0
0
LINE
8
0
6
CONTINUOUS
10
-3.334560
20
-94.714700
30
0.0
11
-2.567170
21
-94.439510
31
0.0
0
LINE
8
0
6
CONTINUOUS
10
-4.155670
20
-94.760440
30
0.0
11
-3.334560
21
-94.714700
31
0.0
0
LINE
8
0
6
CONTINUOUS
10
17.912270
20
32.255390
30
0.0
11
17.913060
21
32.871540
31
0.0
0
LINE
8
0
6
CONTINUOUS
10
1.516660
20
58.197370
30
0.0
11
-4.155670
21
58.967880
31
0.0
0
LINE
8
0
6
CONTINUOUS
10
11.339600
20
52.971410
30
0.0
11
6.796150
21
56.124310
31
0.0
0
LINE
8
0
6
CONTINUOUS
10
6.796150
20
56.124310
30
0.0
11
1.516660
21
58.197370
31
0.0
0
LINE
8
0
6
CONTINUOUS
10
14.825620
20
48.886950
30
0.0
11
11.339600
21
52.971410
31
0.0
0
LINE
8
0
6
CONTINUOUS
10
17.102410
20
44.153030
30
0.0
11
14.825620
21
48.886950
31
0.0
0
LINE
8
0
6
CONTINUOUS
10
17.913060
20
39.111330
30
0.0
11
17.102410
21
44.153030
31
0.0
0
LINE
8
0
6
CONTINUOUS
10
17.913060
20
38.940500
30
0.0
11
17.913060
21
39.111330
31
0.0
0
LINE
8
0
6
CONTINUOUS
10
-1.420380
20
-92.179590
30
0.0
11
-1.466460
21
-85.700490
31
0.0
0
LINE
8
0
6
CONTINUOUS
10
-0.076230
20
-61.734790
30
0.0
11
2.319596
21
-47.263726
31
0.0
0
LINE
8
0
6
CONTINUOUS
10
17.911480
20
31.639240
30
0.0
11
17.912270
21
32.255390
31
0.0
0
LINE
8
0
6
CONTINUOUS
10
-1.487480
20
-84.895190
30
0.0
11
-1.563530
21
-82.775320
31
0.0
0
LINE
8
0
6
CONTINUOUS
10
4.246240
20
-36.907400
30
0.0
11
6.394420
21
-25.917000
31
0.0
0
LINE
8
0
6
CONTINUOUS
10
-0.078430
20
-61.468380
30
0.0
11
3.413120
21
-40.682550
31
0.0
0
LINE
8
0
6
CONTINUOUS
10
-0.327920
20
-63.436050
30
0.0
11
-0.078430
21
-61.468380
31
0.0
0
LINE
8
0
6
CONTINUOUS
10
6.394420
20
-25.917000
30
0.0
11
9.073400
21
-13.023490
31
0.0
0
LINE
8
0
6
CONTINUOUS
10
9.073400
20
-13.023490
30
0.0
11
11.749700
21
-0.129500
31
0.0
0
LINE
8
0
6
CONTINUOUS
10
11.749700
20
-0.129500
30
0.0
11
14.427270
21
12.764250
31
0.0
0
LINE
8
0
6
CONTINUOUS
10
14.427270
20
12.764250
30
0.0
11
17.115450
21
25.655790
31
0.0
0
LINE
8
0
6
CONTINUOUS
10
-1.563530
20
-82.775320
30
0.0
11
-0.327920
21
-63.436050
31
0.0
0
LINE
8
0
6
CONTINUOUS
10
3.867150
20
-38.846890
30
0.0
11
4.246240
21
-36.907400
31
0.0
0
LINE
8
0
6
CONTINUOUS
10
3.413120
20
-40.682550
30
0.0
11
3.867150
21
-38.846890
31
0.0
0
LINE
8
0
6
CONTINUOUS
10
17.115450
20
25.655790
30
0.0
11
17.911310
21
31.505830
31
0.0
0
LINE
8
0
6
CONTINUOUS
10
-1.468470
20
-85.425160
30
0.0
11
-1.585920
21
-86.170760
31
0.0
0
LINE
8
0
6
CONTINUOUS
10
-1.466460
20
-85.700490
30
0.0
11
-1.468470
21
-85.425160
31
0.0
0
LINE
8
0
6
CONTINUOUS
10
-1.585920
20
-86.170760
30
0.0
11
-1.964220
21
-86.833740
31
0.0
0
LINE
8
0
6
CONTINUOUS
10
-1.964220
20
-86.833740
30
0.0
11
-2.579410
21
-87.332110
31
0.0
0
LINE
8
0
6
CONTINUOUS
10
-2.579410
20
-87.332110
30
0.0
11
-3.340650
21
-87.595210
31
0.0
0
LINE
8
0
6
CONTINUOUS
10
-4.155670
20
54.436580
30
0.0
11
1.514400
21
53.549100
31
0.0
0
LINE
8
0
6
CONTINUOUS
10
-0.023590
20
-67.542050
30
0.0
11
3.515090
21
-39.970910
31
0.0
0
LINE
8
0
6
CONTINUOUS
10
-1.451950
20
-89.750840
30
0.0
11
-0.263530
21
-70.154350
31
0.0
0
LINE
8
0
6
CONTINUOUS
10
17.913060
20
33.683730
30
0.0
11
17.913060
21
34.495920
31
0.0
0
LINE
8
0
6
CONTINUOUS
10
17.913060
20
34.495920
30
0.0
11
17.913060
21
35.308120
31
0.0
0
LINE
8
0
6
CONTINUOUS
10
-3.340650
20
-87.595210
30
0.0
11
-4.155670
21
-87.638220
31
0.0
0
LINE
8
0
6
CONTINUOUS
10
-0.263530
20
-70.154350
30
0.0
11
-0.023590
21
-67.542050
31
0.0
0
LINE
8
0
6
CONTINUOUS
10
17.913060
20
32.871540
30
0.0
11
17.913060
21
33.683730
31
0.0
0
LINE
8
0
6
CONTINUOUS
10
17.913060
20
35.308120
30
0.0
11
17.913060
21
38.940500
31
0.0
0
LINE
8
0
6
CONTINUOUS
10
6.793130
20
51.161090
30
0.0
11
11.336250
21
47.529120
31
0.0
0
LINE
8
0
6
CONTINUOUS
10
1.514400
20
53.549100
30
0.0
11
6.793130
21
51.161090
31
0.0
0
LINE
8
0
6
CONTINUOUS
10
11.336250
20
47.529120
30
0.0
11
14.822390
21
42.824000
31
0.0
0
LINE
8
0
6
CONTINUOUS
10
14.822390
20
42.824000
30
0.0
11
17.099720
21
37.370680
31
0.0
0
LINE
8
0
6
CONTINUOUS
10
17.099720
20
37.370680
30
0.0
11
17.911310
21
31.505830
31
0.0
0
LINE
8
0
6
CONTINUOUS
10
24.258390
20
87.229280
30
0.0
11
28.436600
21
90.994840
31
0.0
0
LINE
8
0
6
CONTINUOUS
10
20.847410
20
84.200510
30
0.0
11
22.231470
21
85.575660
31
0.0
0
LINE
8
0
6
CONTINUOUS
10
20.004140
20
83.311160
30
0.0
11
20.847410
21
84.200510
31
0.0
0
LINE
8
0
6
CONTINUOUS
10
19.367740
20
82.746440
30
0.0
11
20.004140
21
83.311160
31
0.0
0
LINE
8
0
6
CONTINUOUS
10
19.035660
20
82.325220
30
0.0
11
19.367740
21
82.746440
31
0.0
0
LINE
8
0
6
CONTINUOUS
10
18.839940
20
81.998120
30
0.0
11
19.035660
21
82.325220
31
0.0
0
LINE
8
0
6
CONTINUOUS
10
22.167640
20
85.548340
30
0.0
11
24.258390
21
87.229280
31
0.0
0
LINE
8
0
6
CONTINUOUS
10
20.054850
20
84.201600
30
0.0
11
18.522870
21
82.617420
31
0.0
0
LINE
8
0
6
CONTINUOUS
10
18.522870
20
82.617420
30
0.0
11
17.238670
21
81.784640
31
0.0
0
LINE
8
0
6
CONTINUOUS
10
22.161970
20
85.671070
30
0.0
11
24.232900
21
87.248940
31
0.0
0
LINE
8
0
6
CONTINUOUS
10
28.436600
20
90.994840
30
0.0
11
28.532420
21
91.837170
31
0.0
0
LINE
8
0
6
CONTINUOUS
10
28.385100
20
91.047550
30
0.0
11
28.436600
21
90.994840
31
0.0
0
LINE
8
0
6
CONTINUOUS
10
28.385100
20
91.047550
30
0.0
11
28.480920
21
91.889890
31
0.0
0
LINE
8
0
6
CONTINUOUS
10
28.258450
20
92.453520
30
0.0
11
27.346880
21
93.603430
31
0.0
0
LINE
8
0
6
CONTINUOUS
10
27.346880
20
93.603430
30
0.0
11
28.361350
21
92.146900
31
0.0
0
LINE
8
0
6
CONTINUOUS
10
28.361350
20
92.146900
30
0.0
11
28.480920
21
91.889890
31
0.0
0
LINE
8
0
6
CONTINUOUS
10
28.532420
20
91.837170
30
0.0
11
28.258450
21
92.453520
31
0.0
0
LINE
8
0
6
CONTINUOUS
10
21.966140
20
85.976030
30
0.0
11
24.117100
21
87.369900
31
0.0
0
LINE
8
0
6
CONTINUOUS
10
28.195090
20
91.233330
30
0.0
11
24.117100
21
87.369900
31
0.0
0
LINE
8
0
6
CONTINUOUS
10
24.232900
20
87.248940
30
0.0
11
28.385100
21
91.047550
31
0.0
0
LINE
8
0
6
CONTINUOUS
10
24.721130
20
94.651110
30
0.0
11
21.023150
21
90.412970
31
0.0
0
LINE
8
0
6
CONTINUOUS
10
19.402290
20
88.359770
30
0.0
11
18.049540
21
86.953800
31
0.0
0
LINE
8
0
6
CONTINUOUS
10
17.173840
20
86.096370
30
0.0
11
16.619420
21
85.450980
31
0.0
0
LINE
8
0
6
CONTINUOUS
10
18.049540
20
86.953800
30
0.0
11
17.173840
21
86.096370
31
0.0
0
LINE
8
0
6
CONTINUOUS
10
16.619420
20
85.450980
30
0.0
11
16.203590
21
85.112180
31
0.0
0
LINE
8
0
6
CONTINUOUS
10
16.203590
20
85.112180
30
0.0
11
15.879670
21
84.911230
31
0.0
0
LINE
8
0
6
CONTINUOUS
10
21.023150
20
90.412970
30
0.0
11
19.376000
21
88.295510
31
0.0
0
LINE
8
0
6
CONTINUOUS
10
16.503980
20
84.604140
30
0.0
11
18.063360
21
86.161360
31
0.0
0
LINE
8
0
6
CONTINUOUS
10
15.691930
20
83.306740
30
0.0
11
16.503980
21
84.604140
31
0.0
0
LINE
8
0
6
CONTINUOUS
10
21.043220
20
90.387810
30
0.0
11
19.498800
21
88.291800
31
0.0
0
LINE
8
0
6
CONTINUOUS
10
24.721130
20
94.651110
30
0.0
11
24.774670
21
94.600470
31
0.0
0
LINE
8
0
6
CONTINUOUS
10
25.561820
20
94.760440
30
0.0
11
24.721130
21
94.651110
31
0.0
0
LINE
8
0
6
CONTINUOUS
10
25.615360
20
94.709800
30
0.0
11
24.774670
21
94.600470
31
0.0
0
LINE
8
0
6
CONTINUOUS
10
27.346880
20
93.603430
30
0.0
11
26.182490
21
94.496410
31
0.0
0
LINE
8
0
6
CONTINUOUS
10
25.874260
20
94.594370
30
0.0
11
27.346880
21
93.603430
31
0.0
0
LINE
8
0
6
CONTINUOUS
10
26.182490
20
94.496410
30
0.0
11
25.561820
21
94.760440
31
0.0
0
LINE
8
0
6
CONTINUOUS
10
25.615360
20
94.709800
30
0.0
11
25.874260
21
94.594370
31
0.0
0
LINE
8
0
6
CONTINUOUS
10
21.166020
20
90.273970
30
0.0
11
19.806870
21
88.100900
31
0.0
0
LINE
8
0
6
CONTINUOUS
10
12.078854
20
75.127580
30
0.0
11
18.839940
21
81.998120
31
0.0
0
LINE
8
0
6
CONTINUOUS
10
15.879670
20
84.911230
30
0.0
11
8.903239
21
77.821845
31
0.0
0
LINE
8
0
6
CONTINUOUS
10
8.061180
20
83.130930
30
0.0
11
2.174380
21
85.607580
31
0.0
0
LINE
8
0
6
CONTINUOUS
10
19.216560
20
54.369940
30
0.0
11
20.206030
21
61.724350
31
0.0
0
LINE
8
0
6
CONTINUOUS
10
11.498895
20
80.459527
30
0.0
11
8.061180
21
83.130930
31
0.0
0
LINE
8
0
6
CONTINUOUS
10
2.174380
20
85.607580
30
0.0
11
-4.155660
21
86.455850
31
0.0
0
LINE
8
0
6
CONTINUOUS
10
16.397000
20
12.737750
30
0.0
11
16.660140
21
20.632970
31
0.0
0
LINE
8
0
6
CONTINUOUS
10
16.327690
20
12.704840
30
0.0
11
16.561020
21
20.487160
31
0.0
0
LINE
8
0
6
CONTINUOUS
10
7.800280
20
-49.740160
30
0.0
11
10.753840
21
-46.658680
31
0.0
0
LINE
8
0
6
CONTINUOUS
10
4.200300
20
-52.062620
30
0.0
11
7.800280
21
-49.740160
31
0.0
0
LINE
8
0
6
CONTINUOUS
10
10.753840
20
-46.658680
30
0.0
11
12.882230
21
-42.989060
31
0.0
0
LINE
8
0
6
CONTINUOUS
10
1.853015
20
-52.920739
30
0.0
11
4.200300
21
-52.062620
31
0.0
0
LINE
8
0
6
CONTINUOUS
10
14.207420
20
-38.979180
30
0.0
11
14.812600
21
-34.807930
31
0.0
0
LINE
8
0
6
CONTINUOUS
10
12.882230
20
-42.989060
30
0.0
11
14.207420
21
-38.979180
31
0.0
0
LINE
8
0
6
CONTINUOUS
10
1.613800
20
60.207130
30
0.0
11
6.924690
21
57.924110
31
0.0
0
LINE
8
0
6
CONTINUOUS
10
14.813830
20
49.720350
30
0.0
11
16.750660
21
44.338440
31
0.0
0
LINE
8
0
6
CONTINUOUS
10
-4.155660
20
61.181190
30
0.0
11
1.613800
21
60.207130
31
0.0
0
LINE
8
0
6
CONTINUOUS
10
6.924690
20
57.924110
30
0.0
11
11.460770
21
54.367890
31
0.0
0
LINE
8
0
6
CONTINUOUS
10
16.683360
20
21.021020
30
0.0
11
16.841030
21
24.339771
31
0.0
0
LINE
8
0
6
CONTINUOUS
10
16.648900
20
23.418386
30
0.0
11
16.561020
21
20.487160
31
0.0
0
LINE
8
0
6
CONTINUOUS
10
18.630770
20
50.015920
30
0.0
11
18.922610
21
52.185080
31
0.0
0
LINE
8
0
6
CONTINUOUS
10
18.345220
20
47.893560
30
0.0
11
18.630770
21
50.015920
31
0.0
0
LINE
8
0
6
CONTINUOUS
10
18.063520
20
45.799760
30
0.0
11
18.345220
21
47.893560
31
0.0
0
LINE
8
0
6
CONTINUOUS
10
17.806470
20
43.889210
30
0.0
11
18.063520
21
45.799760
31
0.0
0
LINE
8
0
6
CONTINUOUS
10
16.327690
20
12.704840
30
0.0
11
16.094360
21
4.922490
31
0.0
0
LINE
8
0
6
CONTINUOUS
10
16.133860
20
4.842540
30
0.0
11
16.397000
21
12.737750
31
0.0
0
LINE
8
0
6
CONTINUOUS
10
16.094360
20
4.922490
30
0.0
11
15.861030
21
-2.859830
31
0.0
0
LINE
8
0
6
CONTINUOUS
10
15.870720
20
-3.052680
30
0.0
11
16.133860
21
4.842540
31
0.0
0
LINE
8
0
6
CONTINUOUS
10
11.460770
20
54.367890
30
0.0
11
14.813830
21
49.720350
31
0.0
0
LINE
8
0
6
CONTINUOUS
10
18.922610
20
52.185080
30
0.0
11
19.216560
21
54.369940
31
0.0
0
LINE
8
0
6
CONTINUOUS
10
14.812600
20
-34.807930
30
0.0
11
15.861030
21
-2.859830
31
0.0
0
LINE
8
0
6
CONTINUOUS
10
16.909420
20
74.083240
30
0.0
11
14.391204
21
77.477364
31
0.0
0
LINE
8
0
6
CONTINUOUS
10
20.221100
20
61.836340
30
0.0
11
19.278750
21
68.152760
31
0.0
0
LINE
8
0
6
CONTINUOUS
10
19.278750
20
68.152760
30
0.0
11
16.909420
21
74.083240
31
0.0
0
LINE
8
0
6
CONTINUOUS
10
-10.485700
20
85.607580
30
0.0
11
-16.372500
21
83.130930
31
0.0
0
LINE
8
0
6
CONTINUOUS
10
-28.517350
20
61.724350
30
0.0
11
-27.527880
21
54.369940
31
0.0
0
LINE
8
0
6
CONTINUOUS
10
-16.372500
20
83.130930
30
0.0
11
-21.415450
21
79.212120
31
0.0
0
LINE
8
0
6
CONTINUOUS
10
-4.155660
20
86.455850
30
0.0
11
-10.485700
21
85.607580
31
0.0
0
LINE
8
0
6
CONTINUOUS
10
-24.971460
20
20.632970
30
0.0
11
-24.708320
21
12.737750
31
0.0
0
LINE
8
0
6
CONTINUOUS
10
-24.872340
20
20.487160
30
0.0
11
-24.639010
21
12.704840
31
0.0
0
LINE
8
0
6
CONTINUOUS
10
-19.065160
20
-46.658680
30
0.0
11
-16.111600
21
-49.740160
31
0.0
0
LINE
8
0
6
CONTINUOUS
10
-16.111600
20
-49.740160
30
0.0
11
-12.511620
21
-52.062620
31
0.0
0
LINE
8
0
6
CONTINUOUS
10
-21.193550
20
-42.989060
30
0.0
11
-19.065160
21
-46.658680
31
0.0
0
LINE
8
0
6
CONTINUOUS
10
-12.511620
20
-52.062620
30
0.0
11
-10.164362
21
-52.920729
31
0.0
0
LINE
8
0
6
CONTINUOUS
10
-23.123920
20
-34.807930
30
0.0
11
-22.518740
21
-38.979180
31
0.0
0
LINE
8
0
6
CONTINUOUS
10
-22.518740
20
-38.979180
30
0.0
11
-21.193550
21
-42.989060
31
0.0
0
LINE
8
0
6
CONTINUOUS
10
-15.236010
20
57.924110
30
0.0
11
-9.925120
21
60.207130
31
0.0
0
LINE
8
0
6
CONTINUOUS
10
-25.061980
20
44.338440
30
0.0
11
-23.125150
21
49.720350
31
0.0
0
LINE
8
0
6
CONTINUOUS
10
-9.925120
20
60.207130
30
0.0
11
-4.155660
21
61.181190
31
0.0
0
LINE
8
0
6
CONTINUOUS
10
-19.772090
20
54.367890
30
0.0
11
-15.236010
21
57.924110
31
0.0
0
LINE
8
0
6
CONTINUOUS
10
-25.152344
20
24.339635
30
0.0
11
-24.994680
21
21.021020
31
0.0
0
LINE
8
0
6
CONTINUOUS
10
-24.872340
20
20.487160
30
0.0
11
-24.960217
21
23.418264
31
0.0
0
LINE
8
0
6
CONTINUOUS
10
-27.233930
20
52.185080
30
0.0
11
-26.942090
21
50.015920
31
0.0
0
LINE
8
0
6
CONTINUOUS
10
-26.942090
20
50.015920
30
0.0
11
-26.656540
21
47.893560
31
0.0
0
LINE
8
0
6
CONTINUOUS
10
-26.656540
20
47.893560
30
0.0
11
-26.374840
21
45.799760
31
0.0
0
LINE
8
0
6
CONTINUOUS
10
-26.374840
20
45.799760
30
0.0
11
-26.117790
21
43.889210
31
0.0
0
LINE
8
0
6
CONTINUOUS
10
-24.708320
20
12.737750
30
0.0
11
-24.445180
21
4.842540
31
0.0
0
LINE
8
0
6
CONTINUOUS
10
-24.405680
20
4.922490
30
0.0
11
-24.639010
21
12.704840
31
0.0
0
LINE
8
0
6
CONTINUOUS
10
-24.445180
20
4.842540
30
0.0
11
-24.182040
21
-3.052680
31
0.0
0
LINE
8
0
6
CONTINUOUS
10
-24.172350
20
-2.859830
30
0.0
11
-24.405680
21
4.922490
31
0.0
0
LINE
8
0
6
CONTINUOUS
10
-23.125150
20
49.720350
30
0.0
11
-19.772090
21
54.367890
31
0.0
0
LINE
8
0
6
CONTINUOUS
10
-27.527880
20
54.369940
30
0.0
11
-27.233930
21
52.185080
31
0.0
0
LINE
8
0
6
CONTINUOUS
10
-24.172350
20
-2.859830
30
0.0
11
-23.123920
21
-34.807930
31
0.0
0
LINE
8
0
6
CONTINUOUS
10
-21.415450
20
79.212120
30
0.0
11
-25.220740
21
74.083240
31
0.0
0
LINE
8
0
6
CONTINUOUS
10
-27.590070
20
68.152760
30
0.0
11
-28.532420
21
61.836340
31
0.0
0
LINE
8
0
6
CONTINUOUS
10
-25.220740
20
74.083240
30
0.0
11
-27.590070
21
68.152760
31
0.0
0
LINE
8
0
6
CONTINUOUS
10
11.577030
20
75.014282
30
0.0
11
10.784217
21
75.292304
31
0.0
0
LINE
8
0
6
CONTINUOUS
10
9.912846
20
75.887153
30
0.0
11
9.196406
21
76.639440
31
0.0
0
LINE
8
0
6
CONTINUOUS
10
9.912846
20
75.887153
30
0.0
11
10.784217
21
75.292304
31
0.0
0
ENDSEC
0
EOF
