999
Erzeugt mit innoplus bad 
0
SECTION
2
HEADER
9
$ACADVER
1
AC1009
9
$DWGCODEPAGE
3
ISO8859-1
0
ENDSEC
0
SECTION
2
TABLES
0
TABLE
2
LAYER
70
1
0
LAYER
2
0
70
0
62
7
6
CONTINUOUS
0
ENDTAB
0
ENDSEC
0
SECTION
2
ENTITIES
0
LINE
8
0
6
CONTINUOUS
10
39.118210
20
20.916025
30
0.0
11
39.285390
21
21.007475
31
0.0
0
LINE
8
0
6
CONTINUOUS
10
28.714050
20
18.502715
30
0.0
11
39.118210
21
20.916025
31
0.0
0
LINE
8
0
6
CONTINUOUS
10
12.764250
20
53.699115
30
0.0
11
12.845220
21
53.697175
31
0.0
0
LINE
8
0
6
CONTINUOUS
10
-36.831160
20
54.881685
30
0.0
11
-36.907400
21
54.883505
31
0.0
0
LINE
8
0
6
CONTINUOUS
10
37.459610
20
53.110265
30
0.0
11
37.505200
21
53.109175
31
0.0
0
LINE
8
0
6
CONTINUOUS
10
25.747760
20
53.389525
30
0.0
11
25.707270
21
53.390495
31
0.0
0
LINE
8
0
6
CONTINUOUS
10
-91.922150
20
58.020375
30
0.0
11
-89.750840
21
57.322885
31
0.0
0
LINE
8
0
6
CONTINUOUS
10
-94.596650
20
58.847605
30
0.0
11
-90.092980
21
56.523565
31
0.0
0
LINE
8
0
6
CONTINUOUS
10
55.799770
20
47.195695
30
0.0
11
55.188690
21
49.773585
31
0.0
0
LINE
8
0
6
CONTINUOUS
10
-94.471830
20
59.575335
30
0.0
11
-94.760440
21
58.932135
31
0.0
0
LINE
8
0
6
CONTINUOUS
10
17.679160
20
16.682475
30
0.0
11
17.848700
21
15.956905
31
0.0
0
LINE
8
0
6
CONTINUOUS
10
17.848700
20
15.956905
30
0.0
11
18.537330
21
16.119175
31
0.0
0
LINE
8
0
6
CONTINUOUS
10
58.967880
20
33.637005
30
0.0
11
58.798350
21
34.362575
31
0.0
0
LINE
8
0
6
CONTINUOUS
10
58.197370
20
33.143165
30
0.0
11
58.967880
21
33.637005
31
0.0
0
LINE
8
0
6
CONTINUOUS
10
33.517350
20
19.619375
30
0.0
11
39.111330
21
20.927215
31
0.0
0
LINE
8
0
6
CONTINUOUS
10
52.971410
20
29.793695
30
0.0
11
56.124310
21
31.814485
31
0.0
0
LINE
8
0
6
CONTINUOUS
10
56.124310
20
31.814485
30
0.0
11
58.197370
21
33.143165
31
0.0
0
LINE
8
0
6
CONTINUOUS
10
24.003000
20
17.400525
30
0.0
11
28.398560
21
18.421615
31
0.0
0
LINE
8
0
6
CONTINUOUS
10
20.640540
20
16.614445
30
0.0
11
24.003000
21
17.400525
31
0.0
0
LINE
8
0
6
CONTINUOUS
10
18.537330
20
16.119175
30
0.0
11
20.640540
21
16.614445
31
0.0
0
LINE
8
0
6
CONTINUOUS
10
28.398560
20
18.421615
30
0.0
11
33.517350
21
19.619375
31
0.0
0
LINE
8
0
6
CONTINUOUS
10
48.886950
20
27.175835
30
0.0
11
52.971410
21
29.793695
31
0.0
0
LINE
8
0
6
CONTINUOUS
10
44.153030
20
24.141715
30
0.0
11
48.886950
21
27.175835
31
0.0
0
LINE
8
0
6
CONTINUOUS
10
39.111330
20
20.927215
30
0.0
11
44.153030
21
24.141715
31
0.0
0
LINE
8
0
6
CONTINUOUS
10
55.188690
20
49.773585
30
0.0
11
54.577600
21
52.351495
31
0.0
0
LINE
8
0
6
CONTINUOUS
10
-13.023490
20
54.314005
30
0.0
11
-25.917000
21
54.621435
31
0.0
0
LINE
8
0
6
CONTINUOUS
10
-84.895190
20
73.683105
30
0.0
11
-85.425160
21
73.899585
31
0.0
0
LINE
8
0
6
CONTINUOUS
10
-87.919060
20
74.178725
30
0.0
11
-94.471830
21
59.575335
31
0.0
0
LINE
8
0
6
CONTINUOUS
10
-36.907400
20
54.883505
30
0.0
11
-38.846890
21
54.929755
31
0.0
0
LINE
8
0
6
CONTINUOUS
10
-84.895190
20
73.683105
30
0.0
11
-82.775320
21
72.817095
31
0.0
0
LINE
8
0
6
CONTINUOUS
10
-25.917000
20
54.621435
30
0.0
11
-25.838450
21
54.619565
31
0.0
0
LINE
8
0
6
CONTINUOUS
10
-36.907400
20
54.883505
30
0.0
11
-25.917000
21
54.621435
31
0.0
0
LINE
8
0
6
CONTINUOUS
10
-36.831160
20
54.881685
30
0.0
11
-36.907400
21
54.883505
31
0.0
0
LINE
8
0
6
CONTINUOUS
10
-61.468380
20
64.113085
30
0.0
11
-40.682550
21
55.621955
31
0.0
0
LINE
8
0
6
CONTINUOUS
10
-63.436050
20
64.916895
30
0.0
11
-61.468380
21
64.113085
31
0.0
0
LINE
8
0
6
CONTINUOUS
10
-13.023490
20
54.314005
30
0.0
11
-0.129500
21
54.006545
31
0.0
0
LINE
8
0
6
CONTINUOUS
10
-12.942670
20
54.312075
30
0.0
11
-13.023490
21
54.314005
31
0.0
0
LINE
8
0
6
CONTINUOUS
10
-0.129500
20
54.006545
30
0.0
11
12.764250
21
53.699115
31
0.0
0
LINE
8
0
6
CONTINUOUS
10
12.764250
20
53.699115
30
0.0
11
25.655790
21
53.391715
31
0.0
0
LINE
8
0
6
CONTINUOUS
10
-82.775320
20
72.817095
30
0.0
11
-63.436050
21
64.916895
31
0.0
0
LINE
8
0
6
CONTINUOUS
10
-38.766460
20
54.927835
30
0.0
11
-40.682550
21
55.621955
31
0.0
0
LINE
8
0
6
CONTINUOUS
10
-38.846890
20
54.929755
30
0.0
11
-38.766460
21
54.927835
31
0.0
0
LINE
8
0
6
CONTINUOUS
10
-40.682550
20
55.621955
30
0.0
11
-38.846890
21
54.929755
31
0.0
0
LINE
8
0
6
CONTINUOUS
10
-94.439510
20
58.829035
30
0.0
11
-94.714700
21
58.917435
31
0.0
0
LINE
8
0
6
CONTINUOUS
10
-93.923380
20
58.663235
30
0.0
11
-94.439510
21
58.829035
31
0.0
0
LINE
8
0
6
CONTINUOUS
10
-93.238310
20
58.443175
30
0.0
11
-93.923380
21
58.663235
31
0.0
0
LINE
8
0
6
CONTINUOUS
10
-92.464970
20
58.194745
30
0.0
11
-93.238310
21
58.443175
31
0.0
0
LINE
8
0
6
CONTINUOUS
10
-86.370640
20
74.285835
30
0.0
11
-87.269470
21
74.653005
31
0.0
0
LINE
8
0
6
CONTINUOUS
10
-85.425160
20
73.899585
30
0.0
11
-86.170760
21
74.204165
31
0.0
0
LINE
8
0
6
CONTINUOUS
10
-86.170760
20
74.204165
30
0.0
11
-86.833740
21
74.475005
31
0.0
0
LINE
8
0
6
CONTINUOUS
10
-86.833740
20
74.475005
30
0.0
11
-87.332110
21
74.678585
31
0.0
0
LINE
8
0
6
CONTINUOUS
10
-87.332110
20
74.678585
30
0.0
11
-87.595210
21
74.786075
31
0.0
0
LINE
8
0
6
CONTINUOUS
10
-36.404000
20
46.414695
30
0.0
11
-28.253710
21
45.803285
31
0.0
0
LINE
8
0
6
CONTINUOUS
10
-36.921070
20
54.883825
30
0.0
11
-36.831160
21
54.881685
31
0.0
0
LINE
8
0
6
CONTINUOUS
10
-24.675540
20
49.316435
30
0.0
11
-35.664570
21
49.700855
31
0.0
0
LINE
8
0
6
CONTINUOUS
10
-67.742370
20
48.747625
30
0.0
11
-40.234490
21
46.697365
31
0.0
0
LINE
8
0
6
CONTINUOUS
10
-90.092980
20
56.523565
30
0.0
11
-70.335950
21
49.020135
31
0.0
0
LINE
8
0
6
CONTINUOUS
10
10.161150
20
40.304725
30
0.0
11
11.908310
21
37.424025
31
0.0
0
LINE
8
0
6
CONTINUOUS
10
56.403720
20
44.610955
30
0.0
11
56.101750
21
45.903335
31
0.0
0
LINE
8
0
6
CONTINUOUS
10
56.705690
20
43.318595
30
0.0
11
56.403720
21
44.610955
31
0.0
0
LINE
8
0
6
CONTINUOUS
10
-28.253710
20
45.803285
30
0.0
11
-18.664200
21
45.097075
31
0.0
0
LINE
8
0
6
CONTINUOUS
10
-18.664200
20
45.097075
30
0.0
11
-9.074670
21
44.390855
31
0.0
0
LINE
8
0
6
CONTINUOUS
10
7.592170
20
42.213165
30
0.0
11
10.161150
21
40.304725
31
0.0
0
LINE
8
0
6
CONTINUOUS
10
56.101750
20
45.903335
30
0.0
11
55.799770
21
47.195695
31
0.0
0
LINE
8
0
6
CONTINUOUS
10
-37.842290
20
46.522605
30
0.0
11
-36.404000
21
46.414695
31
0.0
0
LINE
8
0
6
CONTINUOUS
10
54.436580
20
52.705465
30
0.0
11
53.549100
21
52.726625
31
0.0
0
LINE
8
0
6
CONTINUOUS
10
54.577600
20
52.351495
30
0.0
11
54.436580
21
52.705465
31
0.0
0
LINE
8
0
6
CONTINUOUS
10
-40.234490
20
46.697365
30
0.0
11
-37.842290
21
46.522605
31
0.0
0
LINE
8
0
6
CONTINUOUS
10
11.908310
20
37.424025
30
0.0
11
13.470050
21
34.696365
31
0.0
0
LINE
8
0
6
CONTINUOUS
10
-9.074670
20
44.390855
30
0.0
11
0.464450
21
43.680095
31
0.0
0
LINE
8
0
6
CONTINUOUS
10
-70.335950
20
49.020135
30
0.0
11
-67.742370
21
48.747625
31
0.0
0
LINE
8
0
6
CONTINUOUS
10
13.470050
20
34.696365
30
0.0
11
17.679160
21
16.682475
31
0.0
0
LINE
8
0
6
CONTINUOUS
10
58.798350
20
34.362575
30
0.0
11
56.705690
21
43.318595
31
0.0
0
LINE
8
0
6
CONTINUOUS
10
25.747750
20
53.389535
30
0.0
11
25.707270
21
53.390495
31
0.0
0
LINE
8
0
6
CONTINUOUS
10
-37.603810
20
49.768685
30
0.0
11
-39.970910
21
49.799105
31
0.0
0
LINE
8
0
6
CONTINUOUS
10
-39.970910
20
49.799105
30
0.0
11
-67.542050
21
50.107855
31
0.0
0
LINE
8
0
6
CONTINUOUS
10
-70.154350
20
50.106985
30
0.0
11
-89.750840
21
57.322885
31
0.0
0
LINE
8
0
6
CONTINUOUS
10
-11.747760
20
48.865275
30
0.0
11
-24.675540
21
49.316435
31
0.0
0
LINE
8
0
6
CONTINUOUS
10
1.180550
20
48.414655
30
0.0
11
-11.747760
21
48.865275
31
0.0
0
LINE
8
0
6
CONTINUOUS
10
14.112050
20
48.016785
30
0.0
11
1.180550
21
48.414655
31
0.0
0
LINE
8
0
6
CONTINUOUS
10
0.464450
20
43.680095
30
0.0
11
7.592170
21
42.213165
31
0.0
0
LINE
8
0
6
CONTINUOUS
10
-92.464970
20
58.194745
30
0.0
11
-91.922150
21
58.020375
31
0.0
0
LINE
8
0
6
CONTINUOUS
10
-63.443970
20
64.920135
30
0.0
11
-63.403700
21
64.903675
31
0.0
0
LINE
8
0
6
CONTINUOUS
10
-94.760440
20
58.932135
30
0.0
11
-94.596650
21
58.847605
31
0.0
0
LINE
8
0
6
CONTINUOUS
10
-94.714700
20
58.917435
30
0.0
11
-94.760440
21
58.932135
31
0.0
0
LINE
8
0
6
CONTINUOUS
10
-87.638220
20
74.803635
30
0.0
11
-87.919060
21
74.178725
31
0.0
0
LINE
8
0
6
CONTINUOUS
10
-87.595210
20
74.786075
30
0.0
11
-87.638220
21
74.803635
31
0.0
0
LINE
8
0
6
CONTINUOUS
10
-67.542050
20
50.107855
30
0.0
11
-70.154350
21
50.106985
31
0.0
0
LINE
8
0
6
CONTINUOUS
10
31.505830
20
53.252235
30
0.0
11
25.655790
21
53.391715
31
0.0
0
LINE
8
0
6
CONTINUOUS
10
51.161090
20
52.783555
30
0.0
11
47.529120
21
52.870155
31
0.0
0
LINE
8
0
6
CONTINUOUS
10
53.549100
20
52.726625
30
0.0
11
51.161090
21
52.783555
31
0.0
0
LINE
8
0
6
CONTINUOUS
10
-35.664570
20
49.700855
30
0.0
11
-37.603810
21
49.768685
31
0.0
0
LINE
8
0
6
CONTINUOUS
10
47.529120
20
52.870155
30
0.0
11
42.824000
21
52.982345
31
0.0
0
LINE
8
0
6
CONTINUOUS
10
42.824000
20
52.982345
30
0.0
11
37.370680
21
53.112385
31
0.0
0
LINE
8
0
6
CONTINUOUS
10
37.370680
20
53.112385
30
0.0
11
31.505830
21
53.252235
31
0.0
0
LINE
8
0
6
CONTINUOUS
10
85.606960
20
-30.276055
30
0.0
11
86.424160
21
-28.569495
31
0.0
0
LINE
8
0
6
CONTINUOUS
10
93.568410
20
-27.618495
30
0.0
11
91.318060
21
-27.706025
31
0.0
0
LINE
8
0
6
CONTINUOUS
10
88.792350
20
-27.827185
30
0.0
11
93.294720
21
-27.970435
31
0.0
0
LINE
8
0
6
CONTINUOUS
10
93.294720
20
-27.970435
30
0.0
11
91.318060
21
-27.706025
31
0.0
0
LINE
8
0
6
CONTINUOUS
10
92.814420
20
-25.675265
30
0.0
11
89.028850
21
-25.132315
31
0.0
0
LINE
8
0
6
CONTINUOUS
10
85.846770
20
-27.430545
30
0.0
11
84.590940
21
-28.125345
31
0.0
0
LINE
8
0
6
CONTINUOUS
10
84.097320
20
-30.276055
30
0.0
11
84.070360
21
-28.569495
31
0.0
0
LINE
8
0
6
CONTINUOUS
10
84.097320
20
-30.276055
30
0.0
11
83.311160
21
-27.819075
31
0.0
0
LINE
8
0
6
CONTINUOUS
10
83.311160
20
-27.819075
30
0.0
11
83.143100
21
-29.870635
31
0.0
0
LINE
8
0
6
CONTINUOUS
10
87.300420
20
-25.004915
30
0.0
11
85.172490
21
-25.359095
31
0.0
0
LINE
8
0
6
CONTINUOUS
10
83.143100
20
-29.870635
30
0.0
11
82.888920
21
-30.634515
31
0.0
0
LINE
8
0
6
CONTINUOUS
10
84.590940
20
-28.125345
30
0.0
11
84.070360
21
-28.569495
31
0.0
0
LINE
8
0
6
CONTINUOUS
10
85.575660
20
-26.622975
30
0.0
11
87.377700
21
-27.108605
31
0.0
0
LINE
8
0
6
CONTINUOUS
10
87.377700
20
-27.108605
30
0.0
11
91.043270
21
-27.618495
31
0.0
0
LINE
8
0
6
CONTINUOUS
10
85.976030
20
-25.247835
30
0.0
11
84.201600
21
-25.462065
31
0.0
0
LINE
8
0
6
CONTINUOUS
10
84.201600
20
-25.462065
30
0.0
11
82.617420
21
-26.839195
31
0.0
0
LINE
8
0
6
CONTINUOUS
10
82.617420
20
-26.839195
30
0.0
11
81.784640
21
-28.723605
31
0.0
0
LINE
8
0
6
CONTINUOUS
10
81.784640
20
-28.723605
30
0.0
11
81.521490
21
-29.666635
31
0.0
0
LINE
8
0
6
CONTINUOUS
10
85.671070
20
-25.509215
30
0.0
11
87.248940
21
-25.601445
31
0.0
0
LINE
8
0
6
CONTINUOUS
10
92.394480
20
-27.618495
30
0.0
11
93.568410
21
-27.618495
31
0.0
0
LINE
8
0
6
CONTINUOUS
10
91.043270
20
-27.618495
30
0.0
11
91.771460
21
-27.618495
31
0.0
0
LINE
8
0
6
CONTINUOUS
10
90.994840
20
-26.602945
30
0.0
11
91.043270
21
-27.618495
31
0.0
0
LINE
8
0
6
CONTINUOUS
10
91.047550
20
-26.166285
30
0.0
11
90.994840
21
-26.602945
31
0.0
0
LINE
8
0
6
CONTINUOUS
10
91.047550
20
-26.166285
30
0.0
11
91.889890
21
-26.166285
31
0.0
0
LINE
8
0
6
CONTINUOUS
10
93.603430
20
-25.675265
30
0.0
11
92.814420
21
-25.675265
31
0.0
0
LINE
8
0
6
CONTINUOUS
10
93.603430
20
-25.675265
30
0.0
11
92.146900
21
-26.038195
31
0.0
0
LINE
8
0
6
CONTINUOUS
10
91.771460
20
-27.618495
30
0.0
11
92.394480
21
-27.618495
31
0.0
0
LINE
8
0
6
CONTINUOUS
10
87.223760
20
-27.877475
30
0.0
11
88.792350
21
-27.827185
31
0.0
0
LINE
8
0
6
CONTINUOUS
10
87.849150
20
-27.658095
30
0.0
11
85.846770
21
-27.430545
31
0.0
0
LINE
8
0
6
CONTINUOUS
10
92.146900
20
-26.038195
30
0.0
11
91.889890
21
-26.166285
31
0.0
0
LINE
8
0
6
CONTINUOUS
10
89.028850
20
-25.132315
30
0.0
11
87.300420
21
-25.004915
31
0.0
0
LINE
8
0
6
CONTINUOUS
10
85.976030
20
-25.247835
30
0.0
11
87.369900
21
-25.404005
31
0.0
0
LINE
8
0
6
CONTINUOUS
10
91.233330
20
-26.038195
30
0.0
11
87.369900
21
-25.404005
31
0.0
0
LINE
8
0
6
CONTINUOUS
10
87.248940
20
-25.601445
30
0.0
11
91.047550
21
-26.166285
31
0.0
0
LINE
8
0
6
CONTINUOUS
10
93.294720
20
-27.970435
30
0.0
11
94.317730
21
-27.706025
31
0.0
0
LINE
8
0
6
CONTINUOUS
10
93.568410
20
-27.618495
30
0.0
11
94.317730
21
-27.706025
31
0.0
0
LINE
8
0
6
CONTINUOUS
10
85.387860
20
-30.893865
30
0.0
11
85.606960
21
-30.276055
31
0.0
0
LINE
8
0
6
CONTINUOUS
10
87.223760
20
-27.877475
30
0.0
11
85.991410
21
-28.632475
31
0.0
0
LINE
8
0
6
CONTINUOUS
10
85.991410
20
-28.632475
30
0.0
11
85.704170
21
-28.989575
31
0.0
0
LINE
8
0
6
CONTINUOUS
10
86.424160
20
-28.569495
30
0.0
11
86.878280
21
-28.125345
31
0.0
0
LINE
8
0
6
CONTINUOUS
10
93.568410
20
-27.618495
30
0.0
11
94.461200
21
-27.618495
31
0.0
0
LINE
8
0
6
CONTINUOUS
10
94.317730
20
-27.706025
30
0.0
11
94.502530
21
-27.618495
31
0.0
0
LINE
8
0
6
CONTINUOUS
10
94.594370
20
-26.038195
30
0.0
11
93.603430
21
-25.675265
31
0.0
0
LINE
8
0
6
CONTINUOUS
10
94.617400
20
-27.618495
30
0.0
11
94.760440
21
-26.602945
31
0.0
0
LINE
8
0
6
CONTINUOUS
10
94.461200
20
-27.618495
30
0.0
11
94.617400
21
-27.618495
31
0.0
0
LINE
8
0
6
CONTINUOUS
10
94.760440
20
-26.602945
30
0.0
11
94.709800
21
-26.166285
31
0.0
0
LINE
8
0
6
CONTINUOUS
10
94.709800
20
-26.166285
30
0.0
11
94.594370
21
-26.038195
31
0.0
0
LINE
8
0
6
CONTINUOUS
10
77.657122
20
-60.774692
30
0.0
11
85.387860
21
-30.893865
31
0.0
0
LINE
8
0
6
CONTINUOUS
10
81.521490
20
-29.666635
30
0.0
11
75.292304
21
-53.743641
31
0.0
0
LINE
8
0
6
CONTINUOUS
10
56.610620
20
29.471695
30
0.0
11
55.245191
21
31.228348
31
0.0
0
LINE
8
0
6
CONTINUOUS
10
19.892990
20
15.852345
30
0.0
11
20.221129
21
13.539465
31
0.0
0
LINE
8
0
6
CONTINUOUS
10
59.803990
20
22.383355
30
0.0
11
59.004940
21
24.862795
31
0.0
0
LINE
8
0
6
CONTINUOUS
10
19.866305
20
16.443012
30
0.0
11
19.892990
21
15.852345
31
0.0
0
LINE
8
0
6
CONTINUOUS
10
57.973760
20
27.251785
30
0.0
11
56.610620
21
29.471695
31
0.0
0
LINE
8
0
6
CONTINUOUS
10
59.004940
20
24.862795
30
0.0
11
57.973760
21
27.251785
31
0.0
0
LINE
8
0
6
CONTINUOUS
10
83.130930
20
-74.803625
30
0.0
11
85.607580
21
-74.803625
31
0.0
0
LINE
8
0
6
CONTINUOUS
10
79.212120
20
-74.803635
30
0.0
11
83.130930
21
-74.803625
31
0.0
0
LINE
8
0
6
CONTINUOUS
10
86.455850
20
-74.803595
30
0.0
11
86.319240
21
-74.274775
31
0.0
0
LINE
8
0
6
CONTINUOUS
10
85.607580
20
-74.803625
30
0.0
11
86.455850
21
-74.803595
31
0.0
0
LINE
8
0
6
CONTINUOUS
10
49.606420
20
-74.803615
30
0.0
11
55.528060
21
-74.803595
31
0.0
0
LINE
8
0
6
CONTINUOUS
10
44.476710
20
-74.803635
30
0.0
11
49.606420
21
-74.803615
31
0.0
0
LINE
8
0
6
CONTINUOUS
10
38.067730
20
-74.803625
30
0.0
11
40.550230
21
-74.803625
31
0.0
0
LINE
8
0
6
CONTINUOUS
10
37.216840
20
-74.803595
30
0.0
11
38.067730
21
-74.803625
31
0.0
0
LINE
8
0
6
CONTINUOUS
10
37.141710
20
-74.434705
30
0.0
11
37.216840
21
-74.803595
31
0.0
0
LINE
8
0
6
CONTINUOUS
10
40.550230
20
-74.803625
30
0.0
11
44.476710
21
-74.803635
31
0.0
0
LINE
8
0
6
CONTINUOUS
10
55.528060
20
-74.803595
30
0.0
11
61.836340
21
-74.803595
31
0.0
0
LINE
8
0
6
CONTINUOUS
10
12.704840
20
11.806635
30
0.0
11
20.487160
21
13.600795
31
0.0
0
LINE
8
0
6
CONTINUOUS
10
28.269500
20
15.394925
30
0.0
11
33.478790
21
16.595885
31
0.0
0
LINE
8
0
6
CONTINUOUS
10
60.207130
20
22.757845
30
0.0
11
57.924110
21
22.231535
31
0.0
0
LINE
8
0
6
CONTINUOUS
10
49.720350
20
20.340225
30
0.0
11
44.338440
21
19.099475
31
0.0
0
LINE
8
0
6
CONTINUOUS
10
61.495110
20
21.762765
30
0.0
11
61.181190
21
22.982415
31
0.0
0
LINE
8
0
6
CONTINUOUS
10
61.181190
20
22.982415
30
0.0
11
60.207130
21
22.757845
31
0.0
0
LINE
8
0
6
CONTINUOUS
10
57.924110
20
22.231535
30
0.0
11
54.367890
21
21.411675
31
0.0
0
LINE
8
0
6
CONTINUOUS
10
-54.037420
20
-3.580165
30
0.0
11
-53.702220
21
-4.250205
31
0.0
0
LINE
8
0
6
CONTINUOUS
10
-53.543600
20
-3.466315
30
0.0
11
-54.037420
21
-3.580165
31
0.0
0
LINE
8
0
6
CONTINUOUS
10
-2.859830
20
8.218355
30
0.0
11
-34.807930
21
0.853015
31
0.0
0
LINE
8
0
6
CONTINUOUS
10
8.679580
20
-16.769965
30
0.0
11
17.333180
21
-20.144765
31
0.0
0
LINE
8
0
6
CONTINUOUS
10
-24.648660
20
-18.755485
30
0.0
11
-9.812410
21
-17.511965
31
0.0
0
LINE
8
0
6
CONTINUOUS
10
-50.391980
20
-10.992915
30
0.0
11
-48.461356
21
-12.311957
31
0.0
0
LINE
8
0
6
CONTINUOUS
10
-24.965249
20
-18.615410
30
0.0
11
-24.648660
21
-18.755485
31
0.0
0
LINE
8
0
6
CONTINUOUS
10
-51.726320
20
-9.068455
30
0.0
11
-50.391980
21
-10.992915
31
0.0
0
LINE
8
0
6
CONTINUOUS
10
-34.807930
20
0.853015
30
0.0
11
-38.979180
21
-0.108625
31
0.0
0
LINE
8
0
6
CONTINUOUS
10
-38.979180
20
-0.108625
30
0.0
11
-42.989060
21
-1.033065
31
0.0
0
LINE
8
0
6
CONTINUOUS
10
-42.989060
20
-1.033065
30
0.0
11
-46.658680
21
-1.879065
31
0.0
0
LINE
8
0
6
CONTINUOUS
10
-46.658680
20
-1.879065
30
0.0
11
-49.740160
21
-2.589465
31
0.0
0
LINE
8
0
6
CONTINUOUS
10
-49.740160
20
-2.589465
30
0.0
11
-52.062620
21
-3.124895
31
0.0
0
LINE
8
0
6
CONTINUOUS
10
-52.062620
20
-3.124895
30
0.0
11
-53.543600
21
-3.466315
31
0.0
0
LINE
8
0
6
CONTINUOUS
10
-53.702220
20
-4.250205
30
0.0
11
-52.849730
21
-6.732015
31
0.0
0
LINE
8
0
6
CONTINUOUS
10
28.269500
20
15.394925
30
0.0
11
20.487160
21
13.600795
31
0.0
0
LINE
8
0
6
CONTINUOUS
10
-52.849730
20
-6.732015
30
0.0
11
-51.726320
21
-9.068455
31
0.0
0
LINE
8
0
6
CONTINUOUS
10
-0.568640
20
-16.751735
30
0.0
11
8.679580
21
-16.769965
31
0.0
0
LINE
8
0
6
CONTINUOUS
10
75.085750
20
-30.801315
30
0.0
11
72.822580
21
-22.053865
31
0.0
0
LINE
8
0
6
CONTINUOUS
10
72.822580
20
-22.053865
30
0.0
11
70.559420
21
-13.306395
31
0.0
0
LINE
8
0
6
CONTINUOUS
10
70.559420
20
-13.306395
30
0.0
11
68.296250
21
-4.558945
31
0.0
0
LINE
8
0
6
CONTINUOUS
10
68.296250
20
-4.558945
30
0.0
11
66.514340
21
2.328405
31
0.0
0
LINE
8
0
6
CONTINUOUS
10
66.514340
20
2.328405
30
0.0
11
64.732420
21
9.215785
31
0.0
0
LINE
8
0
6
CONTINUOUS
10
17.333180
20
-20.144765
30
0.0
11
24.792910
21
-25.619155
31
0.0
0
LINE
8
0
6
CONTINUOUS
10
24.792910
20
-25.619155
30
0.0
11
28.334840
21
-34.213775
31
0.0
0
LINE
8
0
6
CONTINUOUS
10
28.334840
20
-34.213775
30
0.0
11
30.460260
21
-42.015365
31
0.0
0
LINE
8
0
6
CONTINUOUS
10
30.460260
20
-42.015365
30
0.0
11
32.208300
21
-50.210945
31
0.0
0
LINE
8
0
6
CONTINUOUS
10
12.704840
20
11.806635
30
0.0
11
4.922490
21
10.012505
31
0.0
0
LINE
8
0
6
CONTINUOUS
10
4.922490
20
10.012505
30
0.0
11
-2.859830
21
8.218355
31
0.0
0
LINE
8
0
6
CONTINUOUS
10
38.688070
20
17.796835
30
0.0
11
33.478790
21
16.595885
31
0.0
0
LINE
8
0
6
CONTINUOUS
10
64.732420
20
9.215785
30
0.0
11
62.950500
21
16.103125
31
0.0
0
LINE
8
0
6
CONTINUOUS
10
44.338440
20
19.099475
30
0.0
11
38.688070
21
17.796835
31
0.0
0
LINE
8
0
6
CONTINUOUS
10
62.950500
20
16.103125
30
0.0
11
61.495110
21
21.762765
31
0.0
0
LINE
8
0
6
CONTINUOUS
10
54.367890
20
21.411675
30
0.0
11
49.720350
21
20.340225
31
0.0
0
LINE
8
0
6
CONTINUOUS
10
-9.812410
20
-17.511965
30
0.0
11
-0.568640
21
-16.751735
31
0.0
0
LINE
8
0
6
CONTINUOUS
10
32.208300
20
-50.210945
30
0.0
11
37.141710
21
-74.434705
31
0.0
0
LINE
8
0
6
CONTINUOUS
10
86.319240
20
-74.274775
30
0.0
11
80.246541
21
-50.766076
31
0.0
0
LINE
8
0
6
CONTINUOUS
10
78.156226
20
-42.674029
30
0.0
11
77.348920
21
-39.548775
31
0.0
0
LINE
8
0
6
CONTINUOUS
10
77.348920
20
-39.548775
30
0.0
11
75.085750
21
-30.801315
31
0.0
0
LINE
8
0
6
CONTINUOUS
10
74.083240
20
-74.803615
30
0.0
11
79.212120
21
-74.803635
31
0.0
0
LINE
8
0
6
CONTINUOUS
10
61.836340
20
-74.803595
30
0.0
11
68.152760
21
-74.803595
31
0.0
0
LINE
8
0
6
CONTINUOUS
10
68.152760
20
-74.803595
30
0.0
11
74.083240
21
-74.803615
31
0.0
0
LINE
8
0
6
CONTINUOUS
10
-48.340750
20
-14.353345
30
0.0
11
-46.024900
21
-15.414355
31
0.0
0
LINE
8
0
6
CONTINUOUS
10
-27.207270
20
-23.509875
30
0.0
11
-24.965249
21
-18.615410
31
0.0
0
LINE
8
0
6
CONTINUOUS
10
-49.213230
20
-13.953395
30
0.0
11
-48.340750
21
-14.353345
31
0.0
0
LINE
8
0
6
CONTINUOUS
10
-49.014900
20
-13.520405
30
0.0
11
-49.213230
21
-13.953395
31
0.0
0
LINE
8
0
6
CONTINUOUS
10
-42.603520
20
-16.981395
30
0.0
11
-46.024900
21
-15.414355
31
0.0
0
LINE
8
0
6
CONTINUOUS
10
-38.309610
20
-18.948385
30
0.0
11
-42.603520
21
-16.981395
31
0.0
0
LINE
8
0
6
CONTINUOUS
10
-38.309610
20
-18.948385
30
0.0
11
-34.015500
21
-20.915355
31
0.0
0
LINE
8
0
6
CONTINUOUS
10
-48.461356
20
-12.311957
30
0.0
11
-49.014900
21
-13.520405
31
0.0
0
LINE
8
0
6
CONTINUOUS
10
-30.594240
20
-22.482715
30
0.0
11
-28.278160
21
-23.543205
31
0.0
0
LINE
8
0
6
CONTINUOUS
10
-28.278160
20
-23.543205
30
0.0
11
-27.405600
21
-23.942845
31
0.0
0
LINE
8
0
6
CONTINUOUS
10
-27.405600
20
-23.942845
30
0.0
11
-27.207270
21
-23.509875
31
0.0
0
LINE
8
0
6
CONTINUOUS
10
-34.015500
20
-20.915355
30
0.0
11
-30.594240
21
-22.482715
31
0.0
0
LINE
8
0
6
CONTINUOUS
10
76.309986
20
-60.351756
30
0.0
11
75.601840
21
-58.800487
31
0.0
0
LINE
8
0
6
CONTINUOUS
10
75.014282
20
-54.985300
30
0.0
11
75.292304
21
-53.743641
31
0.0
0
LINE
8
0
6
CONTINUOUS
10
76.309986
20
-60.351756
30
0.0
11
77.062269
21
-61.074361
31
0.0
0
LINE
8
0
6
CONTINUOUS
10
77.657122
20
-60.774692
30
0.0
11
77.062269
21
-61.074361
31
0.0
0
LINE
8
0
6
CONTINUOUS
10
45.718005
20
25.130284
30
0.0
11
49.048427
21
27.266235
31
0.0
0
LINE
8
0
6
CONTINUOUS
10
41.874188
20
22.669605
30
0.0
11
44.004246
21
24.031129
31
0.0
0
LINE
8
0
6
CONTINUOUS
10
41.727772
20
22.573920
30
0.0
11
41.874188
21
22.669605
31
0.0
0
LINE
8
0
6
CONTINUOUS
10
52.417037
20
29.422670
30
0.0
11
51.847641
21
29.054745
31
0.0
0
LINE
8
0
6
CONTINUOUS
10
39.288927
20
21.009188
30
0.0
11
39.572652
21
21.191445
31
0.0
0
LINE
8
0
6
CONTINUOUS
10
41.003065
20
22.110303
30
0.0
11
41.727772
21
22.573920
31
0.0
0
ENDSEC
0
EOF
