999
Erzeugt mit innoplus bad 
0
SECTION
2
HEADER
9
$ACADVER
1
AC1009
9
$DWGCODEPAGE
3
ISO8859-1
0
ENDSEC
0
SECTION
2
TABLES
0
TABLE
2
LAYER
70
1
0
LAYER
2
0
70
0
62
7
6
CONTINUOUS
0
ENDTAB
0
ENDSEC
0
SECTION
2
ENTITIES
0
LINE
8
0
6
CONTINUOUS
10
11.993200
20
9.511408
30
0.0
11
11.993200
21
14.862492
31
0.0
0
LINE
8
0
6
CONTINUOUS
10
-11.993200
20
14.862492
30
0.0
11
-11.993200
21
9.511408
31
0.0
0
LINE
8
0
6
CONTINUOUS
10
4.725500
20
4.139501
30
0.0
11
8.487900
21
5.379411
31
0.0
0
LINE
8
0
6
CONTINUOUS
10
8.487900
20
5.379411
30
0.0
11
11.034400
21
7.211794
31
0.0
0
LINE
8
0
6
CONTINUOUS
10
11.034400
20
7.211794
30
0.0
11
11.993200
21
9.511408
31
0.0
0
LINE
8
0
6
CONTINUOUS
10
-11.034400
20
7.211794
30
0.0
11
-8.487900
21
5.379411
31
0.0
0
LINE
8
0
6
CONTINUOUS
10
-11.993200
20
9.511408
30
0.0
11
-11.034400
21
7.211794
31
0.0
0
LINE
8
0
6
CONTINUOUS
10
-8.487900
20
13.643096
30
0.0
11
-11.034400
21
11.811023
31
0.0
0
LINE
8
0
6
CONTINUOUS
10
-4.725500
20
14.883516
30
0.0
11
-8.487900
21
13.643096
31
0.0
0
LINE
8
0
6
CONTINUOUS
10
-8.487900
20
5.379411
30
0.0
11
-4.725500
21
4.139501
31
0.0
0
LINE
8
0
6
CONTINUOUS
10
0.000000
20
15.351037
30
0.0
11
-4.725500
21
14.883516
31
0.0
0
LINE
8
0
6
CONTINUOUS
10
-11.034400
20
11.811023
30
0.0
11
-11.993200
21
9.511408
31
0.0
0
LINE
8
0
6
CONTINUOUS
10
-4.725500
20
4.139501
30
0.0
11
0.000000
21
3.672270
31
0.0
0
LINE
8
0
6
CONTINUOUS
10
11.034400
20
11.811023
30
0.0
11
8.487900
21
13.643096
31
0.0
0
LINE
8
0
6
CONTINUOUS
10
8.487900
20
13.643096
30
0.0
11
4.725500
21
14.883516
31
0.0
0
LINE
8
0
6
CONTINUOUS
10
4.725500
20
14.883516
30
0.0
11
0.000000
21
15.351037
31
0.0
0
LINE
8
0
6
CONTINUOUS
10
11.993200
20
9.511408
30
0.0
11
11.034400
21
11.811023
31
0.0
0
LINE
8
0
6
CONTINUOUS
10
0.000000
20
3.672270
30
0.0
11
4.725500
21
4.139501
31
0.0
0
LINE
8
0
6
CONTINUOUS
10
6.961870
20
6.122205
30
0.0
11
3.888480
21
5.109354
31
0.0
0
LINE
8
0
6
CONTINUOUS
10
9.831100
20
9.511418
30
0.0
11
9.042150
21
7.619187
31
0.0
0
LINE
8
0
6
CONTINUOUS
10
-6.961870
20
6.122205
30
0.0
11
-9.042150
21
7.619187
31
0.0
0
LINE
8
0
6
CONTINUOUS
10
-9.042150
20
7.619187
30
0.0
11
-9.831100
21
9.511418
31
0.0
0
LINE
8
0
6
CONTINUOUS
10
-9.042150
20
11.403700
30
0.0
11
-6.961870
21
12.900311
31
0.0
0
LINE
8
0
6
CONTINUOUS
10
-6.961870
20
12.900311
30
0.0
11
-3.888480
21
13.913553
31
0.0
0
LINE
8
0
6
CONTINUOUS
10
-3.888490
20
5.109354
30
0.0
11
-6.961870
21
6.122205
31
0.0
0
LINE
8
0
6
CONTINUOUS
10
-3.888480
20
13.913553
30
0.0
11
0.000000
21
14.298291
31
0.0
0
LINE
8
0
6
CONTINUOUS
10
-9.831100
20
9.511418
30
0.0
11
-9.042150
21
11.403700
31
0.0
0
LINE
8
0
6
CONTINUOUS
10
0.000000
20
4.724867
30
0.0
11
-3.888490
21
5.109354
31
0.0
0
LINE
8
0
6
CONTINUOUS
10
6.961870
20
12.900311
30
0.0
11
9.042150
21
11.403700
31
0.0
0
LINE
8
0
6
CONTINUOUS
10
3.888480
20
13.913553
30
0.0
11
6.961870
21
12.900311
31
0.0
0
LINE
8
0
6
CONTINUOUS
10
0.000000
20
14.298291
30
0.0
11
3.888480
21
13.913553
31
0.0
0
LINE
8
0
6
CONTINUOUS
10
9.042150
20
11.403700
30
0.0
11
9.831100
21
9.511418
31
0.0
0
LINE
8
0
6
CONTINUOUS
10
3.888480
20
5.109354
30
0.0
11
0.000000
21
4.724867
31
0.0
0
LINE
8
0
6
CONTINUOUS
10
6.961870
20
6.122205
30
0.0
11
9.042150
21
7.619187
31
0.0
0
LINE
8
0
6
CONTINUOUS
10
3.888480
20
6.328410
30
0.0
11
6.961870
21
7.341261
31
0.0
0
LINE
8
0
6
CONTINUOUS
10
6.961870
20
7.341261
30
0.0
11
9.042150
21
8.838243
31
0.0
0
LINE
8
0
6
CONTINUOUS
10
9.042150
20
8.838243
30
0.0
11
9.831100
21
10.730474
31
0.0
0
LINE
8
0
6
CONTINUOUS
10
-9.042150
20
8.838243
30
0.0
11
-6.961870
21
7.341261
31
0.0
0
LINE
8
0
6
CONTINUOUS
10
-9.831100
20
10.730474
30
0.0
11
-9.042150
21
8.838243
31
0.0
0
LINE
8
0
6
CONTINUOUS
10
-6.961870
20
7.341261
30
0.0
11
-3.888490
21
6.328410
31
0.0
0
LINE
8
0
6
CONTINUOUS
10
-3.888490
20
6.328410
30
0.0
11
0.000000
21
5.943923
31
0.0
0
LINE
8
0
6
CONTINUOUS
10
0.000000
20
5.943923
30
0.0
11
3.888480
21
6.328410
31
0.0
0
LINE
8
0
6
CONTINUOUS
10
-21.338070
20
27.789168
30
0.0
11
-21.686340
21
21.944974
31
0.0
0
LINE
8
0
6
CONTINUOUS
10
0.000000
20
29.059633
30
0.0
11
-4.304900
21
29.059633
31
0.0
0
LINE
8
0
6
CONTINUOUS
10
21.686340
20
21.944974
30
0.0
11
21.338070
21
27.789168
31
0.0
0
LINE
8
0
6
CONTINUOUS
10
4.304900
20
29.059633
30
0.0
11
0.000000
21
29.059633
31
0.0
0
LINE
8
0
6
CONTINUOUS
10
-23.074390
20
-88.499970
30
0.0
11
-20.748840
21
-88.499980
31
0.0
0
LINE
8
0
6
CONTINUOUS
10
-20.748840
20
-88.499980
30
0.0
11
-17.008570
21
-88.500000
31
0.0
0
LINE
8
0
6
CONTINUOUS
10
-12.042250
20
-88.500000
30
0.0
11
-6.241680
21
-88.499990
31
0.0
0
LINE
8
0
6
CONTINUOUS
10
-6.241680
20
-88.499990
30
0.0
11
0.000000
21
-88.499970
31
0.0
0
LINE
8
0
6
CONTINUOUS
10
-17.008570
20
-88.500000
30
0.0
11
-12.042250
21
-88.500000
31
0.0
0
LINE
8
0
6
CONTINUOUS
10
-23.964920
20
-86.846500
30
0.0
11
-24.000000
21
-88.499970
31
0.0
0
LINE
8
0
6
CONTINUOUS
10
-24.000000
20
-88.499970
30
0.0
11
-23.074390
21
-88.499970
31
0.0
0
LINE
8
0
6
CONTINUOUS
10
20.748840
20
-88.499980
30
0.0
11
23.074390
21
-88.499970
31
0.0
0
LINE
8
0
6
CONTINUOUS
10
17.008570
20
-88.500000
30
0.0
11
20.748840
21
-88.499980
31
0.0
0
LINE
8
0
6
CONTINUOUS
10
6.241680
20
-88.499990
30
0.0
11
12.042250
21
-88.500000
31
0.0
0
LINE
8
0
6
CONTINUOUS
10
0.000000
20
-88.499970
30
0.0
11
6.241680
21
-88.499990
31
0.0
0
LINE
8
0
6
CONTINUOUS
10
12.042250
20
-88.500000
30
0.0
11
17.008570
21
-88.500000
31
0.0
0
LINE
8
0
6
CONTINUOUS
10
23.074390
20
-88.499970
30
0.0
11
24.000000
21
-88.499970
31
0.0
0
LINE
8
0
6
CONTINUOUS
10
24.000000
20
-88.499970
30
0.0
11
23.964920
21
-86.846500
31
0.0
0
LINE
8
0
6
CONTINUOUS
10
6.636510
20
17.168464
30
0.0
11
8.740320
21
16.369706
31
0.0
0
LINE
8
0
6
CONTINUOUS
10
8.740320
20
16.369706
30
0.0
11
10.375460
21
15.709345
31
0.0
0
LINE
8
0
6
CONTINUOUS
10
19.395380
20
29.059633
30
0.0
11
18.968240
21
29.059633
31
0.0
0
LINE
8
0
6
CONTINUOUS
10
18.968240
20
29.059633
30
0.0
11
18.363070
21
29.059633
31
0.0
0
LINE
8
0
6
CONTINUOUS
10
18.363070
20
29.059633
30
0.0
11
17.037870
21
29.059633
31
0.0
0
LINE
8
0
6
CONTINUOUS
10
17.037870
20
29.059633
30
0.0
11
14.909490
21
29.059633
31
0.0
0
LINE
8
0
6
CONTINUOUS
10
14.909490
20
29.059633
30
0.0
11
11.955920
21
29.059633
31
0.0
0
LINE
8
0
6
CONTINUOUS
10
11.955920
20
29.059633
30
0.0
11
8.355940
21
29.059633
31
0.0
0
LINE
8
0
6
CONTINUOUS
10
8.355940
20
29.059633
30
0.0
11
4.304900
21
29.059633
31
0.0
0
LINE
8
0
6
CONTINUOUS
10
20.996260
20
29.059633
30
0.0
11
20.913480
21
29.059633
31
0.0
0
LINE
8
0
6
CONTINUOUS
10
22.669790
20
-26.545715
30
0.0
11
22.486780
21
-17.501723
31
0.0
0
LINE
8
0
6
CONTINUOUS
10
22.486780
20
-17.501723
30
0.0
11
22.326210
21
-8.458031
31
0.0
0
LINE
8
0
6
CONTINUOUS
10
22.326210
20
-8.458031
30
0.0
11
22.135570
21
0.586191
31
0.0
0
LINE
8
0
6
CONTINUOUS
10
22.135570
20
0.586191
30
0.0
11
21.983580
21
7.710441
31
0.0
0
LINE
8
0
6
CONTINUOUS
10
21.983580
20
7.710441
30
0.0
11
21.835800
21
14.836182
31
0.0
0
LINE
8
0
6
CONTINUOUS
10
22.877530
20
-35.589046
30
0.0
11
22.669790
21
-26.545715
31
0.0
0
LINE
8
0
6
CONTINUOUS
10
20.913480
20
29.059633
30
0.0
11
20.723760
21
29.059633
31
0.0
0
LINE
8
0
6
CONTINUOUS
10
20.723760
20
29.059633
30
0.0
11
20.465060
21
29.059633
31
0.0
0
LINE
8
0
6
CONTINUOUS
10
21.262360
20
29.059633
30
0.0
11
20.996260
21
29.059633
31
0.0
0
LINE
8
0
6
CONTINUOUS
10
21.338070
20
27.789168
30
0.0
11
21.262360
21
29.059633
31
0.0
0
LINE
8
0
6
CONTINUOUS
10
21.835800
20
14.836182
30
0.0
11
21.686340
21
21.944974
31
0.0
0
LINE
8
0
6
CONTINUOUS
10
23.964920
20
-86.846500
30
0.0
11
22.877530
21
-35.589046
31
0.0
0
LINE
8
0
6
CONTINUOUS
10
20.465060
20
29.059633
30
0.0
11
19.395380
21
29.059633
31
0.0
0
LINE
8
0
6
CONTINUOUS
10
-8.738960
20
16.370376
30
0.0
11
-6.626550
21
17.171007
31
0.0
0
LINE
8
0
6
CONTINUOUS
10
-10.375460
20
15.709345
30
0.0
11
-8.738960
21
16.370376
31
0.0
0
LINE
8
0
6
CONTINUOUS
10
-18.968240
20
29.059633
30
0.0
11
-19.395380
21
29.059633
31
0.0
0
LINE
8
0
6
CONTINUOUS
10
-18.363070
20
29.059633
30
0.0
11
-18.968240
21
29.059633
31
0.0
0
LINE
8
0
6
CONTINUOUS
10
-17.037870
20
29.059633
30
0.0
11
-18.363070
21
29.059633
31
0.0
0
LINE
8
0
6
CONTINUOUS
10
-14.909490
20
29.059633
30
0.0
11
-17.037870
21
29.059633
31
0.0
0
LINE
8
0
6
CONTINUOUS
10
-11.955920
20
29.059633
30
0.0
11
-14.909490
21
29.059633
31
0.0
0
LINE
8
0
6
CONTINUOUS
10
-8.355940
20
29.059633
30
0.0
11
-11.955920
21
29.059633
31
0.0
0
LINE
8
0
6
CONTINUOUS
10
-4.304900
20
29.059633
30
0.0
11
-8.355940
21
29.059633
31
0.0
0
LINE
8
0
6
CONTINUOUS
10
-20.913480
20
29.059633
30
0.0
11
-20.996260
21
29.059633
31
0.0
0
LINE
8
0
6
CONTINUOUS
10
-22.486780
20
-17.501723
30
0.0
11
-22.669790
21
-26.545715
31
0.0
0
LINE
8
0
6
CONTINUOUS
10
-22.326210
20
-8.458031
30
0.0
11
-22.486780
21
-17.501723
31
0.0
0
LINE
8
0
6
CONTINUOUS
10
-22.135570
20
0.586191
30
0.0
11
-22.326210
21
-8.458031
31
0.0
0
LINE
8
0
6
CONTINUOUS
10
-21.983580
20
7.710441
30
0.0
11
-22.135570
21
0.586191
31
0.0
0
LINE
8
0
6
CONTINUOUS
10
-21.835800
20
14.836182
30
0.0
11
-21.983580
21
7.710441
31
0.0
0
LINE
8
0
6
CONTINUOUS
10
-22.669790
20
-26.545715
30
0.0
11
-22.877530
21
-35.589046
31
0.0
0
LINE
8
0
6
CONTINUOUS
10
-20.723760
20
29.059633
30
0.0
11
-20.913480
21
29.059633
31
0.0
0
LINE
8
0
6
CONTINUOUS
10
-20.465060
20
29.059633
30
0.0
11
-20.723760
21
29.059633
31
0.0
0
LINE
8
0
6
CONTINUOUS
10
-21.262360
20
29.059633
30
0.0
11
-21.338070
21
27.789168
31
0.0
0
LINE
8
0
6
CONTINUOUS
10
-20.996260
20
29.059633
30
0.0
11
-21.262360
21
29.059633
31
0.0
0
LINE
8
0
6
CONTINUOUS
10
-21.686340
20
21.944974
30
0.0
11
-21.835800
21
14.836182
31
0.0
0
LINE
8
0
6
CONTINUOUS
10
-22.877530
20
-35.589046
30
0.0
11
-23.964920
21
-86.846500
31
0.0
0
LINE
8
0
6
CONTINUOUS
10
-19.395380
20
29.059633
30
0.0
11
-20.465060
21
29.059633
31
0.0
0
LINE
8
0
6
CONTINUOUS
10
19.779500
20
30.663256
30
0.0
11
19.543567
21
31.972003
31
0.0
0
LINE
8
0
6
CONTINUOUS
10
19.997830
20
28.066323
30
0.0
11
19.779500
21
30.663256
31
0.0
0
LINE
8
0
6
CONTINUOUS
10
-19.544540
20
31.966567
30
0.0
11
-19.779490
21
30.663246
31
0.0
0
LINE
8
0
6
CONTINUOUS
10
-19.779490
20
30.663246
30
0.0
11
-19.997810
21
28.066303
31
0.0
0
LINE
8
0
6
CONTINUOUS
10
3.829740
20
88.375579
30
0.0
11
-0.000000
21
88.500000
31
0.0
0
LINE
8
0
6
CONTINUOUS
10
3.831910
20
86.586715
30
0.0
11
-0.000000
21
86.711316
31
0.0
0
LINE
8
0
6
CONTINUOUS
10
10.714200
20
87.561703
30
0.0
11
7.467590
21
88.065927
31
0.0
0
LINE
8
0
6
CONTINUOUS
10
4.267090
20
31.971834
30
0.0
11
8.319080
21
31.971834
31
0.0
0
LINE
8
0
6
CONTINUOUS
10
8.319080
20
31.971834
30
0.0
11
12.069410
21
31.971834
31
0.0
0
LINE
8
0
6
CONTINUOUS
10
15.527900
20
31.971834
30
0.0
11
18.698000
21
31.971834
31
0.0
0
LINE
8
0
6
CONTINUOUS
10
18.698000
20
31.971834
30
0.0
11
21.043230
21
31.971834
31
0.0
0
LINE
8
0
6
CONTINUOUS
10
21.968200
20
31.971834
30
0.0
11
21.952400
21
32.574509
31
0.0
0
LINE
8
0
6
CONTINUOUS
10
21.652290
20
44.025287
30
0.0
11
21.519400
21
49.062804
31
0.0
0
LINE
8
0
6
CONTINUOUS
10
21.519400
20
49.062804
30
0.0
11
21.386520
21
54.100341
31
0.0
0
LINE
8
0
6
CONTINUOUS
10
21.386520
20
54.100341
30
0.0
11
21.258950
21
58.936359
31
0.0
0
LINE
8
0
6
CONTINUOUS
10
20.059690
20
73.459230
30
0.0
11
19.714590
21
74.685164
31
0.0
0
LINE
8
0
6
CONTINUOUS
10
13.400300
20
86.897378
30
0.0
11
10.714200
21
87.561703
31
0.0
0
LINE
8
0
6
CONTINUOUS
10
15.406040
20
86.109012
30
0.0
11
13.400300
21
86.897378
31
0.0
0
LINE
8
0
6
CONTINUOUS
10
16.714350
20
85.237621
30
0.0
11
15.406040
21
86.109012
31
0.0
0
LINE
8
0
6
CONTINUOUS
10
17.445430
20
84.323762
30
0.0
11
16.714350
21
85.237621
31
0.0
0
LINE
8
0
6
CONTINUOUS
10
17.781330
20
83.395186
30
0.0
11
17.445430
21
84.323762
31
0.0
0
LINE
8
0
6
CONTINUOUS
10
18.695590
20
78.362975
30
0.0
11
17.781330
21
83.395186
31
0.0
0
LINE
8
0
6
CONTINUOUS
10
17.781330
20
81.594149
30
0.0
11
18.695590
21
75.885999
31
0.0
0
LINE
8
0
6
CONTINUOUS
10
21.069270
20
69.200949
30
0.0
11
20.849420
21
70.620373
31
0.0
0
LINE
8
0
6
CONTINUOUS
10
21.069270
20
66.948929
30
0.0
11
21.069270
21
69.200949
31
0.0
0
LINE
8
0
6
CONTINUOUS
10
21.196520
20
61.366102
30
0.0
11
21.119210
21
64.667305
31
0.0
0
LINE
8
0
6
CONTINUOUS
10
12.069410
20
31.971834
30
0.0
11
15.527900
21
31.971834
31
0.0
0
LINE
8
0
6
CONTINUOUS
10
21.258950
20
58.936359
30
0.0
11
21.196520
21
61.366102
31
0.0
0
LINE
8
0
6
CONTINUOUS
10
19.014280
20
77.137042
30
0.0
11
18.695590
21
78.362975
31
0.0
0
LINE
8
0
6
CONTINUOUS
10
3.831910
20
86.586715
30
0.0
11
7.446660
21
86.296815
31
0.0
0
LINE
8
0
6
CONTINUOUS
10
7.467590
20
88.065927
30
0.0
11
3.829740
21
88.375579
31
0.0
0
LINE
8
0
6
CONTINUOUS
10
19.368560
20
75.911108
30
0.0
11
19.014280
21
77.137042
31
0.0
0
LINE
8
0
6
CONTINUOUS
10
20.476390
20
72.039807
30
0.0
11
20.059690
21
73.459230
31
0.0
0
LINE
8
0
6
CONTINUOUS
10
20.849420
20
70.620373
30
0.0
11
20.476390
21
72.039807
31
0.0
0
LINE
8
0
6
CONTINUOUS
10
19.714590
20
74.685164
30
0.0
11
19.368560
21
75.911108
31
0.0
0
LINE
8
0
6
CONTINUOUS
10
21.119210
20
64.667305
30
0.0
11
21.069270
21
66.948929
31
0.0
0
LINE
8
0
6
CONTINUOUS
10
-0.000000
20
88.500000
30
0.0
11
-3.829740
21
88.375579
31
0.0
0
LINE
8
0
6
CONTINUOUS
10
-0.000000
20
86.711316
30
0.0
11
-3.831900
21
86.586715
31
0.0
0
LINE
8
0
6
CONTINUOUS
10
-7.467580
20
88.065927
30
0.0
11
-10.714200
21
87.561703
31
0.0
0
LINE
8
0
6
CONTINUOUS
10
-8.319080
20
31.971834
30
0.0
11
-4.267080
21
31.971834
31
0.0
0
LINE
8
0
6
CONTINUOUS
10
-12.069410
20
31.971834
30
0.0
11
-8.319080
21
31.971834
31
0.0
0
LINE
8
0
6
CONTINUOUS
10
-18.698000
20
31.971834
30
0.0
11
-15.527890
21
31.971834
31
0.0
0
LINE
8
0
6
CONTINUOUS
10
-21.043220
20
31.971834
30
0.0
11
-18.698000
21
31.971834
31
0.0
0
LINE
8
0
6
CONTINUOUS
10
-21.952400
20
32.574509
30
0.0
11
-21.968200
21
31.971834
31
0.0
0
LINE
8
0
6
CONTINUOUS
10
-21.519400
20
49.062804
30
0.0
11
-21.652280
21
44.025287
31
0.0
0
LINE
8
0
6
CONTINUOUS
10
-21.386510
20
54.100341
30
0.0
11
-21.519400
21
49.062804
31
0.0
0
LINE
8
0
6
CONTINUOUS
10
-21.258940
20
58.936359
30
0.0
11
-21.386510
21
54.100341
31
0.0
0
LINE
8
0
6
CONTINUOUS
10
-19.714590
20
74.685164
30
0.0
11
-20.059690
21
73.459230
31
0.0
0
LINE
8
0
6
CONTINUOUS
10
-10.714200
20
87.561703
30
0.0
11
-13.400290
21
86.897378
31
0.0
0
LINE
8
0
6
CONTINUOUS
10
-13.400290
20
86.897378
30
0.0
11
-15.406030
21
86.109012
31
0.0
0
LINE
8
0
6
CONTINUOUS
10
-15.406030
20
86.109012
30
0.0
11
-16.714340
21
85.237621
31
0.0
0
LINE
8
0
6
CONTINUOUS
10
-16.714340
20
85.237621
30
0.0
11
-17.445430
21
84.323762
31
0.0
0
LINE
8
0
6
CONTINUOUS
10
-17.445430
20
84.323762
30
0.0
11
-17.781330
21
83.395186
31
0.0
0
LINE
8
0
6
CONTINUOUS
10
-18.695590
20
75.885999
30
0.0
11
-17.781330
21
81.594149
31
0.0
0
LINE
8
0
6
CONTINUOUS
10
-17.781330
20
83.395186
30
0.0
11
-18.695590
21
78.362975
31
0.0
0
LINE
8
0
6
CONTINUOUS
10
-21.069260
20
69.200949
30
0.0
11
-21.069260
21
66.948929
31
0.0
0
LINE
8
0
6
CONTINUOUS
10
-20.849410
20
70.620373
30
0.0
11
-21.069260
21
69.200949
31
0.0
0
LINE
8
0
6
CONTINUOUS
10
-21.119210
20
64.667305
30
0.0
11
-21.196510
21
61.366102
31
0.0
0
LINE
8
0
6
CONTINUOUS
10
-15.527890
20
31.971834
30
0.0
11
-12.069410
21
31.971834
31
0.0
0
LINE
8
0
6
CONTINUOUS
10
-21.196510
20
61.366102
30
0.0
11
-21.258940
21
58.936359
31
0.0
0
LINE
8
0
6
CONTINUOUS
10
-18.695590
20
78.362975
30
0.0
11
-19.014270
21
77.137042
31
0.0
0
LINE
8
0
6
CONTINUOUS
10
-3.829740
20
88.375579
30
0.0
11
-7.467580
21
88.065927
31
0.0
0
LINE
8
0
6
CONTINUOUS
10
-7.446660
20
86.296815
30
0.0
11
-3.831900
21
86.586715
31
0.0
0
LINE
8
0
6
CONTINUOUS
10
-19.014270
20
77.137042
30
0.0
11
-19.368560
21
75.911108
31
0.0
0
LINE
8
0
6
CONTINUOUS
10
-20.059690
20
73.459230
30
0.0
11
-20.476380
21
72.039807
31
0.0
0
LINE
8
0
6
CONTINUOUS
10
-20.476380
20
72.039807
30
0.0
11
-20.849410
21
70.620373
31
0.0
0
LINE
8
0
6
CONTINUOUS
10
-19.368560
20
75.911108
30
0.0
11
-19.714590
21
74.685164
31
0.0
0
LINE
8
0
6
CONTINUOUS
10
-21.069260
20
66.948929
30
0.0
11
-21.119210
21
64.667305
31
0.0
0
LINE
8
0
6
CONTINUOUS
10
21.968200
20
31.971834
30
0.0
11
21.043230
21
31.971834
31
0.0
0
LINE
8
0
6
CONTINUOUS
10
-21.043220
20
31.971834
30
0.0
11
-21.968200
21
31.971834
31
0.0
0
LINE
8
0
6
CONTINUOUS
10
-0.000000
20
31.971834
30
0.0
11
4.267090
21
31.971834
31
0.0
0
LINE
8
0
6
CONTINUOUS
10
21.952400
20
32.574509
30
0.0
11
21.652290
21
44.025287
31
0.0
0
LINE
8
0
6
CONTINUOUS
10
-4.267080
20
31.971834
30
0.0
11
-0.000000
21
31.971834
31
0.0
0
LINE
8
0
6
CONTINUOUS
10
-21.652280
20
44.025287
30
0.0
11
-21.952400
21
32.574509
31
0.0
0
ENDSEC
0
EOF
