999
Erzeugt mit innoplus bad 
0
SECTION
2
HEADER
9
$ACADVER
1
AC1009
9
$DWGCODEPAGE
3
ISO8859-1
0
ENDSEC
0
SECTION
2
TABLES
0
TABLE
2
LAYER
70
1
0
LAYER
2
0
70
0
62
7
6
CONTINUOUS
0
ENDTAB
0
ENDSEC
0
SECTION
2
ENTITIES
0
LINE
8
0
6
CONTINUOUS
10
145.396000
20
76.630500
30
0.0
11
147.600000
21
76.630500
31
0.0
0
LINE
8
0
6
CONTINUOUS
10
139.542000
20
76.630500
30
0.0
11
142.620000
21
76.630500
31
0.0
0
LINE
8
0
6
CONTINUOUS
10
142.620000
20
76.630500
30
0.0
11
145.396000
21
76.630500
31
0.0
0
LINE
8
0
6
CONTINUOUS
10
147.600000
20
76.630500
30
0.0
11
145.396000
21
76.630500
31
0.0
0
LINE
8
0
6
CONTINUOUS
10
145.396000
20
76.630500
30
0.0
11
142.620000
21
76.630500
31
0.0
0
LINE
8
0
6
CONTINUOUS
10
142.620000
20
76.630500
30
0.0
11
139.542000
21
76.630500
31
0.0
0
LINE
8
0
6
CONTINUOUS
10
149.502000
20
76.630500
30
0.0
11
149.014000
21
76.630500
31
0.0
0
LINE
8
0
6
CONTINUOUS
10
149.014000
20
76.630500
30
0.0
11
147.600000
21
76.630500
31
0.0
0
LINE
8
0
6
CONTINUOUS
10
139.542000
20
76.630500
30
0.0
11
-0.000000
21
76.630500
31
0.0
0
LINE
8
0
6
CONTINUOUS
10
149.647000
20
76.327500
30
0.0
11
149.502000
21
76.630500
31
0.0
0
LINE
8
0
6
CONTINUOUS
10
150.000000
20
74.630500
30
0.0
11
149.647000
21
76.327500
31
0.0
0
LINE
8
0
6
CONTINUOUS
10
149.647000
20
72.932500
30
0.0
11
150.000000
21
74.630500
31
0.0
0
LINE
8
0
6
CONTINUOUS
10
149.502000
20
72.630500
30
0.0
11
149.647000
21
72.932500
31
0.0
0
LINE
8
0
6
CONTINUOUS
10
147.600000
20
76.630500
30
0.0
11
149.014000
21
76.630500
31
0.0
0
LINE
8
0
6
CONTINUOUS
10
149.014000
20
76.630500
30
0.0
11
149.502000
21
76.630500
31
0.0
0
LINE
8
0
6
CONTINUOUS
10
-0.000000
20
76.630500
30
0.0
11
139.542000
21
76.630500
31
0.0
0
LINE
8
0
6
CONTINUOUS
10
-147.599600
20
76.630500
30
0.0
11
-145.396410
21
76.630500
31
0.0
0
LINE
8
0
6
CONTINUOUS
10
-142.619520
20
76.630500
30
0.0
11
-139.541800
21
76.630500
31
0.0
0
LINE
8
0
6
CONTINUOUS
10
-145.396410
20
76.630500
30
0.0
11
-142.619520
21
76.630500
31
0.0
0
LINE
8
0
6
CONTINUOUS
10
-145.396410
20
76.630500
30
0.0
11
-147.599600
21
76.630500
31
0.0
0
LINE
8
0
6
CONTINUOUS
10
-142.619520
20
76.630500
30
0.0
11
-145.396410
21
76.630500
31
0.0
0
LINE
8
0
6
CONTINUOUS
10
-139.541800
20
76.630500
30
0.0
11
-142.619520
21
76.630500
31
0.0
0
LINE
8
0
6
CONTINUOUS
10
-149.013944
20
76.630500
30
0.0
11
-149.501992
21
76.630500
31
0.0
0
LINE
8
0
6
CONTINUOUS
10
-147.599600
20
76.630500
30
0.0
11
-149.013944
21
76.630500
31
0.0
0
LINE
8
0
6
CONTINUOUS
10
-0.000000
20
76.630500
30
0.0
11
-139.541800
21
76.630500
31
0.0
0
LINE
8
0
6
CONTINUOUS
10
-149.647410
20
76.327500
30
0.0
11
-150.000000
21
74.630500
31
0.0
0
LINE
8
0
6
CONTINUOUS
10
-149.501992
20
76.630500
30
0.0
11
-149.647410
21
76.327500
31
0.0
0
LINE
8
0
6
CONTINUOUS
10
-149.647410
20
72.932500
30
0.0
11
-149.501992
21
72.630500
31
0.0
0
LINE
8
0
6
CONTINUOUS
10
-150.000000
20
74.630500
30
0.0
11
-149.647410
21
72.932500
31
0.0
0
LINE
8
0
6
CONTINUOUS
10
-149.013944
20
76.630500
30
0.0
11
-147.599600
21
76.630500
31
0.0
0
LINE
8
0
6
CONTINUOUS
10
-149.501992
20
76.630500
30
0.0
11
-149.013944
21
76.630500
31
0.0
0
LINE
8
0
6
CONTINUOUS
10
-139.541800
20
76.630500
30
0.0
11
-0.000000
21
76.630500
31
0.0
0
LINE
8
0
6
CONTINUOUS
10
175.000000
20
61.689300
30
0.0
11
175.000000
21
60.489300
31
0.0
0
LINE
8
0
6
CONTINUOUS
10
175.000000
20
60.489300
30
0.0
11
175.000000
21
59.112900
31
0.0
0
LINE
8
0
6
CONTINUOUS
10
175.000000
20
59.112900
30
0.0
11
175.000000
21
57.630500
31
0.0
0
LINE
8
0
6
CONTINUOUS
10
175.000000
20
60.489300
30
0.0
11
175.000000
21
61.689300
31
0.0
0
LINE
8
0
6
CONTINUOUS
10
175.000000
20
59.112900
30
0.0
11
175.000000
21
60.489300
31
0.0
0
LINE
8
0
6
CONTINUOUS
10
175.000000
20
57.630500
30
0.0
11
175.000000
21
59.112900
31
0.0
0
LINE
8
0
6
CONTINUOUS
10
175.000000
20
62.589300
30
0.0
11
175.000000
21
61.689300
31
0.0
0
LINE
8
0
6
CONTINUOUS
10
175.000000
20
63.154000
30
0.0
11
175.000000
21
62.589300
31
0.0
0
LINE
8
0
6
CONTINUOUS
10
175.000000
20
63.365800
30
0.0
11
175.000000
21
63.154000
31
0.0
0
LINE
8
0
6
CONTINUOUS
10
175.000000
20
61.689300
30
0.0
11
175.000000
21
62.589300
31
0.0
0
LINE
8
0
6
CONTINUOUS
10
175.000000
20
62.589300
30
0.0
11
175.000000
21
63.154000
31
0.0
0
LINE
8
0
6
CONTINUOUS
10
175.000000
20
63.154000
30
0.0
11
175.000000
21
63.365800
31
0.0
0
LINE
8
0
6
CONTINUOUS
10
175.000000
20
26.771700
30
0.0
11
175.000000
21
25.571700
31
0.0
0
LINE
8
0
6
CONTINUOUS
10
175.000000
20
28.148100
30
0.0
11
175.000000
21
26.771700
31
0.0
0
LINE
8
0
6
CONTINUOUS
10
175.000000
20
29.630500
30
0.0
11
175.000000
21
28.148100
31
0.0
0
LINE
8
0
6
CONTINUOUS
10
175.000000
20
25.571700
30
0.0
11
175.000000
21
26.771700
31
0.0
0
LINE
8
0
6
CONTINUOUS
10
175.000000
20
26.771700
30
0.0
11
175.000000
21
28.148100
31
0.0
0
LINE
8
0
6
CONTINUOUS
10
175.000000
20
28.148100
30
0.0
11
175.000000
21
29.630500
31
0.0
0
LINE
8
0
6
CONTINUOUS
10
175.000000
20
25.571700
30
0.0
11
175.000000
21
24.671700
31
0.0
0
LINE
8
0
6
CONTINUOUS
10
175.000000
20
24.671700
30
0.0
11
175.000000
21
24.107000
31
0.0
0
LINE
8
0
6
CONTINUOUS
10
175.000000
20
24.107000
30
0.0
11
175.000000
21
23.895200
31
0.0
0
LINE
8
0
6
CONTINUOUS
10
175.000000
20
24.671700
30
0.0
11
175.000000
21
25.571700
31
0.0
0
LINE
8
0
6
CONTINUOUS
10
175.000000
20
24.107000
30
0.0
11
175.000000
21
24.671700
31
0.0
0
LINE
8
0
6
CONTINUOUS
10
175.000000
20
23.895200
30
0.0
11
175.000000
21
24.107000
31
0.0
0
LINE
8
0
6
CONTINUOUS
10
161.706000
20
18.630500
30
0.0
11
160.906000
21
18.630500
31
0.0
0
LINE
8
0
6
CONTINUOUS
10
160.906000
20
18.630500
30
0.0
11
159.988000
21
18.630500
31
0.0
0
LINE
8
0
6
CONTINUOUS
10
159.988000
20
18.630500
30
0.0
11
159.000000
21
18.630500
31
0.0
0
LINE
8
0
6
CONTINUOUS
10
160.906000
20
18.630500
30
0.0
11
161.706000
21
18.630500
31
0.0
0
LINE
8
0
6
CONTINUOUS
10
159.988000
20
18.630500
30
0.0
11
160.906000
21
18.630500
31
0.0
0
LINE
8
0
6
CONTINUOUS
10
159.000000
20
18.630500
30
0.0
11
159.988000
21
18.630500
31
0.0
0
LINE
8
0
6
CONTINUOUS
10
162.306000
20
18.630500
30
0.0
11
161.706000
21
18.630500
31
0.0
0
LINE
8
0
6
CONTINUOUS
10
162.682000
20
18.630500
30
0.0
11
162.306000
21
18.630500
31
0.0
0
LINE
8
0
6
CONTINUOUS
10
162.823000
20
18.630500
30
0.0
11
162.682000
21
18.630500
31
0.0
0
LINE
8
0
6
CONTINUOUS
10
161.706000
20
18.630500
30
0.0
11
162.306000
21
18.630500
31
0.0
0
LINE
8
0
6
CONTINUOUS
10
162.306000
20
18.630500
30
0.0
11
162.682000
21
18.630500
31
0.0
0
LINE
8
0
6
CONTINUOUS
10
162.682000
20
18.630500
30
0.0
11
162.823000
21
18.630500
31
0.0
0
LINE
8
0
6
CONTINUOUS
10
156.294000
20
18.630500
30
0.0
11
155.694000
21
18.630500
31
0.0
0
LINE
8
0
6
CONTINUOUS
10
155.694000
20
18.630500
30
0.0
11
155.318000
21
18.630500
31
0.0
0
LINE
8
0
6
CONTINUOUS
10
155.318000
20
18.630500
30
0.0
11
155.176000
21
18.630500
31
0.0
0
LINE
8
0
6
CONTINUOUS
10
155.694000
20
18.630500
30
0.0
11
156.294000
21
18.630500
31
0.0
0
LINE
8
0
6
CONTINUOUS
10
155.318000
20
18.630500
30
0.0
11
155.694000
21
18.630500
31
0.0
0
LINE
8
0
6
CONTINUOUS
10
155.176000
20
18.630500
30
0.0
11
155.318000
21
18.630500
31
0.0
0
LINE
8
0
6
CONTINUOUS
10
157.094000
20
18.630500
30
0.0
11
156.294000
21
18.630500
31
0.0
0
LINE
8
0
6
CONTINUOUS
10
158.012000
20
18.630500
30
0.0
11
157.094000
21
18.630500
31
0.0
0
LINE
8
0
6
CONTINUOUS
10
159.000000
20
18.630500
30
0.0
11
158.012000
21
18.630500
31
0.0
0
LINE
8
0
6
CONTINUOUS
10
156.294000
20
18.630500
30
0.0
11
157.094000
21
18.630500
31
0.0
0
LINE
8
0
6
CONTINUOUS
10
157.094000
20
18.630500
30
0.0
11
158.012000
21
18.630500
31
0.0
0
LINE
8
0
6
CONTINUOUS
10
158.012000
20
18.630500
30
0.0
11
159.000000
21
18.630500
31
0.0
0
LINE
8
0
6
CONTINUOUS
10
162.382000
20
22.630500
30
0.0
11
161.382000
21
22.630500
31
0.0
0
LINE
8
0
6
CONTINUOUS
10
161.382000
20
22.630500
30
0.0
11
160.235000
21
22.630500
31
0.0
0
LINE
8
0
6
CONTINUOUS
10
160.235000
20
22.630500
30
0.0
11
159.000000
21
22.630500
31
0.0
0
LINE
8
0
6
CONTINUOUS
10
161.382000
20
22.630500
30
0.0
11
162.382000
21
22.630500
31
0.0
0
LINE
8
0
6
CONTINUOUS
10
160.235000
20
22.630500
30
0.0
11
161.382000
21
22.630500
31
0.0
0
LINE
8
0
6
CONTINUOUS
10
159.000000
20
22.630500
30
0.0
11
160.235000
21
22.630500
31
0.0
0
LINE
8
0
6
CONTINUOUS
10
163.132000
20
22.630500
30
0.0
11
162.382000
21
22.630500
31
0.0
0
LINE
8
0
6
CONTINUOUS
10
163.603000
20
22.630500
30
0.0
11
163.132000
21
22.630500
31
0.0
0
LINE
8
0
6
CONTINUOUS
10
163.779000
20
22.630500
30
0.0
11
163.603000
21
22.630500
31
0.0
0
LINE
8
0
6
CONTINUOUS
10
162.382000
20
22.630500
30
0.0
11
163.132000
21
22.630500
31
0.0
0
LINE
8
0
6
CONTINUOUS
10
163.132000
20
22.630500
30
0.0
11
163.603000
21
22.630500
31
0.0
0
LINE
8
0
6
CONTINUOUS
10
163.603000
20
22.630500
30
0.0
11
163.779000
21
22.630500
31
0.0
0
LINE
8
0
6
CONTINUOUS
10
155.618000
20
22.630500
30
0.0
11
154.868000
21
22.630500
31
0.0
0
LINE
8
0
6
CONTINUOUS
10
154.868000
20
22.630500
30
0.0
11
154.397000
21
22.630500
31
0.0
0
LINE
8
0
6
CONTINUOUS
10
154.397000
20
22.630500
30
0.0
11
154.221000
21
22.630500
31
0.0
0
LINE
8
0
6
CONTINUOUS
10
154.868000
20
22.630500
30
0.0
11
155.618000
21
22.630500
31
0.0
0
LINE
8
0
6
CONTINUOUS
10
154.397000
20
22.630500
30
0.0
11
154.868000
21
22.630500
31
0.0
0
LINE
8
0
6
CONTINUOUS
10
154.221000
20
22.630500
30
0.0
11
154.397000
21
22.630500
31
0.0
0
LINE
8
0
6
CONTINUOUS
10
156.618000
20
22.630500
30
0.0
11
155.618000
21
22.630500
31
0.0
0
LINE
8
0
6
CONTINUOUS
10
157.765000
20
22.630500
30
0.0
11
156.618000
21
22.630500
31
0.0
0
LINE
8
0
6
CONTINUOUS
10
159.000000
20
22.630500
30
0.0
11
157.765000
21
22.630500
31
0.0
0
LINE
8
0
6
CONTINUOUS
10
155.618000
20
22.630500
30
0.0
11
156.618000
21
22.630500
31
0.0
0
LINE
8
0
6
CONTINUOUS
10
156.618000
20
22.630500
30
0.0
11
157.765000
21
22.630500
31
0.0
0
LINE
8
0
6
CONTINUOUS
10
157.765000
20
22.630500
30
0.0
11
159.000000
21
22.630500
31
0.0
0
LINE
8
0
6
CONTINUOUS
10
175.000000
20
57.630500
30
0.0
11
175.000000
21
29.630500
31
0.0
0
LINE
8
0
6
CONTINUOUS
10
175.000000
20
29.630500
30
0.0
11
175.000000
21
57.630500
31
0.0
0
LINE
8
0
6
CONTINUOUS
10
151.000000
20
58.463100
30
0.0
11
151.000000
21
56.407300
31
0.0
0
LINE
8
0
6
CONTINUOUS
10
151.000000
20
56.407300
30
0.0
11
151.000000
21
54.086300
31
0.0
0
LINE
8
0
6
CONTINUOUS
10
151.000000
20
54.086300
30
0.0
11
151.000000
21
51.654700
31
0.0
0
LINE
8
0
6
CONTINUOUS
10
151.000000
20
51.654700
30
0.0
11
151.000000
21
49.046300
31
0.0
0
LINE
8
0
6
CONTINUOUS
10
151.000000
20
49.046300
30
0.0
11
151.000000
21
46.371600
31
0.0
0
LINE
8
0
6
CONTINUOUS
10
151.000000
20
46.371600
30
0.0
11
151.000000
21
43.630500
31
0.0
0
LINE
8
0
6
CONTINUOUS
10
151.000000
20
56.407300
30
0.0
11
151.000000
21
58.463100
31
0.0
0
LINE
8
0
6
CONTINUOUS
10
151.000000
20
54.086300
30
0.0
11
151.000000
21
56.407300
31
0.0
0
LINE
8
0
6
CONTINUOUS
10
151.000000
20
51.654700
30
0.0
11
151.000000
21
54.086300
31
0.0
0
LINE
8
0
6
CONTINUOUS
10
151.000000
20
49.046300
30
0.0
11
151.000000
21
51.654700
31
0.0
0
LINE
8
0
6
CONTINUOUS
10
151.000000
20
46.371600
30
0.0
11
151.000000
21
49.046300
31
0.0
0
LINE
8
0
6
CONTINUOUS
10
151.000000
20
43.630500
30
0.0
11
151.000000
21
46.371600
31
0.0
0
LINE
8
0
6
CONTINUOUS
10
151.000000
20
60.253700
30
0.0
11
151.000000
21
58.463100
31
0.0
0
LINE
8
0
6
CONTINUOUS
10
151.000000
20
61.823100
30
0.0
11
151.000000
21
60.253700
31
0.0
0
LINE
8
0
6
CONTINUOUS
10
151.000000
20
62.994700
30
0.0
11
151.000000
21
61.823100
31
0.0
0
LINE
8
0
6
CONTINUOUS
10
151.000000
20
63.878900
30
0.0
11
151.000000
21
62.994700
31
0.0
0
LINE
8
0
6
CONTINUOUS
10
151.000000
20
64.409400
30
0.0
11
151.000000
21
63.878900
31
0.0
0
LINE
8
0
6
CONTINUOUS
10
151.000000
20
64.630500
30
0.0
11
151.000000
21
64.409400
31
0.0
0
LINE
8
0
6
CONTINUOUS
10
151.000000
20
58.463100
30
0.0
11
151.000000
21
60.253700
31
0.0
0
LINE
8
0
6
CONTINUOUS
10
151.000000
20
60.253700
30
0.0
11
151.000000
21
61.823100
31
0.0
0
LINE
8
0
6
CONTINUOUS
10
151.000000
20
61.823100
30
0.0
11
151.000000
21
62.994700
31
0.0
0
LINE
8
0
6
CONTINUOUS
10
151.000000
20
62.994700
30
0.0
11
151.000000
21
63.878900
31
0.0
0
LINE
8
0
6
CONTINUOUS
10
151.000000
20
63.878900
30
0.0
11
151.000000
21
64.409400
31
0.0
0
LINE
8
0
6
CONTINUOUS
10
151.000000
20
64.409400
30
0.0
11
151.000000
21
64.630500
31
0.0
0
LINE
8
0
6
CONTINUOUS
10
151.000000
20
30.853700
30
0.0
11
151.000000
21
28.797900
31
0.0
0
LINE
8
0
6
CONTINUOUS
10
151.000000
20
33.174700
30
0.0
11
151.000000
21
30.853700
31
0.0
0
LINE
8
0
6
CONTINUOUS
10
151.000000
20
35.606300
30
0.0
11
151.000000
21
33.174700
31
0.0
0
LINE
8
0
6
CONTINUOUS
10
151.000000
20
38.214700
30
0.0
11
151.000000
21
35.606300
31
0.0
0
LINE
8
0
6
CONTINUOUS
10
151.000000
20
40.889400
30
0.0
11
151.000000
21
38.214700
31
0.0
0
LINE
8
0
6
CONTINUOUS
10
151.000000
20
43.630500
30
0.0
11
151.000000
21
40.889400
31
0.0
0
LINE
8
0
6
CONTINUOUS
10
151.000000
20
28.797900
30
0.0
11
151.000000
21
30.853700
31
0.0
0
LINE
8
0
6
CONTINUOUS
10
151.000000
20
30.853700
30
0.0
11
151.000000
21
33.174700
31
0.0
0
LINE
8
0
6
CONTINUOUS
10
151.000000
20
33.174700
30
0.0
11
151.000000
21
35.606300
31
0.0
0
LINE
8
0
6
CONTINUOUS
10
151.000000
20
35.606300
30
0.0
11
151.000000
21
38.214700
31
0.0
0
LINE
8
0
6
CONTINUOUS
10
151.000000
20
38.214700
30
0.0
11
151.000000
21
40.889400
31
0.0
0
LINE
8
0
6
CONTINUOUS
10
151.000000
20
40.889400
30
0.0
11
151.000000
21
43.630500
31
0.0
0
LINE
8
0
6
CONTINUOUS
10
151.000000
20
28.797900
30
0.0
11
151.000000
21
27.007300
31
0.0
0
LINE
8
0
6
CONTINUOUS
10
151.000000
20
27.007300
30
0.0
11
151.000000
21
25.437900
31
0.0
0
LINE
8
0
6
CONTINUOUS
10
151.000000
20
25.437900
30
0.0
11
151.000000
21
24.266300
31
0.0
0
LINE
8
0
6
CONTINUOUS
10
151.000000
20
24.266300
30
0.0
11
151.000000
21
23.382100
31
0.0
0
LINE
8
0
6
CONTINUOUS
10
151.000000
20
23.382100
30
0.0
11
151.000000
21
22.851600
31
0.0
0
LINE
8
0
6
CONTINUOUS
10
151.000000
20
22.851600
30
0.0
11
151.000000
21
22.630500
31
0.0
0
LINE
8
0
6
CONTINUOUS
10
151.000000
20
27.007300
30
0.0
11
151.000000
21
28.797900
31
0.0
0
LINE
8
0
6
CONTINUOUS
10
151.000000
20
25.437900
30
0.0
11
151.000000
21
27.007300
31
0.0
0
LINE
8
0
6
CONTINUOUS
10
151.000000
20
24.266300
30
0.0
11
151.000000
21
25.437900
31
0.0
0
LINE
8
0
6
CONTINUOUS
10
151.000000
20
23.382100
30
0.0
11
151.000000
21
24.266300
31
0.0
0
LINE
8
0
6
CONTINUOUS
10
151.000000
20
22.851600
30
0.0
11
151.000000
21
23.382100
31
0.0
0
LINE
8
0
6
CONTINUOUS
10
151.000000
20
22.630500
30
0.0
11
151.000000
21
22.851600
31
0.0
0
LINE
8
0
6
CONTINUOUS
10
163.927000
20
22.822800
30
0.0
11
163.779000
21
22.630500
31
0.0
0
LINE
8
0
6
CONTINUOUS
10
164.000000
20
23.207400
30
0.0
11
163.927000
21
22.822800
31
0.0
0
LINE
8
0
6
CONTINUOUS
10
164.000000
20
23.630500
30
0.0
11
164.000000
21
23.207400
31
0.0
0
LINE
8
0
6
CONTINUOUS
10
154.221000
20
22.630500
30
0.0
11
154.074000
21
22.822800
31
0.0
0
LINE
8
0
6
CONTINUOUS
10
154.074000
20
22.822800
30
0.0
11
154.000000
21
23.207400
31
0.0
0
LINE
8
0
6
CONTINUOUS
10
154.000000
20
23.207400
30
0.0
11
154.000000
21
23.630500
31
0.0
0
LINE
8
0
6
CONTINUOUS
10
175.000000
20
23.895200
30
0.0
11
174.808000
21
23.718700
31
0.0
0
LINE
8
0
6
CONTINUOUS
10
174.808000
20
23.718700
30
0.0
11
174.423000
21
23.630500
31
0.0
0
LINE
8
0
6
CONTINUOUS
10
174.423000
20
23.630500
30
0.0
11
164.000000
21
23.630500
31
0.0
0
LINE
8
0
6
CONTINUOUS
10
154.000000
20
23.630500
30
0.0
11
151.000000
21
23.630500
31
0.0
0
LINE
8
0
6
CONTINUOUS
10
151.000000
20
22.630500
30
0.0
11
149.828819
21
22.630500
31
0.0
0
LINE
8
0
6
CONTINUOUS
10
149.807131
20
64.630500
30
0.0
11
151.000000
21
64.630500
31
0.0
0
LINE
8
0
6
CONTINUOUS
10
174.808000
20
63.542300
30
0.0
11
175.000000
21
63.365800
31
0.0
0
LINE
8
0
6
CONTINUOUS
10
174.423000
20
63.630500
30
0.0
11
174.808000
21
63.542300
31
0.0
0
LINE
8
0
6
CONTINUOUS
10
151.000000
20
63.630500
30
0.0
11
174.423000
21
63.630500
31
0.0
0
LINE
8
0
6
CONTINUOUS
10
162.941000
20
18.784300
30
0.0
11
162.823000
21
18.630500
31
0.0
0
LINE
8
0
6
CONTINUOUS
10
163.000000
20
19.092000
30
0.0
11
162.941000
21
18.784300
31
0.0
0
LINE
8
0
6
CONTINUOUS
10
163.000000
20
22.630500
30
0.0
11
163.000000
21
19.092000
31
0.0
0
LINE
8
0
6
CONTINUOUS
10
155.176000
20
18.630500
30
0.0
11
155.059000
21
18.784300
31
0.0
0
LINE
8
0
6
CONTINUOUS
10
155.059000
20
18.784300
30
0.0
11
155.000000
21
19.092000
31
0.0
0
LINE
8
0
6
CONTINUOUS
10
155.000000
20
19.092000
30
0.0
11
155.000000
21
22.630500
31
0.0
0
LINE
8
0
6
CONTINUOUS
10
-175.000000
20
61.689300
30
0.0
11
-175.000000
21
60.489300
31
0.0
0
LINE
8
0
6
CONTINUOUS
10
-175.000000
20
60.489300
30
0.0
11
-175.000000
21
59.112900
31
0.0
0
LINE
8
0
6
CONTINUOUS
10
-175.000000
20
59.112900
30
0.0
11
-175.000000
21
57.630500
31
0.0
0
LINE
8
0
6
CONTINUOUS
10
-175.000000
20
60.489300
30
0.0
11
-175.000000
21
61.689300
31
0.0
0
LINE
8
0
6
CONTINUOUS
10
-175.000000
20
59.112900
30
0.0
11
-175.000000
21
60.489300
31
0.0
0
LINE
8
0
6
CONTINUOUS
10
-175.000000
20
57.630500
30
0.0
11
-175.000000
21
59.112900
31
0.0
0
LINE
8
0
6
CONTINUOUS
10
-175.000000
20
62.589300
30
0.0
11
-175.000000
21
61.689300
31
0.0
0
LINE
8
0
6
CONTINUOUS
10
-175.000000
20
63.154000
30
0.0
11
-175.000000
21
62.589300
31
0.0
0
LINE
8
0
6
CONTINUOUS
10
-175.000000
20
63.365800
30
0.0
11
-175.000000
21
63.154000
31
0.0
0
LINE
8
0
6
CONTINUOUS
10
-175.000000
20
61.689300
30
0.0
11
-175.000000
21
62.589300
31
0.0
0
LINE
8
0
6
CONTINUOUS
10
-175.000000
20
62.589300
30
0.0
11
-175.000000
21
63.154000
31
0.0
0
LINE
8
0
6
CONTINUOUS
10
-175.000000
20
63.154000
30
0.0
11
-175.000000
21
63.365800
31
0.0
0
LINE
8
0
6
CONTINUOUS
10
-175.000000
20
26.771700
30
0.0
11
-175.000000
21
25.571700
31
0.0
0
LINE
8
0
6
CONTINUOUS
10
-175.000000
20
28.148100
30
0.0
11
-175.000000
21
26.771700
31
0.0
0
LINE
8
0
6
CONTINUOUS
10
-175.000000
20
29.630500
30
0.0
11
-175.000000
21
28.148100
31
0.0
0
LINE
8
0
6
CONTINUOUS
10
-175.000000
20
25.571700
30
0.0
11
-175.000000
21
26.771700
31
0.0
0
LINE
8
0
6
CONTINUOUS
10
-175.000000
20
26.771700
30
0.0
11
-175.000000
21
28.148100
31
0.0
0
LINE
8
0
6
CONTINUOUS
10
-175.000000
20
28.148100
30
0.0
11
-175.000000
21
29.630500
31
0.0
0
LINE
8
0
6
CONTINUOUS
10
-175.000000
20
25.571700
30
0.0
11
-175.000000
21
24.671700
31
0.0
0
LINE
8
0
6
CONTINUOUS
10
-175.000000
20
24.671700
30
0.0
11
-175.000000
21
24.107000
31
0.0
0
LINE
8
0
6
CONTINUOUS
10
-175.000000
20
24.107000
30
0.0
11
-175.000000
21
23.895200
31
0.0
0
LINE
8
0
6
CONTINUOUS
10
-175.000000
20
24.671700
30
0.0
11
-175.000000
21
25.571700
31
0.0
0
LINE
8
0
6
CONTINUOUS
10
-175.000000
20
24.107000
30
0.0
11
-175.000000
21
24.671700
31
0.0
0
LINE
8
0
6
CONTINUOUS
10
-175.000000
20
23.895200
30
0.0
11
-175.000000
21
24.107000
31
0.0
0
LINE
8
0
6
CONTINUOUS
10
-161.705900
20
18.630500
30
0.0
11
-160.905900
21
18.630500
31
0.0
0
LINE
8
0
6
CONTINUOUS
10
-160.905900
20
18.630500
30
0.0
11
-159.988200
21
18.630500
31
0.0
0
LINE
8
0
6
CONTINUOUS
10
-159.988200
20
18.630500
30
0.0
11
-159.000000
21
18.630500
31
0.0
0
LINE
8
0
6
CONTINUOUS
10
-160.905900
20
18.630500
30
0.0
11
-161.705900
21
18.630500
31
0.0
0
LINE
8
0
6
CONTINUOUS
10
-159.988200
20
18.630500
30
0.0
11
-160.905900
21
18.630500
31
0.0
0
LINE
8
0
6
CONTINUOUS
10
-159.000000
20
18.630500
30
0.0
11
-159.988200
21
18.630500
31
0.0
0
LINE
8
0
6
CONTINUOUS
10
-162.305900
20
18.630500
30
0.0
11
-161.705900
21
18.630500
31
0.0
0
LINE
8
0
6
CONTINUOUS
10
-162.682400
20
18.630500
30
0.0
11
-162.305900
21
18.630500
31
0.0
0
LINE
8
0
6
CONTINUOUS
10
-162.823500
20
18.630500
30
0.0
11
-162.682400
21
18.630500
31
0.0
0
LINE
8
0
6
CONTINUOUS
10
-161.705900
20
18.630500
30
0.0
11
-162.305900
21
18.630500
31
0.0
0
LINE
8
0
6
CONTINUOUS
10
-162.305900
20
18.630500
30
0.0
11
-162.682400
21
18.630500
31
0.0
0
LINE
8
0
6
CONTINUOUS
10
-162.682400
20
18.630500
30
0.0
11
-162.823500
21
18.630500
31
0.0
0
LINE
8
0
6
CONTINUOUS
10
-156.294120
20
18.630500
30
0.0
11
-155.694120
21
18.630500
31
0.0
0
LINE
8
0
6
CONTINUOUS
10
-155.694120
20
18.630500
30
0.0
11
-155.317650
21
18.630500
31
0.0
0
LINE
8
0
6
CONTINUOUS
10
-155.317650
20
18.630500
30
0.0
11
-155.176470
21
18.630500
31
0.0
0
LINE
8
0
6
CONTINUOUS
10
-155.694120
20
18.630500
30
0.0
11
-156.294120
21
18.630500
31
0.0
0
LINE
8
0
6
CONTINUOUS
10
-155.317650
20
18.630500
30
0.0
11
-155.694120
21
18.630500
31
0.0
0
LINE
8
0
6
CONTINUOUS
10
-155.176470
20
18.630500
30
0.0
11
-155.317650
21
18.630500
31
0.0
0
LINE
8
0
6
CONTINUOUS
10
-157.094120
20
18.630500
30
0.0
11
-156.294120
21
18.630500
31
0.0
0
LINE
8
0
6
CONTINUOUS
10
-158.011770
20
18.630500
30
0.0
11
-157.094120
21
18.630500
31
0.0
0
LINE
8
0
6
CONTINUOUS
10
-159.000000
20
18.630500
30
0.0
11
-158.011770
21
18.630500
31
0.0
0
LINE
8
0
6
CONTINUOUS
10
-156.294120
20
18.630500
30
0.0
11
-157.094120
21
18.630500
31
0.0
0
LINE
8
0
6
CONTINUOUS
10
-157.094120
20
18.630500
30
0.0
11
-158.011770
21
18.630500
31
0.0
0
LINE
8
0
6
CONTINUOUS
10
-158.011770
20
18.630500
30
0.0
11
-159.000000
21
18.630500
31
0.0
0
LINE
8
0
6
CONTINUOUS
10
-162.382300
20
22.630500
30
0.0
11
-161.382300
21
22.630500
31
0.0
0
LINE
8
0
6
CONTINUOUS
10
-161.382300
20
22.630500
30
0.0
11
-160.235300
21
22.630500
31
0.0
0
LINE
8
0
6
CONTINUOUS
10
-160.235300
20
22.630500
30
0.0
11
-159.000000
21
22.630500
31
0.0
0
LINE
8
0
6
CONTINUOUS
10
-161.382300
20
22.630500
30
0.0
11
-162.382300
21
22.630500
31
0.0
0
LINE
8
0
6
CONTINUOUS
10
-160.235300
20
22.630500
30
0.0
11
-161.382300
21
22.630500
31
0.0
0
LINE
8
0
6
CONTINUOUS
10
-159.000000
20
22.630500
30
0.0
11
-160.235300
21
22.630500
31
0.0
0
LINE
8
0
6
CONTINUOUS
10
-163.132300
20
22.630500
30
0.0
11
-162.382300
21
22.630500
31
0.0
0
LINE
8
0
6
CONTINUOUS
10
-163.602900
20
22.630500
30
0.0
11
-163.132300
21
22.630500
31
0.0
0
LINE
8
0
6
CONTINUOUS
10
-163.779400
20
22.630500
30
0.0
11
-163.602900
21
22.630500
31
0.0
0
LINE
8
0
6
CONTINUOUS
10
-162.382300
20
22.630500
30
0.0
11
-163.132300
21
22.630500
31
0.0
0
LINE
8
0
6
CONTINUOUS
10
-163.132300
20
22.630500
30
0.0
11
-163.602900
21
22.630500
31
0.0
0
LINE
8
0
6
CONTINUOUS
10
-163.602900
20
22.630500
30
0.0
11
-163.779400
21
22.630500
31
0.0
0
LINE
8
0
6
CONTINUOUS
10
-155.617650
20
22.630500
30
0.0
11
-154.867650
21
22.630500
31
0.0
0
LINE
8
0
6
CONTINUOUS
10
-154.867650
20
22.630500
30
0.0
11
-154.397060
21
22.630500
31
0.0
0
LINE
8
0
6
CONTINUOUS
10
-154.397060
20
22.630500
30
0.0
11
-154.220590
21
22.630500
31
0.0
0
LINE
8
0
6
CONTINUOUS
10
-154.867650
20
22.630500
30
0.0
11
-155.617650
21
22.630500
31
0.0
0
LINE
8
0
6
CONTINUOUS
10
-154.397060
20
22.630500
30
0.0
11
-154.867650
21
22.630500
31
0.0
0
LINE
8
0
6
CONTINUOUS
10
-154.220590
20
22.630500
30
0.0
11
-154.397060
21
22.630500
31
0.0
0
LINE
8
0
6
CONTINUOUS
10
-156.617650
20
22.630500
30
0.0
11
-155.617650
21
22.630500
31
0.0
0
LINE
8
0
6
CONTINUOUS
10
-157.764710
20
22.630500
30
0.0
11
-156.617650
21
22.630500
31
0.0
0
LINE
8
0
6
CONTINUOUS
10
-159.000000
20
22.630500
30
0.0
11
-157.764710
21
22.630500
31
0.0
0
LINE
8
0
6
CONTINUOUS
10
-155.617650
20
22.630500
30
0.0
11
-156.617650
21
22.630500
31
0.0
0
LINE
8
0
6
CONTINUOUS
10
-156.617650
20
22.630500
30
0.0
11
-157.764710
21
22.630500
31
0.0
0
LINE
8
0
6
CONTINUOUS
10
-157.764710
20
22.630500
30
0.0
11
-159.000000
21
22.630500
31
0.0
0
LINE
8
0
6
CONTINUOUS
10
-175.000000
20
57.630500
30
0.0
11
-175.000000
21
29.630500
31
0.0
0
LINE
8
0
6
CONTINUOUS
10
-175.000000
20
29.630500
30
0.0
11
-175.000000
21
57.630500
31
0.0
0
LINE
8
0
6
CONTINUOUS
10
-151.000000
20
58.463100
30
0.0
11
-151.000000
21
56.407300
31
0.0
0
LINE
8
0
6
CONTINUOUS
10
-151.000000
20
56.407300
30
0.0
11
-151.000000
21
54.086300
31
0.0
0
LINE
8
0
6
CONTINUOUS
10
-151.000000
20
54.086300
30
0.0
11
-151.000000
21
51.654700
31
0.0
0
LINE
8
0
6
CONTINUOUS
10
-151.000000
20
51.654700
30
0.0
11
-151.000000
21
49.046300
31
0.0
0
LINE
8
0
6
CONTINUOUS
10
-151.000000
20
49.046300
30
0.0
11
-151.000000
21
46.371600
31
0.0
0
LINE
8
0
6
CONTINUOUS
10
-151.000000
20
46.371600
30
0.0
11
-151.000000
21
43.630500
31
0.0
0
LINE
8
0
6
CONTINUOUS
10
-151.000000
20
56.407300
30
0.0
11
-151.000000
21
58.463100
31
0.0
0
LINE
8
0
6
CONTINUOUS
10
-151.000000
20
54.086300
30
0.0
11
-151.000000
21
56.407300
31
0.0
0
LINE
8
0
6
CONTINUOUS
10
-151.000000
20
51.654700
30
0.0
11
-151.000000
21
54.086300
31
0.0
0
LINE
8
0
6
CONTINUOUS
10
-151.000000
20
49.046300
30
0.0
11
-151.000000
21
51.654700
31
0.0
0
LINE
8
0
6
CONTINUOUS
10
-151.000000
20
46.371600
30
0.0
11
-151.000000
21
49.046300
31
0.0
0
LINE
8
0
6
CONTINUOUS
10
-151.000000
20
43.630500
30
0.0
11
-151.000000
21
46.371600
31
0.0
0
LINE
8
0
6
CONTINUOUS
10
-151.000000
20
60.253700
30
0.0
11
-151.000000
21
58.463100
31
0.0
0
LINE
8
0
6
CONTINUOUS
10
-151.000000
20
61.823100
30
0.0
11
-151.000000
21
60.253700
31
0.0
0
LINE
8
0
6
CONTINUOUS
10
-151.000000
20
62.994700
30
0.0
11
-151.000000
21
61.823100
31
0.0
0
LINE
8
0
6
CONTINUOUS
10
-151.000000
20
63.878900
30
0.0
11
-151.000000
21
62.994700
31
0.0
0
LINE
8
0
6
CONTINUOUS
10
-151.000000
20
64.409400
30
0.0
11
-151.000000
21
63.878900
31
0.0
0
LINE
8
0
6
CONTINUOUS
10
-151.000000
20
64.630500
30
0.0
11
-151.000000
21
64.409400
31
0.0
0
LINE
8
0
6
CONTINUOUS
10
-151.000000
20
58.463100
30
0.0
11
-151.000000
21
60.253700
31
0.0
0
LINE
8
0
6
CONTINUOUS
10
-151.000000
20
60.253700
30
0.0
11
-151.000000
21
61.823100
31
0.0
0
LINE
8
0
6
CONTINUOUS
10
-151.000000
20
61.823100
30
0.0
11
-151.000000
21
62.994700
31
0.0
0
LINE
8
0
6
CONTINUOUS
10
-151.000000
20
62.994700
30
0.0
11
-151.000000
21
63.878900
31
0.0
0
LINE
8
0
6
CONTINUOUS
10
-151.000000
20
63.878900
30
0.0
11
-151.000000
21
64.409400
31
0.0
0
LINE
8
0
6
CONTINUOUS
10
-151.000000
20
64.409400
30
0.0
11
-151.000000
21
64.630500
31
0.0
0
LINE
8
0
6
CONTINUOUS
10
-151.000000
20
30.853700
30
0.0
11
-151.000000
21
28.797900
31
0.0
0
LINE
8
0
6
CONTINUOUS
10
-151.000000
20
33.174700
30
0.0
11
-151.000000
21
30.853700
31
0.0
0
LINE
8
0
6
CONTINUOUS
10
-151.000000
20
35.606300
30
0.0
11
-151.000000
21
33.174700
31
0.0
0
LINE
8
0
6
CONTINUOUS
10
-151.000000
20
38.214700
30
0.0
11
-151.000000
21
35.606300
31
0.0
0
LINE
8
0
6
CONTINUOUS
10
-151.000000
20
40.889400
30
0.0
11
-151.000000
21
38.214700
31
0.0
0
LINE
8
0
6
CONTINUOUS
10
-151.000000
20
43.630500
30
0.0
11
-151.000000
21
40.889400
31
0.0
0
LINE
8
0
6
CONTINUOUS
10
-151.000000
20
28.797900
30
0.0
11
-151.000000
21
30.853700
31
0.0
0
LINE
8
0
6
CONTINUOUS
10
-151.000000
20
30.853700
30
0.0
11
-151.000000
21
33.174700
31
0.0
0
LINE
8
0
6
CONTINUOUS
10
-151.000000
20
33.174700
30
0.0
11
-151.000000
21
35.606300
31
0.0
0
LINE
8
0
6
CONTINUOUS
10
-151.000000
20
35.606300
30
0.0
11
-151.000000
21
38.214700
31
0.0
0
LINE
8
0
6
CONTINUOUS
10
-151.000000
20
38.214700
30
0.0
11
-151.000000
21
40.889400
31
0.0
0
LINE
8
0
6
CONTINUOUS
10
-151.000000
20
40.889400
30
0.0
11
-151.000000
21
43.630500
31
0.0
0
LINE
8
0
6
CONTINUOUS
10
-151.000000
20
28.797900
30
0.0
11
-151.000000
21
27.007300
31
0.0
0
LINE
8
0
6
CONTINUOUS
10
-151.000000
20
27.007300
30
0.0
11
-151.000000
21
25.437900
31
0.0
0
LINE
8
0
6
CONTINUOUS
10
-151.000000
20
25.437900
30
0.0
11
-151.000000
21
24.266300
31
0.0
0
LINE
8
0
6
CONTINUOUS
10
-151.000000
20
24.266300
30
0.0
11
-151.000000
21
23.382100
31
0.0
0
LINE
8
0
6
CONTINUOUS
10
-151.000000
20
23.382100
30
0.0
11
-151.000000
21
22.851600
31
0.0
0
LINE
8
0
6
CONTINUOUS
10
-151.000000
20
22.851600
30
0.0
11
-151.000000
21
22.630500
31
0.0
0
LINE
8
0
6
CONTINUOUS
10
-151.000000
20
27.007300
30
0.0
11
-151.000000
21
28.797900
31
0.0
0
LINE
8
0
6
CONTINUOUS
10
-151.000000
20
25.437900
30
0.0
11
-151.000000
21
27.007300
31
0.0
0
LINE
8
0
6
CONTINUOUS
10
-151.000000
20
24.266300
30
0.0
11
-151.000000
21
25.437900
31
0.0
0
LINE
8
0
6
CONTINUOUS
10
-151.000000
20
23.382100
30
0.0
11
-151.000000
21
24.266300
31
0.0
0
LINE
8
0
6
CONTINUOUS
10
-151.000000
20
22.851600
30
0.0
11
-151.000000
21
23.382100
31
0.0
0
LINE
8
0
6
CONTINUOUS
10
-151.000000
20
22.630500
30
0.0
11
-151.000000
21
22.851600
31
0.0
0
LINE
8
0
6
CONTINUOUS
10
-163.926500
20
22.822800
30
0.0
11
-163.779400
21
22.630500
31
0.0
0
LINE
8
0
6
CONTINUOUS
10
-164.000000
20
23.207400
30
0.0
11
-163.926500
21
22.822800
31
0.0
0
LINE
8
0
6
CONTINUOUS
10
-164.000000
20
23.630500
30
0.0
11
-164.000000
21
23.207400
31
0.0
0
LINE
8
0
6
CONTINUOUS
10
-154.220590
20
22.630500
30
0.0
11
-154.073530
21
22.822800
31
0.0
0
LINE
8
0
6
CONTINUOUS
10
-154.073530
20
22.822800
30
0.0
11
-154.000000
21
23.207400
31
0.0
0
LINE
8
0
6
CONTINUOUS
10
-154.000000
20
23.207400
30
0.0
11
-154.000000
21
23.630500
31
0.0
0
LINE
8
0
6
CONTINUOUS
10
-175.000000
20
23.895200
30
0.0
11
-174.807700
21
23.718700
31
0.0
0
LINE
8
0
6
CONTINUOUS
10
-174.807700
20
23.718700
30
0.0
11
-174.423100
21
23.630500
31
0.0
0
LINE
8
0
6
CONTINUOUS
10
-174.423100
20
23.630500
30
0.0
11
-164.000000
21
23.630500
31
0.0
0
LINE
8
0
6
CONTINUOUS
10
-154.000000
20
23.630500
30
0.0
11
-151.000000
21
23.630500
31
0.0
0
LINE
8
0
6
CONTINUOUS
10
-151.000000
20
22.630500
30
0.0
11
-149.828819
21
22.630500
31
0.0
0
LINE
8
0
6
CONTINUOUS
10
-149.807131
20
64.630500
30
0.0
11
-151.000000
21
64.630500
31
0.0
0
LINE
8
0
6
CONTINUOUS
10
-174.807700
20
63.542300
30
0.0
11
-175.000000
21
63.365800
31
0.0
0
LINE
8
0
6
CONTINUOUS
10
-174.423100
20
63.630500
30
0.0
11
-174.807700
21
63.542300
31
0.0
0
LINE
8
0
6
CONTINUOUS
10
-151.000000
20
63.630500
30
0.0
11
-174.423100
21
63.630500
31
0.0
0
LINE
8
0
6
CONTINUOUS
10
-162.941200
20
18.784300
30
0.0
11
-162.823500
21
18.630500
31
0.0
0
LINE
8
0
6
CONTINUOUS
10
-163.000000
20
19.092000
30
0.0
11
-162.941200
21
18.784300
31
0.0
0
LINE
8
0
6
CONTINUOUS
10
-163.000000
20
22.630500
30
0.0
11
-163.000000
21
19.092000
31
0.0
0
LINE
8
0
6
CONTINUOUS
10
-155.176470
20
18.630500
30
0.0
11
-155.058820
21
18.784300
31
0.0
0
LINE
8
0
6
CONTINUOUS
10
-155.058820
20
18.784300
30
0.0
11
-155.000000
21
19.092000
31
0.0
0
LINE
8
0
6
CONTINUOUS
10
-155.000000
20
19.092000
30
0.0
11
-155.000000
21
22.630500
31
0.0
0
LINE
8
0
6
CONTINUOUS
10
-8.976000
20
14.650465
30
0.0
11
-8.976000
21
13.405133
31
0.0
0
LINE
8
0
6
CONTINUOUS
10
9.024000
20
14.650465
30
0.0
11
9.024000
21
13.405133
31
0.0
0
LINE
8
0
6
CONTINUOUS
10
0.052000
20
-72.440500
30
0.0
11
-1.899000
21
-74.423500
31
0.0
0
LINE
8
0
6
CONTINUOUS
10
-1.899000
20
-74.423500
30
0.0
11
-3.699000
21
-75.541500
31
0.0
0
LINE
8
0
6
CONTINUOUS
10
-3.699000
20
-75.541500
30
0.0
11
-5.200000
21
-76.204500
31
0.0
0
LINE
8
0
6
CONTINUOUS
10
-5.200000
20
-76.204500
30
0.0
11
-6.438000
21
-76.564500
31
0.0
0
LINE
8
0
6
CONTINUOUS
10
-6.438000
20
-76.564500
30
0.0
11
-7.113000
21
-76.622500
31
0.0
0
LINE
8
0
6
CONTINUOUS
10
-7.113000
20
-76.622500
30
0.0
11
-7.476000
21
-76.630500
31
0.0
0
LINE
8
0
6
CONTINUOUS
10
1.815000
20
-71.087500
30
0.0
11
0.052000
21
-72.440500
31
0.0
0
LINE
8
0
6
CONTINUOUS
10
3.653000
20
-69.881500
30
0.0
11
1.815000
21
-71.087500
31
0.0
0
LINE
8
0
6
CONTINUOUS
10
5.454000
20
-68.671500
30
0.0
11
3.653000
21
-69.881500
31
0.0
0
LINE
8
0
6
CONTINUOUS
10
6.542000
20
-67.606500
30
0.0
11
5.454000
21
-68.671500
31
0.0
0
LINE
8
0
6
CONTINUOUS
10
7.255000
20
-66.877500
30
0.0
11
6.542000
21
-67.606500
31
0.0
0
LINE
8
0
6
CONTINUOUS
10
7.524000
20
-66.631500
30
0.0
11
7.255000
21
-66.877500
31
0.0
0
LINE
8
0
6
CONTINUOUS
10
0.052000
20
-72.297500
30
0.0
11
1.815000
21
-70.951500
31
0.0
0
LINE
8
0
6
CONTINUOUS
10
1.924000
20
-16.565100
30
0.0
11
0.024000
21
-16.562200
31
0.0
0
LINE
8
0
6
CONTINUOUS
10
1.815000
20
-70.951500
30
0.0
11
3.653000
21
-69.758500
31
0.0
0
LINE
8
0
6
CONTINUOUS
10
3.724000
20
-16.571700
30
0.0
11
1.924000
21
-16.565100
31
0.0
0
LINE
8
0
6
CONTINUOUS
10
3.653000
20
-69.758500
30
0.0
11
5.454000
21
-68.570500
31
0.0
0
LINE
8
0
6
CONTINUOUS
10
5.324000
20
-16.583100
30
0.0
11
3.724000
21
-16.571700
31
0.0
0
LINE
8
0
6
CONTINUOUS
10
5.454000
20
-68.570500
30
0.0
11
6.542000
21
-67.536500
31
0.0
0
LINE
8
0
6
CONTINUOUS
10
6.524000
20
-16.598200
30
0.0
11
5.324000
21
-16.583100
31
0.0
0
LINE
8
0
6
CONTINUOUS
10
6.542000
20
-67.536500
30
0.0
11
7.255000
21
-66.841500
31
0.0
0
LINE
8
0
6
CONTINUOUS
10
7.224000
20
-16.615300
30
0.0
11
6.524000
21
-16.598200
31
0.0
0
LINE
8
0
6
CONTINUOUS
10
7.255000
20
-66.841500
30
0.0
11
7.524000
21
-66.631500
31
0.0
0
LINE
8
0
6
CONTINUOUS
10
7.524000
20
-16.633300
30
0.0
11
7.224000
21
-16.615300
31
0.0
0
LINE
8
0
6
CONTINUOUS
10
7.524000
20
-66.631500
30
0.0
11
7.524000
21
-16.633300
31
0.0
0
LINE
8
0
6
CONTINUOUS
10
-1.899000
20
-74.287500
30
0.0
11
0.052000
21
-72.297500
31
0.0
0
LINE
8
0
6
CONTINUOUS
10
0.024000
20
-16.562200
30
0.0
11
-1.876000
21
-16.565100
31
0.0
0
LINE
8
0
6
CONTINUOUS
10
-3.699000
20
-75.418500
30
0.0
11
-1.899000
21
-74.287500
31
0.0
0
LINE
8
0
6
CONTINUOUS
10
-1.876000
20
-16.565100
30
0.0
11
-3.676000
21
-16.571700
31
0.0
0
LINE
8
0
6
CONTINUOUS
10
-5.200000
20
-76.104500
30
0.0
11
-3.699000
21
-75.418500
31
0.0
0
LINE
8
0
6
CONTINUOUS
10
-3.676000
20
-16.571700
30
0.0
11
-5.276000
21
-16.583100
31
0.0
0
LINE
8
0
6
CONTINUOUS
10
-6.438000
20
-76.494500
30
0.0
11
-5.200000
21
-76.104500
31
0.0
0
LINE
8
0
6
CONTINUOUS
10
-5.276000
20
-16.583100
30
0.0
11
-6.476000
21
-16.598200
31
0.0
0
LINE
8
0
6
CONTINUOUS
10
-7.113000
20
-76.586500
30
0.0
11
-6.438000
21
-76.494500
31
0.0
0
LINE
8
0
6
CONTINUOUS
10
-6.476000
20
-16.598200
30
0.0
11
-7.176000
21
-16.615300
31
0.0
0
LINE
8
0
6
CONTINUOUS
10
-7.476000
20
-76.630500
30
0.0
11
-7.113000
21
-76.586500
31
0.0
0
LINE
8
0
6
CONTINUOUS
10
-7.476000
20
-16.633300
30
0.0
11
-7.476000
21
-76.630500
31
0.0
0
LINE
8
0
6
CONTINUOUS
10
-7.176000
20
-16.615300
30
0.0
11
-7.476000
21
-16.633300
31
0.0
0
LINE
8
0
6
CONTINUOUS
10
9.624000
20
13.390000
30
0.0
11
8.724000
21
13.412700
31
0.0
0
LINE
8
0
6
CONTINUOUS
10
7.124000
20
13.432600
30
0.0
11
8.724000
21
13.412700
31
0.0
0
LINE
8
0
6
CONTINUOUS
10
8.724000
20
13.412700
30
0.0
11
9.624000
21
13.390000
31
0.0
0
LINE
8
0
6
CONTINUOUS
10
9.624000
20
13.390000
30
0.0
11
10.024000
21
13.365400
31
0.0
0
LINE
8
0
6
CONTINUOUS
10
7.824000
20
-16.590700
30
0.0
11
6.424000
21
-16.572700
31
0.0
0
LINE
8
0
6
CONTINUOUS
10
8.724000
20
-16.611500
30
0.0
11
7.824000
21
-16.590700
31
0.0
0
LINE
8
0
6
CONTINUOUS
10
9.024000
20
-16.633300
30
0.0
11
8.724000
21
-16.611500
31
0.0
0
LINE
8
0
6
CONTINUOUS
10
6.424000
20
-16.572700
30
0.0
11
7.824000
21
-16.590700
31
0.0
0
LINE
8
0
6
CONTINUOUS
10
7.824000
20
-16.590700
30
0.0
11
8.724000
21
-16.611500
31
0.0
0
LINE
8
0
6
CONTINUOUS
10
8.724000
20
-16.611500
30
0.0
11
9.024000
21
-16.633300
31
0.0
0
LINE
8
0
6
CONTINUOUS
10
7.124000
20
13.432600
30
0.0
11
5.024000
21
13.447800
31
0.0
0
LINE
8
0
6
CONTINUOUS
10
2.624000
20
13.456300
30
0.0
11
0.024000
21
13.460100
31
0.0
0
LINE
8
0
6
CONTINUOUS
10
5.024000
20
13.447800
30
0.0
11
7.124000
21
13.432600
31
0.0
0
LINE
8
0
6
CONTINUOUS
10
2.624000
20
13.456300
30
0.0
11
5.024000
21
13.447800
31
0.0
0
LINE
8
0
6
CONTINUOUS
10
0.024000
20
13.460100
30
0.0
11
2.624000
21
13.456300
31
0.0
0
LINE
8
0
6
CONTINUOUS
10
6.424000
20
-16.572700
30
0.0
11
4.524000
21
-16.559400
31
0.0
0
LINE
8
0
6
CONTINUOUS
10
4.524000
20
-16.559400
30
0.0
11
2.324000
21
-16.550900
31
0.0
0
LINE
8
0
6
CONTINUOUS
10
2.324000
20
-16.550900
30
0.0
11
0.024000
21
-16.548000
31
0.0
0
LINE
8
0
6
CONTINUOUS
10
4.524000
20
-16.559400
30
0.0
11
6.424000
21
-16.572700
31
0.0
0
LINE
8
0
6
CONTINUOUS
10
2.324000
20
-16.550900
30
0.0
11
4.524000
21
-16.559400
31
0.0
0
LINE
8
0
6
CONTINUOUS
10
0.024000
20
-16.548000
30
0.0
11
2.324000
21
-16.550900
31
0.0
0
LINE
8
0
6
CONTINUOUS
10
11.024000
20
11.365500
30
0.0
11
10.024000
21
13.365400
31
0.0
0
LINE
8
0
6
CONTINUOUS
10
7.524000
20
-16.679757
30
0.0
11
7.824000
21
-16.675900
31
0.0
0
LINE
8
0
6
CONTINUOUS
10
7.824000
20
-16.675900
30
0.0
11
8.724000
21
-16.655100
31
0.0
0
LINE
8
0
6
CONTINUOUS
10
8.724000
20
-16.655100
30
0.0
11
9.024000
21
-16.633300
31
0.0
0
LINE
8
0
6
CONTINUOUS
10
9.024000
20
-16.633300
30
0.0
11
11.024000
21
11.365500
31
0.0
0
LINE
8
0
6
CONTINUOUS
10
7.824000
20
-16.675900
30
0.0
11
7.524000
21
-16.679757
31
0.0
0
LINE
8
0
6
CONTINUOUS
10
8.724000
20
-16.655100
30
0.0
11
7.824000
21
-16.675900
31
0.0
0
LINE
8
0
6
CONTINUOUS
10
9.024000
20
-16.633300
30
0.0
11
8.724000
21
-16.655100
31
0.0
0
LINE
8
0
6
CONTINUOUS
10
-7.776000
20
-16.675900
30
0.0
11
-7.476000
21
-16.679757
31
0.0
0
LINE
8
0
6
CONTINUOUS
10
-8.676000
20
-16.655100
30
0.0
11
-7.776000
21
-16.675900
31
0.0
0
LINE
8
0
6
CONTINUOUS
10
-8.976000
20
-16.633300
30
0.0
11
-8.676000
21
-16.655100
31
0.0
0
LINE
8
0
6
CONTINUOUS
10
-7.476000
20
-16.679757
30
0.0
11
-7.776000
21
-16.675900
31
0.0
0
LINE
8
0
6
CONTINUOUS
10
-7.776000
20
-16.675900
30
0.0
11
-8.676000
21
-16.655100
31
0.0
0
LINE
8
0
6
CONTINUOUS
10
-8.676000
20
-16.655100
30
0.0
11
-8.976000
21
-16.633300
31
0.0
0
LINE
8
0
6
CONTINUOUS
10
-2.576000
20
13.456300
30
0.0
11
-4.976000
21
13.447800
31
0.0
0
LINE
8
0
6
CONTINUOUS
10
0.024000
20
13.460100
30
0.0
11
-2.576000
21
13.456300
31
0.0
0
LINE
8
0
6
CONTINUOUS
10
-7.076000
20
13.432600
30
0.0
11
-4.976000
21
13.447800
31
0.0
0
LINE
8
0
6
CONTINUOUS
10
-4.976000
20
13.447800
30
0.0
11
-2.576000
21
13.456300
31
0.0
0
LINE
8
0
6
CONTINUOUS
10
-2.576000
20
13.456300
30
0.0
11
0.024000
21
13.460100
31
0.0
0
LINE
8
0
6
CONTINUOUS
10
-4.476000
20
-16.559400
30
0.0
11
-6.376000
21
-16.572700
31
0.0
0
LINE
8
0
6
CONTINUOUS
10
-2.276000
20
-16.550900
30
0.0
11
-4.476000
21
-16.559400
31
0.0
0
LINE
8
0
6
CONTINUOUS
10
0.024000
20
-16.548000
30
0.0
11
-2.276000
21
-16.550900
31
0.0
0
LINE
8
0
6
CONTINUOUS
10
-6.376000
20
-16.572700
30
0.0
11
-4.476000
21
-16.559400
31
0.0
0
LINE
8
0
6
CONTINUOUS
10
-4.476000
20
-16.559400
30
0.0
11
-2.276000
21
-16.550900
31
0.0
0
LINE
8
0
6
CONTINUOUS
10
-2.276000
20
-16.550900
30
0.0
11
0.024000
21
-16.548000
31
0.0
0
LINE
8
0
6
CONTINUOUS
10
-7.076000
20
13.432600
30
0.0
11
-8.676000
21
13.412700
31
0.0
0
LINE
8
0
6
CONTINUOUS
10
-8.676000
20
13.412700
30
0.0
11
-8.976000
21
13.405133
31
0.0
0
LINE
8
0
6
CONTINUOUS
10
-9.576000
20
13.390000
30
0.0
11
-9.976000
21
13.365400
31
0.0
0
LINE
8
0
6
CONTINUOUS
10
-8.676000
20
13.412700
30
0.0
11
-7.076000
21
13.432600
31
0.0
0
LINE
8
0
6
CONTINUOUS
10
-9.576000
20
13.390000
30
0.0
11
-8.676000
21
13.412700
31
0.0
0
LINE
8
0
6
CONTINUOUS
10
-9.976000
20
13.365400
30
0.0
11
-9.576000
21
13.390000
31
0.0
0
LINE
8
0
6
CONTINUOUS
10
-10.976000
20
11.365500
30
0.0
11
-9.976000
21
13.365400
31
0.0
0
LINE
8
0
6
CONTINUOUS
10
-6.376000
20
-16.572700
30
0.0
11
-7.776000
21
-16.590700
31
0.0
0
LINE
8
0
6
CONTINUOUS
10
-7.776000
20
-16.590700
30
0.0
11
-8.676000
21
-16.611500
31
0.0
0
LINE
8
0
6
CONTINUOUS
10
-8.676000
20
-16.611500
30
0.0
11
-8.976000
21
-16.633300
31
0.0
0
LINE
8
0
6
CONTINUOUS
10
-8.976000
20
-16.633300
30
0.0
11
-10.976000
21
11.365500
31
0.0
0
LINE
8
0
6
CONTINUOUS
10
-7.776000
20
-16.590700
30
0.0
11
-6.376000
21
-16.572700
31
0.0
0
LINE
8
0
6
CONTINUOUS
10
-8.676000
20
-16.611500
30
0.0
11
-7.776000
21
-16.590700
31
0.0
0
LINE
8
0
6
CONTINUOUS
10
-8.976000
20
-16.633300
30
0.0
11
-8.676000
21
-16.611500
31
0.0
0
LINE
8
0
6
CONTINUOUS
10
-0.000000
20
14.630500
30
0.0
11
145.305000
21
14.630500
31
0.0
0
LINE
8
0
6
CONTINUOUS
10
139.087000
20
71.634700
30
0.0
11
-0.000000
21
71.634700
31
0.0
0
LINE
8
0
6
CONTINUOUS
10
149.854000
20
19.170930
30
0.0
11
149.403000
21
17.673360
31
0.0
0
LINE
8
0
6
CONTINUOUS
10
149.364000
20
17.136700
30
0.0
11
149.602000
21
17.791850
31
0.0
0
LINE
8
0
6
CONTINUOUS
10
149.949000
20
19.297410
30
0.0
11
149.918000
21
19.030580
31
0.0
0
LINE
8
0
6
CONTINUOUS
10
150.000000
20
20.370720
30
0.0
11
150.000000
21
20.475340
31
0.0
0
LINE
8
0
6
CONTINUOUS
10
150.000000
20
20.370720
30
0.0
11
149.994000
21
20.039210
31
0.0
0
LINE
8
0
6
CONTINUOUS
10
149.990000
20
19.862920
30
0.0
11
149.941000
21
19.243600
31
0.0
0
LINE
8
0
6
CONTINUOUS
10
147.454000
20
15.109459
30
0.0
11
146.753000
21
14.839633
31
0.0
0
LINE
8
0
6
CONTINUOUS
10
149.040000
20
16.527370
30
0.0
11
148.621000
21
15.978730
31
0.0
0
LINE
8
0
6
CONTINUOUS
10
150.000000
20
21.670140
30
0.0
11
150.000000
21
23.604850
31
0.0
0
LINE
8
0
6
CONTINUOUS
10
150.000000
20
20.901490
30
0.0
11
150.000000
21
21.670140
31
0.0
0
LINE
8
0
6
CONTINUOUS
10
150.000000
20
52.545100
30
0.0
11
150.000000
21
55.012400
31
0.0
0
LINE
8
0
6
CONTINUOUS
10
150.000000
20
23.604850
30
0.0
11
150.000000
21
25.338300
31
0.0
0
LINE
8
0
6
CONTINUOUS
10
150.000000
20
23.605850
30
0.0
11
149.989000
21
24.223160
31
0.0
0
LINE
8
0
6
CONTINUOUS
10
149.040000
20
16.527370
30
0.0
11
149.364000
21
17.136700
31
0.0
0
LINE
8
0
6
CONTINUOUS
10
147.454000
20
15.109459
30
0.0
11
148.047000
21
15.477813
31
0.0
0
LINE
8
0
6
CONTINUOUS
10
145.956000
20
14.683307
30
0.0
11
145.311000
21
14.641481
31
0.0
0
LINE
8
0
6
CONTINUOUS
10
145.311000
20
14.641481
30
0.0
11
145.956000
21
14.683307
31
0.0
0
LINE
8
0
6
CONTINUOUS
10
145.889000
20
14.733020
30
0.0
11
147.375000
21
15.118444
31
0.0
0
LINE
8
0
6
CONTINUOUS
10
146.723000
20
14.848517
30
0.0
11
145.956000
21
14.683307
31
0.0
0
LINE
8
0
6
CONTINUOUS
10
148.047000
20
15.477813
30
0.0
11
148.535000
21
15.932910
31
0.0
0
LINE
8
0
6
CONTINUOUS
10
147.375000
20
15.118444
30
0.0
11
146.723000
21
14.848517
31
0.0
0
LINE
8
0
6
CONTINUOUS
10
147.375000
20
15.118444
30
0.0
11
148.535000
21
15.932910
31
0.0
0
LINE
8
0
6
CONTINUOUS
10
148.535000
20
15.932910
30
0.0
11
148.921000
21
16.460590
31
0.0
0
LINE
8
0
6
CONTINUOUS
10
147.911000
20
15.485799
30
0.0
11
147.375000
21
15.118444
31
0.0
0
LINE
8
0
6
CONTINUOUS
10
149.109000
20
16.613920
30
0.0
11
148.651000
21
16.007580
31
0.0
0
LINE
8
0
6
CONTINUOUS
10
149.973000
20
19.612060
30
0.0
11
149.989000
21
19.843050
31
0.0
0
LINE
8
0
6
CONTINUOUS
10
149.993000
20
19.958550
30
0.0
11
149.999000
21
20.201520
31
0.0
0
LINE
8
0
6
CONTINUOUS
10
149.999000
20
20.201520
30
0.0
11
150.000000
21
20.343870
31
0.0
0
LINE
8
0
6
CONTINUOUS
10
150.000000
20
20.475340
30
0.0
11
150.000000
21
20.901490
31
0.0
0
LINE
8
0
6
CONTINUOUS
10
150.000000
20
25.338300
30
0.0
11
150.000000
21
28.571400
31
0.0
0
LINE
8
0
6
CONTINUOUS
10
150.000000
20
39.585900
30
0.0
11
150.000000
21
42.784200
31
0.0
0
LINE
8
0
6
CONTINUOUS
10
150.000000
20
36.705400
30
0.0
11
150.000000
21
39.585900
31
0.0
0
LINE
8
0
6
CONTINUOUS
10
150.000000
20
33.249200
30
0.0
11
150.000000
21
36.705400
31
0.0
0
LINE
8
0
6
CONTINUOUS
10
150.000000
20
30.073900
30
0.0
11
150.000000
21
33.249200
31
0.0
0
LINE
8
0
6
CONTINUOUS
10
150.000000
20
42.784200
30
0.0
11
150.000000
21
45.197700
31
0.0
0
LINE
8
0
6
CONTINUOUS
10
150.000000
20
45.197700
30
0.0
11
150.000000
21
48.830100
31
0.0
0
LINE
8
0
6
CONTINUOUS
10
150.000000
20
48.830100
30
0.0
11
150.000000
21
52.545100
31
0.0
0
LINE
8
0
6
CONTINUOUS
10
150.000000
20
57.762600
30
0.0
11
150.000000
21
55.012400
31
0.0
0
LINE
8
0
6
CONTINUOUS
10
150.000000
20
64.824100
30
0.0
11
150.000000
21
67.268600
31
0.0
0
LINE
8
0
6
CONTINUOUS
10
150.000000
20
62.389700
30
0.0
11
150.000000
21
64.824100
31
0.0
0
LINE
8
0
6
CONTINUOUS
10
150.000000
20
59.932200
30
0.0
11
150.000000
21
62.389700
31
0.0
0
LINE
8
0
6
CONTINUOUS
10
150.000000
20
59.932200
30
0.0
11
150.000000
21
57.762600
31
0.0
0
LINE
8
0
6
CONTINUOUS
10
150.000000
20
67.268600
30
0.0
11
150.000000
21
69.729000
31
0.0
0
LINE
8
0
6
CONTINUOUS
10
150.000000
20
69.729000
30
0.0
11
150.000000
21
72.207300
31
0.0
0
LINE
8
0
6
CONTINUOUS
10
150.000000
20
72.207300
30
0.0
11
150.000000
21
72.630500
31
0.0
0
LINE
8
0
6
CONTINUOUS
10
150.000000
20
72.630500
30
0.0
11
149.844000
21
72.630500
31
0.0
0
LINE
8
0
6
CONTINUOUS
10
148.409000
20
71.578000
30
0.0
11
148.243000
21
71.634700
31
0.0
0
LINE
8
0
6
CONTINUOUS
10
150.000000
20
28.571400
30
0.0
11
150.000000
21
30.073900
31
0.0
0
LINE
8
0
6
CONTINUOUS
10
149.207000
20
17.045060
30
0.0
11
149.403000
21
17.673360
31
0.0
0
LINE
8
0
6
CONTINUOUS
10
149.109000
20
16.613920
30
0.0
11
148.681000
21
16.040420
31
0.0
0
LINE
8
0
6
CONTINUOUS
10
149.622000
20
17.716180
30
0.0
11
149.821000
21
18.463970
31
0.0
0
LINE
8
0
6
CONTINUOUS
10
149.442000
20
17.255190
30
0.0
11
149.109000
21
16.613920
31
0.0
0
LINE
8
0
6
CONTINUOUS
10
149.821000
20
18.463970
30
0.0
11
149.941000
21
19.243600
31
0.0
0
LINE
8
0
6
CONTINUOUS
10
149.688000
20
17.950170
30
0.0
11
149.442000
21
17.255190
31
0.0
0
LINE
8
0
6
CONTINUOUS
10
149.941000
20
19.243600
30
0.0
11
149.994000
21
20.039210
31
0.0
0
LINE
8
0
6
CONTINUOUS
10
149.853000
20
18.679090
30
0.0
11
149.688000
21
17.950170
31
0.0
0
LINE
8
0
6
CONTINUOUS
10
149.949000
20
19.425780
30
0.0
11
149.853000
21
18.679090
31
0.0
0
LINE
8
0
6
CONTINUOUS
10
150.000000
20
20.475340
30
0.0
11
149.991000
21
20.171570
31
0.0
0
LINE
8
0
6
CONTINUOUS
10
149.949000
20
19.425780
30
0.0
11
149.991000
21
20.171570
31
0.0
0
LINE
8
0
6
CONTINUOUS
10
149.991000
20
20.171570
30
0.0
11
149.760000
21
18.473950
31
0.0
0
LINE
8
0
6
CONTINUOUS
10
148.921000
20
16.460590
30
0.0
11
149.602000
21
17.791850
31
0.0
0
LINE
8
0
6
CONTINUOUS
10
149.602000
20
17.791850
30
0.0
11
149.760000
21
18.473950
31
0.0
0
LINE
8
0
6
CONTINUOUS
10
149.760000
20
18.473950
30
0.0
11
149.207000
21
17.045060
31
0.0
0
LINE
8
0
6
CONTINUOUS
10
147.911000
20
15.485799
30
0.0
11
148.921000
21
16.460590
31
0.0
0
LINE
8
0
6
CONTINUOUS
10
148.921000
20
16.460590
30
0.0
11
149.207000
21
17.045060
31
0.0
0
LINE
8
0
6
CONTINUOUS
10
149.207000
20
17.045060
30
0.0
11
148.329000
21
15.939900
31
0.0
0
LINE
8
0
6
CONTINUOUS
10
146.574000
20
14.919293
30
0.0
11
147.911000
21
15.485799
31
0.0
0
LINE
8
0
6
CONTINUOUS
10
147.911000
20
15.485799
30
0.0
11
148.329000
21
15.939900
31
0.0
0
LINE
8
0
6
CONTINUOUS
10
148.329000
20
15.939900
30
0.0
11
147.126000
21
15.222960
31
0.0
0
LINE
8
0
6
CONTINUOUS
10
146.574000
20
14.919293
30
0.0
11
147.126000
21
15.222960
31
0.0
0
LINE
8
0
6
CONTINUOUS
10
145.314000
20
14.687300
30
0.0
11
145.889000
21
14.733020
31
0.0
0
LINE
8
0
6
CONTINUOUS
10
145.889000
20
14.733020
30
0.0
11
146.574000
21
14.919293
31
0.0
0
LINE
8
0
6
CONTINUOUS
10
147.470000
20
15.116447
30
0.0
11
148.104000
21
15.506762
31
0.0
0
LINE
8
0
6
CONTINUOUS
10
148.104000
20
15.506762
30
0.0
11
148.621000
21
15.978730
31
0.0
0
LINE
8
0
6
CONTINUOUS
10
145.940000
20
14.676320
30
0.0
11
146.753000
21
14.839633
31
0.0
0
LINE
8
0
6
CONTINUOUS
10
149.993000
20
19.958550
30
0.0
11
150.000000
21
20.343870
31
0.0
0
LINE
8
0
6
CONTINUOUS
10
149.974000
20
19.582110
30
0.0
11
149.949000
21
19.297410
31
0.0
0
LINE
8
0
6
CONTINUOUS
10
140.744000
20
72.630500
30
0.0
11
139.087000
21
72.630500
31
0.0
0
LINE
8
0
6
CONTINUOUS
10
144.089000
20
72.630500
30
0.0
11
142.334000
21
72.630500
31
0.0
0
LINE
8
0
6
CONTINUOUS
10
142.334000
20
72.630500
30
0.0
11
140.744000
21
72.630500
31
0.0
0
LINE
8
0
6
CONTINUOUS
10
149.844000
20
72.630500
30
0.0
11
149.423000
21
72.630500
31
0.0
0
LINE
8
0
6
CONTINUOUS
10
149.423000
20
72.630500
30
0.0
11
148.782000
21
72.630500
31
0.0
0
LINE
8
0
6
CONTINUOUS
10
148.782000
20
72.630500
30
0.0
11
147.935000
21
72.630500
31
0.0
0
LINE
8
0
6
CONTINUOUS
10
147.935000
20
72.630500
30
0.0
11
146.897000
21
72.630500
31
0.0
0
LINE
8
0
6
CONTINUOUS
10
146.897000
20
72.630500
30
0.0
11
145.676000
21
72.630500
31
0.0
0
LINE
8
0
6
CONTINUOUS
10
145.676000
20
72.630500
30
0.0
11
144.089000
21
72.630500
31
0.0
0
LINE
8
0
6
CONTINUOUS
10
-0.000000
20
71.634700
30
0.0
11
139.087000
21
71.634700
31
0.0
0
LINE
8
0
6
CONTINUOUS
10
139.087000
20
72.630500
30
0.0
11
-0.000000
21
72.630500
31
0.0
0
LINE
8
0
6
CONTINUOUS
10
-145.305000
20
14.630500
30
0.0
11
-0.000000
21
14.630500
31
0.0
0
LINE
8
0
6
CONTINUOUS
10
-0.000000
20
71.634700
30
0.0
11
-139.087000
21
71.634700
31
0.0
0
LINE
8
0
6
CONTINUOUS
10
-149.403000
20
17.673360
30
0.0
11
-149.854000
21
19.170930
31
0.0
0
LINE
8
0
6
CONTINUOUS
10
-149.602000
20
17.791850
30
0.0
11
-149.364000
21
17.136700
31
0.0
0
LINE
8
0
6
CONTINUOUS
10
-149.918000
20
19.030580
30
0.0
11
-149.949000
21
19.297410
31
0.0
0
LINE
8
0
6
CONTINUOUS
10
-150.000000
20
20.475340
30
0.0
11
-150.000000
21
20.370720
31
0.0
0
LINE
8
0
6
CONTINUOUS
10
-149.994000
20
20.039210
30
0.0
11
-150.000000
21
20.370720
31
0.0
0
LINE
8
0
6
CONTINUOUS
10
-149.941000
20
19.243600
30
0.0
11
-149.990000
21
19.862920
31
0.0
0
LINE
8
0
6
CONTINUOUS
10
-146.753000
20
14.839633
30
0.0
11
-147.454000
21
15.109459
31
0.0
0
LINE
8
0
6
CONTINUOUS
10
-148.621000
20
15.978730
30
0.0
11
-149.040000
21
16.527370
31
0.0
0
LINE
8
0
6
CONTINUOUS
10
-150.000000
20
23.604850
30
0.0
11
-150.000000
21
21.670140
31
0.0
0
LINE
8
0
6
CONTINUOUS
10
-150.000000
20
21.670140
30
0.0
11
-150.000000
21
20.901490
31
0.0
0
LINE
8
0
6
CONTINUOUS
10
-150.000000
20
55.012400
30
0.0
11
-150.000000
21
52.545100
31
0.0
0
LINE
8
0
6
CONTINUOUS
10
-150.000000
20
25.338300
30
0.0
11
-150.000000
21
23.604850
31
0.0
0
LINE
8
0
6
CONTINUOUS
10
-149.989000
20
24.223160
30
0.0
11
-150.000000
21
23.605850
31
0.0
0
LINE
8
0
6
CONTINUOUS
10
-149.364000
20
17.136700
30
0.0
11
-149.040000
21
16.527370
31
0.0
0
LINE
8
0
6
CONTINUOUS
10
-148.047000
20
15.477813
30
0.0
11
-147.454000
21
15.109459
31
0.0
0
LINE
8
0
6
CONTINUOUS
10
-145.311000
20
14.641481
30
0.0
11
-145.956000
21
14.683307
31
0.0
0
LINE
8
0
6
CONTINUOUS
10
-145.956000
20
14.683307
30
0.0
11
-145.311000
21
14.641481
31
0.0
0
LINE
8
0
6
CONTINUOUS
10
-147.375000
20
15.118444
30
0.0
11
-145.889000
21
14.733020
31
0.0
0
LINE
8
0
6
CONTINUOUS
10
-145.956000
20
14.683307
30
0.0
11
-146.723000
21
14.848517
31
0.0
0
LINE
8
0
6
CONTINUOUS
10
-148.535000
20
15.932910
30
0.0
11
-148.047000
21
15.477813
31
0.0
0
LINE
8
0
6
CONTINUOUS
10
-146.723000
20
14.848517
30
0.0
11
-147.375000
21
15.118444
31
0.0
0
LINE
8
0
6
CONTINUOUS
10
-148.535000
20
15.932910
30
0.0
11
-147.375000
21
15.118444
31
0.0
0
LINE
8
0
6
CONTINUOUS
10
-148.921000
20
16.460590
30
0.0
11
-148.535000
21
15.932910
31
0.0
0
LINE
8
0
6
CONTINUOUS
10
-147.375000
20
15.118444
30
0.0
11
-147.911000
21
15.485799
31
0.0
0
LINE
8
0
6
CONTINUOUS
10
-148.651000
20
16.007580
30
0.0
11
-149.109000
21
16.613920
31
0.0
0
LINE
8
0
6
CONTINUOUS
10
-149.989000
20
19.843050
30
0.0
11
-149.973000
21
19.612060
31
0.0
0
LINE
8
0
6
CONTINUOUS
10
-149.999000
20
20.201520
30
0.0
11
-149.993000
21
19.958550
31
0.0
0
LINE
8
0
6
CONTINUOUS
10
-150.000000
20
20.343870
30
0.0
11
-149.999000
21
20.201520
31
0.0
0
LINE
8
0
6
CONTINUOUS
10
-150.000000
20
20.901490
30
0.0
11
-150.000000
21
20.475340
31
0.0
0
LINE
8
0
6
CONTINUOUS
10
-150.000000
20
28.571400
30
0.0
11
-150.000000
21
25.338300
31
0.0
0
LINE
8
0
6
CONTINUOUS
10
-150.000000
20
42.784200
30
0.0
11
-150.000000
21
39.585900
31
0.0
0
LINE
8
0
6
CONTINUOUS
10
-150.000000
20
39.585900
30
0.0
11
-150.000000
21
36.705400
31
0.0
0
LINE
8
0
6
CONTINUOUS
10
-150.000000
20
36.705400
30
0.0
11
-150.000000
21
33.249200
31
0.0
0
LINE
8
0
6
CONTINUOUS
10
-150.000000
20
33.249200
30
0.0
11
-150.000000
21
30.073900
31
0.0
0
LINE
8
0
6
CONTINUOUS
10
-150.000000
20
45.197700
30
0.0
11
-150.000000
21
42.784200
31
0.0
0
LINE
8
0
6
CONTINUOUS
10
-150.000000
20
48.830100
30
0.0
11
-150.000000
21
45.197700
31
0.0
0
LINE
8
0
6
CONTINUOUS
10
-150.000000
20
52.545100
30
0.0
11
-150.000000
21
48.830100
31
0.0
0
LINE
8
0
6
CONTINUOUS
10
-150.000000
20
55.012400
30
0.0
11
-150.000000
21
57.762600
31
0.0
0
LINE
8
0
6
CONTINUOUS
10
-150.000000
20
67.268600
30
0.0
11
-150.000000
21
64.824100
31
0.0
0
LINE
8
0
6
CONTINUOUS
10
-150.000000
20
64.824100
30
0.0
11
-150.000000
21
62.389700
31
0.0
0
LINE
8
0
6
CONTINUOUS
10
-150.000000
20
62.389700
30
0.0
11
-150.000000
21
59.932200
31
0.0
0
LINE
8
0
6
CONTINUOUS
10
-150.000000
20
57.762600
30
0.0
11
-150.000000
21
59.932200
31
0.0
0
LINE
8
0
6
CONTINUOUS
10
-150.000000
20
69.729000
30
0.0
11
-150.000000
21
67.268600
31
0.0
0
LINE
8
0
6
CONTINUOUS
10
-150.000000
20
72.207300
30
0.0
11
-150.000000
21
69.729000
31
0.0
0
LINE
8
0
6
CONTINUOUS
10
-150.000000
20
72.630500
30
0.0
11
-150.000000
21
72.207300
31
0.0
0
LINE
8
0
6
CONTINUOUS
10
-149.844000
20
72.630500
30
0.0
11
-150.000000
21
72.630500
31
0.0
0
LINE
8
0
6
CONTINUOUS
10
-148.243000
20
71.634700
30
0.0
11
-148.409000
21
71.578000
31
0.0
0
LINE
8
0
6
CONTINUOUS
10
-150.000000
20
30.073900
30
0.0
11
-150.000000
21
28.571400
31
0.0
0
LINE
8
0
6
CONTINUOUS
10
-149.403000
20
17.673360
30
0.0
11
-149.207000
21
17.045060
31
0.0
0
LINE
8
0
6
CONTINUOUS
10
-148.681000
20
16.040420
30
0.0
11
-149.109000
21
16.613920
31
0.0
0
LINE
8
0
6
CONTINUOUS
10
-149.821000
20
18.463970
30
0.0
11
-149.622000
21
17.716180
31
0.0
0
LINE
8
0
6
CONTINUOUS
10
-149.109000
20
16.613920
30
0.0
11
-149.442000
21
17.255190
31
0.0
0
LINE
8
0
6
CONTINUOUS
10
-149.941000
20
19.243600
30
0.0
11
-149.821000
21
18.463970
31
0.0
0
LINE
8
0
6
CONTINUOUS
10
-149.442000
20
17.255190
30
0.0
11
-149.688000
21
17.950170
31
0.0
0
LINE
8
0
6
CONTINUOUS
10
-149.994000
20
20.039210
30
0.0
11
-149.941000
21
19.243600
31
0.0
0
LINE
8
0
6
CONTINUOUS
10
-149.688000
20
17.950170
30
0.0
11
-149.853000
21
18.679090
31
0.0
0
LINE
8
0
6
CONTINUOUS
10
-149.853000
20
18.679090
30
0.0
11
-149.949000
21
19.425780
31
0.0
0
LINE
8
0
6
CONTINUOUS
10
-149.991000
20
20.171570
30
0.0
11
-150.000000
21
20.475340
31
0.0
0
LINE
8
0
6
CONTINUOUS
10
-149.991000
20
20.171570
30
0.0
11
-149.949000
21
19.425780
31
0.0
0
LINE
8
0
6
CONTINUOUS
10
-149.760000
20
18.473950
30
0.0
11
-149.991000
21
20.171570
31
0.0
0
LINE
8
0
6
CONTINUOUS
10
-149.602000
20
17.791850
30
0.0
11
-148.921000
21
16.460590
31
0.0
0
LINE
8
0
6
CONTINUOUS
10
-149.760000
20
18.473950
30
0.0
11
-149.602000
21
17.791850
31
0.0
0
LINE
8
0
6
CONTINUOUS
10
-149.207000
20
17.045060
30
0.0
11
-149.760000
21
18.473950
31
0.0
0
LINE
8
0
6
CONTINUOUS
10
-148.921000
20
16.460590
30
0.0
11
-147.911000
21
15.485799
31
0.0
0
LINE
8
0
6
CONTINUOUS
10
-149.207000
20
17.045060
30
0.0
11
-148.921000
21
16.460590
31
0.0
0
LINE
8
0
6
CONTINUOUS
10
-148.329000
20
15.939900
30
0.0
11
-149.207000
21
17.045060
31
0.0
0
LINE
8
0
6
CONTINUOUS
10
-147.911000
20
15.485799
30
0.0
11
-146.574000
21
14.919293
31
0.0
0
LINE
8
0
6
CONTINUOUS
10
-148.329000
20
15.939900
30
0.0
11
-147.911000
21
15.485799
31
0.0
0
LINE
8
0
6
CONTINUOUS
10
-147.126000
20
15.222960
30
0.0
11
-148.329000
21
15.939900
31
0.0
0
LINE
8
0
6
CONTINUOUS
10
-147.126000
20
15.222960
30
0.0
11
-146.574000
21
14.919293
31
0.0
0
LINE
8
0
6
CONTINUOUS
10
-145.889000
20
14.733020
30
0.0
11
-145.314000
21
14.687300
31
0.0
0
LINE
8
0
6
CONTINUOUS
10
-146.574000
20
14.919293
30
0.0
11
-145.889000
21
14.733020
31
0.0
0
LINE
8
0
6
CONTINUOUS
10
-148.104000
20
15.506762
30
0.0
11
-147.470000
21
15.116447
31
0.0
0
LINE
8
0
6
CONTINUOUS
10
-148.621000
20
15.978730
30
0.0
11
-148.104000
21
15.506762
31
0.0
0
LINE
8
0
6
CONTINUOUS
10
-146.753000
20
14.839633
30
0.0
11
-145.940000
21
14.676320
31
0.0
0
LINE
8
0
6
CONTINUOUS
10
-150.000000
20
20.343870
30
0.0
11
-149.993000
21
19.958550
31
0.0
0
LINE
8
0
6
CONTINUOUS
10
-149.949000
20
19.297410
30
0.0
11
-149.974000
21
19.582110
31
0.0
0
LINE
8
0
6
CONTINUOUS
10
-139.087000
20
72.630500
30
0.0
11
-140.744000
21
72.630500
31
0.0
0
LINE
8
0
6
CONTINUOUS
10
-142.334000
20
72.630500
30
0.0
11
-144.089000
21
72.630500
31
0.0
0
LINE
8
0
6
CONTINUOUS
10
-140.744000
20
72.630500
30
0.0
11
-142.334000
21
72.630500
31
0.0
0
LINE
8
0
6
CONTINUOUS
10
-149.423000
20
72.630500
30
0.0
11
-149.844000
21
72.630500
31
0.0
0
LINE
8
0
6
CONTINUOUS
10
-148.782000
20
72.630500
30
0.0
11
-149.423000
21
72.630500
31
0.0
0
LINE
8
0
6
CONTINUOUS
10
-147.935000
20
72.630500
30
0.0
11
-148.782000
21
72.630500
31
0.0
0
LINE
8
0
6
CONTINUOUS
10
-146.897000
20
72.630500
30
0.0
11
-147.935000
21
72.630500
31
0.0
0
LINE
8
0
6
CONTINUOUS
10
-145.676000
20
72.630500
30
0.0
11
-146.897000
21
72.630500
31
0.0
0
LINE
8
0
6
CONTINUOUS
10
-144.089000
20
72.630500
30
0.0
11
-145.676000
21
72.630500
31
0.0
0
LINE
8
0
6
CONTINUOUS
10
-139.087000
20
71.634700
30
0.0
11
-0.000000
21
71.634700
31
0.0
0
LINE
8
0
6
CONTINUOUS
10
-0.000000
20
72.630500
30
0.0
11
-139.087000
21
72.630500
31
0.0
0
ENDSEC
0
EOF
