999
unknown String-ID: 20550
0
SECTION
2
HEADER
9
$ACADVER
1
AC1009
9
$DWGCODEPAGE
3
unknown String-ID: 20561
0
ENDSEC
0
SECTION
2
TABLES
0
TABLE
2
LAYER
70
1
0
LAYER
2
0
70
0
62
7
6
CONTINUOUS
0
ENDTAB
0
ENDSEC
0
SECTION
2
ENTITIES
0
LINE
8
0
6
CONTINUOUS
10
-16.545627
20
7.503294
30
0.0
11
-16.545627
21
7.426217
31
0.0
0
LINE
8
0
6
CONTINUOUS
10
-18.145626
20
7.503293
30
0.0
11
-18.145626
21
7.426217
31
0.0
0
LINE
8
0
6
CONTINUOUS
10
-16.545626
20
8.171980
30
0.0
11
-16.545627
21
7.503294
31
0.0
0
LINE
8
0
6
CONTINUOUS
10
-18.145626
20
8.171978
30
0.0
11
-18.145626
21
7.503293
31
0.0
0
LINE
8
0
6
CONTINUOUS
10
-16.545626
20
8.665913
30
0.0
11
-16.545626
21
8.171980
31
0.0
0
LINE
8
0
6
CONTINUOUS
10
-18.145626
20
8.665911
30
0.0
11
-18.145626
21
8.171978
31
0.0
0
LINE
8
0
6
CONTINUOUS
10
-16.545626
20
9.010670
30
0.0
11
-16.545626
21
8.665913
31
0.0
0
LINE
8
0
6
CONTINUOUS
10
-18.145626
20
9.010668
30
0.0
11
-18.145626
21
8.665911
31
0.0
0
LINE
8
0
6
CONTINUOUS
10
-16.545626
20
9.231825
30
0.0
11
-16.545626
21
9.010670
31
0.0
0
LINE
8
0
6
CONTINUOUS
10
-18.145626
20
9.231823
30
0.0
11
-18.145626
21
9.010668
31
0.0
0
LINE
8
0
6
CONTINUOUS
10
-16.545626
20
9.354954
30
0.0
11
-16.545626
21
9.231825
31
0.0
0
LINE
8
0
6
CONTINUOUS
10
-18.145626
20
9.354952
30
0.0
11
-18.145626
21
9.231823
31
0.0
0
LINE
8
0
6
CONTINUOUS
10
-16.545627
20
9.405631
30
0.0
11
-16.545626
21
9.354954
31
0.0
0
LINE
8
0
6
CONTINUOUS
10
-18.145626
20
9.405629
30
0.0
11
-18.145626
21
9.354952
31
0.0
0
LINE
8
0
6
CONTINUOUS
10
-17.345628
20
10.209426
30
0.0
11
-16.945627
21
10.102247
31
0.0
0
LINE
8
0
6
CONTINUOUS
10
-16.945627
20
10.102247
30
0.0
11
-16.652807
21
9.809429
31
0.0
0
LINE
8
0
6
CONTINUOUS
10
-16.652807
20
9.809429
30
0.0
11
-16.545627
21
9.409431
31
0.0
0
LINE
8
0
6
CONTINUOUS
10
-18.145626
20
9.409429
30
0.0
11
-18.038448
21
9.809427
31
0.0
0
LINE
8
0
6
CONTINUOUS
10
-18.038448
20
9.809427
30
0.0
11
-17.745628
21
10.102246
31
0.0
0
LINE
8
0
6
CONTINUOUS
10
-17.745628
20
10.102246
30
0.0
11
-17.345628
21
10.209426
31
0.0
0
LINE
8
0
6
CONTINUOUS
10
-22.534488
20
3.637036
30
0.0
11
-22.502513
21
3.637036
31
0.0
0
LINE
8
0
6
CONTINUOUS
10
-22.502513
20
3.637036
30
0.0
11
-18.650768
21
3.637035
31
0.0
0
LINE
8
0
6
CONTINUOUS
10
-16.453696
20
5.298120
30
0.0
11
-16.453696
21
5.320214
31
0.0
0
LINE
8
0
6
CONTINUOUS
10
-18.347932
20
4.856986
30
0.0
11
-18.367159
21
4.798253
31
0.0
0
LINE
8
0
6
CONTINUOUS
10
-18.327237
20
4.885604
30
0.0
11
-18.347932
21
4.856986
31
0.0
0
LINE
8
0
6
CONTINUOUS
10
-16.453696
20
5.927702
30
0.0
11
-16.453696
21
6.281580
31
0.0
0
LINE
8
0
6
CONTINUOUS
10
-16.453696
20
6.281580
30
0.0
11
-16.453696
21
6.606638
31
0.0
0
LINE
8
0
6
CONTINUOUS
10
-17.762487
20
5.482425
30
0.0
11
-17.637510
21
5.502752
31
0.0
0
LINE
8
0
6
CONTINUOUS
10
-18.396348
20
4.771313
30
0.0
11
-18.376638
21
4.831523
31
0.0
0
LINE
8
0
6
CONTINUOUS
10
-18.376638
20
4.831523
30
0.0
11
-18.293601
21
4.946353
31
0.0
0
LINE
8
0
6
CONTINUOUS
10
-16.453696
20
6.890381
30
0.0
11
-16.453696
21
7.121911
31
0.0
0
LINE
8
0
6
CONTINUOUS
10
-16.453696
20
6.606638
30
0.0
11
-16.453696
21
6.890381
31
0.0
0
LINE
8
0
6
CONTINUOUS
10
-16.804257
20
5.488894
30
0.0
11
-16.703371
21
5.399759
31
0.0
0
LINE
8
0
6
CONTINUOUS
10
-16.949146
20
5.512690
30
0.0
11
-16.804257
21
5.488894
31
0.0
0
LINE
8
0
6
CONTINUOUS
10
-16.453696
20
5.558604
30
0.0
11
-16.453696
21
5.927702
31
0.0
0
LINE
8
0
6
CONTINUOUS
10
-16.453696
20
5.320214
30
0.0
11
-16.453696
21
5.558604
31
0.0
0
LINE
8
0
6
CONTINUOUS
10
-16.453696
20
5.320214
30
0.0
11
-16.493752
21
5.349995
31
0.0
0
LINE
8
0
6
CONTINUOUS
10
-16.453696
20
5.320214
30
0.0
11
-16.631612
21
5.374111
31
0.0
0
LINE
8
0
6
CONTINUOUS
10
-16.640587
20
5.344287
30
0.0
11
-16.453696
21
5.320214
31
0.0
0
LINE
8
0
6
CONTINUOUS
10
-22.534488
20
7.426217
30
0.0
11
-22.502513
21
7.426217
31
0.0
0
LINE
8
0
6
CONTINUOUS
10
-17.261253
20
7.426217
30
0.0
11
-16.804257
21
7.426217
31
0.0
0
LINE
8
0
6
CONTINUOUS
10
-17.762487
20
7.426217
30
0.0
11
-17.261253
21
7.426217
31
0.0
0
LINE
8
0
6
CONTINUOUS
10
-18.118520
20
7.426217
30
0.0
11
-17.762487
21
7.426217
31
0.0
0
LINE
8
0
6
CONTINUOUS
10
-16.804257
20
7.426217
30
0.0
11
-16.493752
21
7.426217
31
0.0
0
LINE
8
0
6
CONTINUOUS
10
-16.453695
20
7.426217
30
0.0
11
-16.493752
21
7.426217
31
0.0
0
LINE
8
0
6
CONTINUOUS
10
-16.453696
20
7.395079
30
0.0
11
-16.453695
21
7.426217
31
0.0
0
LINE
8
0
6
CONTINUOUS
10
-16.453696
20
7.121911
30
0.0
11
-16.453695
21
7.292326
31
0.0
0
LINE
8
0
6
CONTINUOUS
10
-16.453695
20
7.292326
30
0.0
11
-16.453696
21
7.395079
31
0.0
0
LINE
8
0
6
CONTINUOUS
10
-22.502513
20
7.426217
30
0.0
11
-21.596675
21
7.426217
31
0.0
0
LINE
8
0
6
CONTINUOUS
10
-19.396675
20
7.426217
30
0.0
11
-18.118520
21
7.426217
31
0.0
0
LINE
8
0
6
CONTINUOUS
10
-16.792953
20
5.516658
30
0.0
11
-16.631612
21
5.374111
31
0.0
0
LINE
8
0
6
CONTINUOUS
10
-22.534488
20
3.637036
30
0.0
11
-22.534488
21
3.678702
31
0.0
0
LINE
8
0
6
CONTINUOUS
10
-22.534488
20
3.678702
30
0.0
11
-22.534488
21
3.791576
31
0.0
0
LINE
8
0
6
CONTINUOUS
10
-22.534488
20
6.606636
30
0.0
11
-22.534488
21
6.890381
31
0.0
0
LINE
8
0
6
CONTINUOUS
10
-22.534488
20
4.211022
30
0.0
11
-22.534488
21
4.501480
31
0.0
0
LINE
8
0
6
CONTINUOUS
10
-22.534488
20
5.558604
30
0.0
11
-22.534488
21
5.927702
31
0.0
0
LINE
8
0
6
CONTINUOUS
10
-22.534488
20
7.292326
30
0.0
11
-22.534488
21
7.395076
31
0.0
0
LINE
8
0
6
CONTINUOUS
10
-22.534488
20
6.890381
30
0.0
11
-22.534488
21
7.121911
31
0.0
0
LINE
8
0
6
CONTINUOUS
10
-22.534488
20
3.791576
30
0.0
11
-22.534488
21
3.971319
31
0.0
0
LINE
8
0
6
CONTINUOUS
10
-22.534488
20
6.281580
30
0.0
11
-22.534488
21
6.606636
31
0.0
0
LINE
8
0
6
CONTINUOUS
10
-22.534488
20
7.121911
30
0.0
11
-22.534488
21
7.292326
31
0.0
0
LINE
8
0
6
CONTINUOUS
10
-22.534488
20
4.501480
30
0.0
11
-22.534488
21
4.831521
31
0.0
0
LINE
8
0
6
CONTINUOUS
10
-22.534488
20
7.395076
30
0.0
11
-22.534488
21
7.426217
31
0.0
0
LINE
8
0
6
CONTINUOUS
10
-22.534488
20
5.188469
30
0.0
11
-22.534488
21
5.558604
31
0.0
0
LINE
8
0
6
CONTINUOUS
10
-22.534488
20
3.971319
30
0.0
11
-22.534488
21
4.211022
31
0.0
0
LINE
8
0
6
CONTINUOUS
10
-22.534488
20
5.927702
30
0.0
11
-22.534488
21
6.281580
31
0.0
0
LINE
8
0
6
CONTINUOUS
10
-22.534488
20
4.831521
30
0.0
11
-22.534488
21
5.188469
31
0.0
0
LINE
8
0
6
CONTINUOUS
10
-24.647751
20
3.644291
30
0.0
11
-24.719016
21
3.644291
31
0.0
0
LINE
8
0
6
CONTINUOUS
10
-24.719016
20
7.400276
30
0.0
11
-24.647751
21
7.418954
31
0.0
0
LINE
8
0
6
CONTINUOUS
10
-24.647751
20
3.644291
30
0.0
11
-22.621677
21
3.644291
31
0.0
0
LINE
8
0
6
CONTINUOUS
10
-22.621677
20
7.418954
30
0.0
11
-24.647751
21
7.418954
31
0.0
0
LINE
8
0
6
CONTINUOUS
10
-22.621677
20
3.644291
30
0.0
11
-22.592614
21
3.644291
31
0.0
0
LINE
8
0
6
CONTINUOUS
10
-22.592614
20
7.418954
30
0.0
11
-22.621677
21
7.418954
31
0.0
0
LINE
8
0
6
CONTINUOUS
10
-24.719016
20
3.644291
30
0.0
11
-24.719016
21
3.708601
31
0.0
0
LINE
8
0
6
CONTINUOUS
10
-24.719016
20
3.708601
30
0.0
11
-24.719015
21
3.897147
31
0.0
0
LINE
8
0
6
CONTINUOUS
10
-24.719015
20
3.897147
30
0.0
11
-24.719015
21
4.197078
31
0.0
0
LINE
8
0
6
CONTINUOUS
10
-24.719015
20
4.197078
30
0.0
11
-24.719014
21
4.587956
31
0.0
0
LINE
8
0
6
CONTINUOUS
10
-24.719014
20
4.587956
30
0.0
11
-24.719014
21
5.043145
31
0.0
0
LINE
8
0
6
CONTINUOUS
10
-24.719014
20
5.043145
30
0.0
11
-24.719014
21
5.531622
31
0.0
0
LINE
8
0
6
CONTINUOUS
10
-24.719014
20
5.531622
30
0.0
11
-24.719014
21
6.020099
31
0.0
0
LINE
8
0
6
CONTINUOUS
10
-24.719014
20
6.020099
30
0.0
11
-24.719014
21
6.475287
31
0.0
0
LINE
8
0
6
CONTINUOUS
10
-24.719014
20
6.475287
30
0.0
11
-24.719015
21
6.866167
31
0.0
0
LINE
8
0
6
CONTINUOUS
10
-24.719015
20
6.866167
30
0.0
11
-24.719015
21
7.166100
31
0.0
0
LINE
8
0
6
CONTINUOUS
10
-24.719015
20
7.166100
30
0.0
11
-24.719016
21
7.354645
31
0.0
0
LINE
8
0
6
CONTINUOUS
10
-24.719016
20
7.354645
30
0.0
11
-24.719016
21
7.400276
31
0.0
0
LINE
8
0
6
CONTINUOUS
10
-24.638049
20
4.319422
30
0.0
11
-24.649369
21
4.319116
31
0.0
0
LINE
8
0
6
CONTINUOUS
10
-24.638049
20
4.319422
30
0.0
11
-23.083593
21
4.316719
31
0.0
0
LINE
8
0
6
CONTINUOUS
10
-23.083593
20
4.316719
30
0.0
11
-23.072351
21
4.317051
31
0.0
0
LINE
8
0
6
CONTINUOUS
10
-24.654060
20
4.335186
30
0.0
11
-24.649369
21
4.319116
31
0.0
0
LINE
8
0
6
CONTINUOUS
10
-24.649369
20
4.319116
30
0.0
11
-24.645144
21
4.323449
31
0.0
0
LINE
8
0
6
CONTINUOUS
10
-24.645144
20
4.323449
30
0.0
11
-24.641670
21
4.347891
31
0.0
0
LINE
8
0
6
CONTINUOUS
10
-24.641670
20
4.347891
30
0.0
11
-24.639182
21
4.390776
31
0.0
0
LINE
8
0
6
CONTINUOUS
10
-24.639182
20
4.390776
30
0.0
11
-24.637853
21
4.449181
31
0.0
0
LINE
8
0
6
CONTINUOUS
10
-24.637853
20
4.449181
30
0.0
11
-24.637772
21
4.519126
31
0.0
0
LINE
8
0
6
CONTINUOUS
10
-24.637772
20
4.519126
30
0.0
11
-24.638943
21
4.595846
31
0.0
0
LINE
8
0
6
CONTINUOUS
10
-24.638943
20
4.595846
30
0.0
11
-24.641291
21
4.674110
31
0.0
0
LINE
8
0
6
CONTINUOUS
10
-24.641291
20
4.674110
30
0.0
11
-24.644649
21
4.748587
31
0.0
0
LINE
8
0
6
CONTINUOUS
10
-24.644649
20
4.748587
30
0.0
11
-24.648794
21
4.814198
31
0.0
0
LINE
8
0
6
CONTINUOUS
10
-24.648794
20
4.814198
30
0.0
11
-24.653440
21
4.866476
31
0.0
0
LINE
8
0
6
CONTINUOUS
10
-24.653440
20
4.866476
30
0.0
11
-24.658272
21
4.901855
31
0.0
0
LINE
8
0
6
CONTINUOUS
10
-24.712965
20
5.178416
30
0.0
11
-24.658272
21
4.901855
31
0.0
0
LINE
8
0
6
CONTINUOUS
10
-23.072351
20
5.177673
30
0.0
11
-23.072351
21
4.899545
31
0.0
0
LINE
8
0
6
CONTINUOUS
10
-23.072351
20
4.321228
30
0.0
11
-23.072351
21
4.317051
31
0.0
0
LINE
8
0
6
CONTINUOUS
10
-23.072351
20
4.345521
30
0.0
11
-23.072351
21
4.321228
31
0.0
0
LINE
8
0
6
CONTINUOUS
10
-23.072351
20
4.388277
30
0.0
11
-23.072351
21
4.345521
31
0.0
0
LINE
8
0
6
CONTINUOUS
10
-23.072351
20
4.446578
30
0.0
11
-23.072351
21
4.388277
31
0.0
0
LINE
8
0
6
CONTINUOUS
10
-23.072351
20
4.516452
30
0.0
11
-23.072351
21
4.446578
31
0.0
0
LINE
8
0
6
CONTINUOUS
10
-23.072351
20
4.593140
30
0.0
11
-23.072351
21
4.516452
31
0.0
0
LINE
8
0
6
CONTINUOUS
10
-23.072351
20
4.671411
30
0.0
11
-23.072351
21
4.593140
31
0.0
0
LINE
8
0
6
CONTINUOUS
10
-23.072351
20
4.745936
30
0.0
11
-23.072351
21
4.671411
31
0.0
0
LINE
8
0
6
CONTINUOUS
10
-23.072351
20
4.811634
30
0.0
11
-23.072351
21
4.745936
31
0.0
0
LINE
8
0
6
CONTINUOUS
10
-23.072351
20
4.864027
30
0.0
11
-23.072351
21
4.811634
31
0.0
0
LINE
8
0
6
CONTINUOUS
10
-23.072351
20
4.899545
30
0.0
11
-23.072351
21
4.864027
31
0.0
0
LINE
8
0
6
CONTINUOUS
10
-24.708755
20
4.611748
30
0.0
11
-24.654060
21
4.335186
31
0.0
0
LINE
8
0
6
CONTINUOUS
10
-22.592614
20
3.708601
30
0.0
11
-22.592614
21
3.644291
31
0.0
0
LINE
8
0
6
CONTINUOUS
10
-22.592613
20
3.897147
30
0.0
11
-22.592614
21
3.708601
31
0.0
0
LINE
8
0
6
CONTINUOUS
10
-22.592613
20
4.197078
30
0.0
11
-22.592613
21
3.897147
31
0.0
0
LINE
8
0
6
CONTINUOUS
10
-22.592612
20
4.587956
30
0.0
11
-22.592613
21
4.197078
31
0.0
0
LINE
8
0
6
CONTINUOUS
10
-22.592612
20
5.043145
30
0.0
11
-22.592612
21
4.587956
31
0.0
0
LINE
8
0
6
CONTINUOUS
10
-22.592612
20
5.531622
30
0.0
11
-22.592612
21
5.043145
31
0.0
0
LINE
8
0
6
CONTINUOUS
10
-22.592612
20
6.020099
30
0.0
11
-22.592612
21
5.531622
31
0.0
0
LINE
8
0
6
CONTINUOUS
10
-22.592612
20
6.475287
30
0.0
11
-22.592612
21
6.020099
31
0.0
0
LINE
8
0
6
CONTINUOUS
10
-22.592613
20
6.866167
30
0.0
11
-22.592612
21
6.475287
31
0.0
0
LINE
8
0
6
CONTINUOUS
10
-22.592613
20
7.166100
30
0.0
11
-22.592613
21
6.866167
31
0.0
0
LINE
8
0
6
CONTINUOUS
10
-22.592614
20
7.418954
30
0.0
11
-22.592614
21
7.354645
31
0.0
0
LINE
8
0
6
CONTINUOUS
10
-22.592614
20
7.354645
30
0.0
11
-22.592613
21
7.166100
31
0.0
0
LINE
8
0
6
CONTINUOUS
10
-19.448132
20
11.750802
30
0.0
11
-19.396675
21
11.750802
31
0.0
0
LINE
8
0
6
CONTINUOUS
10
-21.545218
20
11.750802
30
0.0
11
-21.596675
21
11.750802
31
0.0
0
LINE
8
0
6
CONTINUOUS
10
-19.436675
20
5.268259
30
0.0
11
-19.396675
21
5.548274
31
0.0
0
LINE
8
0
6
CONTINUOUS
10
-19.546675
20
4.998247
30
0.0
11
-19.436675
21
5.268259
31
0.0
0
LINE
8
0
6
CONTINUOUS
10
-19.716675
20
4.768234
30
0.0
11
-19.546675
21
4.998247
31
0.0
0
LINE
8
0
6
CONTINUOUS
10
-19.946675
20
4.598226
30
0.0
11
-19.716675
21
4.768234
31
0.0
0
LINE
8
0
6
CONTINUOUS
10
-20.216675
20
4.488221
30
0.0
11
-19.946675
21
4.598226
31
0.0
0
LINE
8
0
6
CONTINUOUS
10
-20.496675
20
4.448218
30
0.0
11
-20.216675
21
4.488221
31
0.0
0
LINE
8
0
6
CONTINUOUS
10
-21.596675
20
5.548274
30
0.0
11
-21.556675
21
5.268259
31
0.0
0
LINE
8
0
6
CONTINUOUS
10
-21.556675
20
5.268259
30
0.0
11
-21.446675
21
4.998247
31
0.0
0
LINE
8
0
6
CONTINUOUS
10
-21.446675
20
4.998247
30
0.0
11
-21.276675
21
4.768234
31
0.0
0
LINE
8
0
6
CONTINUOUS
10
-21.276675
20
4.768234
30
0.0
11
-21.046675
21
4.598226
31
0.0
0
LINE
8
0
6
CONTINUOUS
10
-21.046675
20
4.598226
30
0.0
11
-20.776675
21
4.488221
31
0.0
0
LINE
8
0
6
CONTINUOUS
10
-20.776675
20
4.488221
30
0.0
11
-20.496675
21
4.448218
31
0.0
0
LINE
8
0
6
CONTINUOUS
10
-19.396675
20
11.700800
30
0.0
11
-19.396675
21
11.750802
31
0.0
0
LINE
8
0
6
CONTINUOUS
10
-21.545218
20
11.750802
30
0.0
11
-19.448132
21
11.750802
31
0.0
0
LINE
8
0
6
CONTINUOUS
10
-19.448132
20
11.750802
30
0.0
11
-19.396675
21
11.750802
31
0.0
0
LINE
8
0
6
CONTINUOUS
10
-19.448132
20
11.750802
30
0.0
11
-21.545218
21
11.750802
31
0.0
0
LINE
8
0
6
CONTINUOUS
10
-21.545218
20
11.750802
30
0.0
11
-21.596675
21
11.750802
31
0.0
0
LINE
8
0
6
CONTINUOUS
10
-21.596675
20
11.750802
30
0.0
11
-21.535223
21
11.750802
31
0.0
0
LINE
8
0
6
CONTINUOUS
10
-19.396675
20
5.548274
30
0.0
11
-19.396675
21
11.700800
31
0.0
0
LINE
8
0
6
CONTINUOUS
10
-19.446675
20
11.750802
30
0.0
11
-21.535223
21
11.750802
31
0.0
0
LINE
8
0
6
CONTINUOUS
10
-19.446675
20
11.750802
30
0.0
11
-19.396675
21
11.750802
31
0.0
0
LINE
8
0
6
CONTINUOUS
10
-21.546675
20
11.750802
30
0.0
11
-19.446675
21
11.750802
31
0.0
0
LINE
8
0
6
CONTINUOUS
10
-19.446675
20
11.750802
30
0.0
11
-19.396675
21
11.750802
31
0.0
0
LINE
8
0
6
CONTINUOUS
10
-21.596675
20
11.700800
30
0.0
11
-21.596675
21
5.548274
31
0.0
0
LINE
8
0
6
CONTINUOUS
10
-21.596675
20
11.750802
30
0.0
11
-21.596675
21
11.700800
31
0.0
0
LINE
8
0
6
CONTINUOUS
10
-21.546675
20
11.750802
30
0.0
11
-21.596675
21
11.750802
31
0.0
0
LINE
8
0
6
CONTINUOUS
10
15.502600
20
9.058703
30
0.0
11
15.363699
21
9.058703
31
0.0
0
LINE
8
0
6
CONTINUOUS
10
16.882552
20
9.058703
30
0.0
11
16.605247
21
9.058703
31
0.0
0
LINE
8
0
6
CONTINUOUS
10
15.363699
20
9.058703
30
0.0
11
15.179676
21
8.991428
31
0.0
0
LINE
8
0
6
CONTINUOUS
10
15.150161
20
8.941098
30
0.0
11
15.150160
21
8.304745
31
0.0
0
LINE
8
0
6
CONTINUOUS
10
15.150161
20
8.976508
30
0.0
11
15.150161
21
8.941098
31
0.0
0
LINE
8
0
6
CONTINUOUS
10
15.150161
20
8.976508
30
0.0
11
15.170803
21
8.984454
31
0.0
0
LINE
8
0
6
CONTINUOUS
10
15.159983
20
8.984228
30
0.0
11
15.150161
21
8.976508
31
0.0
0
LINE
8
0
6
CONTINUOUS
10
15.179676
20
8.991428
30
0.0
11
15.159983
21
8.984228
31
0.0
0
LINE
8
0
6
CONTINUOUS
10
15.363699
20
9.058703
30
0.0
11
15.170803
21
8.984454
31
0.0
0
LINE
8
0
6
CONTINUOUS
10
16.605247
20
9.058703
30
0.0
11
15.502600
21
9.058703
31
0.0
0
LINE
8
0
6
CONTINUOUS
10
16.178171
20
8.976508
30
0.0
11
16.219454
21
8.984454
31
0.0
0
LINE
8
0
6
CONTINUOUS
10
15.686623
20
8.991428
30
0.0
11
15.706316
21
8.984228
31
0.0
0
LINE
8
0
6
CONTINUOUS
10
16.605247
20
9.058703
30
0.0
11
16.219454
21
8.984454
31
0.0
0
LINE
8
0
6
CONTINUOUS
10
15.686623
20
8.991428
30
0.0
11
15.502600
21
9.058703
31
0.0
0
LINE
8
0
6
CONTINUOUS
10
16.178171
20
8.976508
30
0.0
11
15.706316
21
8.984228
31
0.0
0
LINE
8
0
6
CONTINUOUS
10
17.247864
20
9.058703
30
0.0
11
16.893652
21
9.058703
31
0.0
0
LINE
8
0
6
CONTINUOUS
10
16.893652
20
9.058703
30
0.0
11
16.882552
21
9.058703
31
0.0
0
LINE
8
0
6
CONTINUOUS
10
17.250599
20
8.991428
30
0.0
11
17.289984
21
8.984228
31
0.0
0
LINE
8
0
6
CONTINUOUS
10
17.250599
20
8.991428
30
0.0
11
16.893929
21
9.056623
31
0.0
0
LINE
8
0
6
CONTINUOUS
10
16.893929
20
9.056623
30
0.0
11
16.882552
21
9.058703
31
0.0
0
LINE
8
0
6
CONTINUOUS
10
15.363699
20
7.550787
30
0.0
11
15.502600
21
7.550787
31
0.0
0
LINE
8
0
6
CONTINUOUS
10
16.605247
20
7.550787
30
0.0
11
16.882552
21
7.550787
31
0.0
0
LINE
8
0
6
CONTINUOUS
10
15.179676
20
7.618063
30
0.0
11
15.363699
21
7.550787
31
0.0
0
LINE
8
0
6
CONTINUOUS
10
15.150160
20
8.304745
30
0.0
11
15.150161
21
7.668392
31
0.0
0
LINE
8
0
6
CONTINUOUS
10
15.150161
20
7.668392
30
0.0
11
15.150161
21
7.632982
31
0.0
0
LINE
8
0
6
CONTINUOUS
10
15.159983
20
7.625262
30
0.0
11
15.179676
21
7.618063
31
0.0
0
LINE
8
0
6
CONTINUOUS
10
15.150161
20
7.632982
30
0.0
11
15.159983
21
7.625262
31
0.0
0
LINE
8
0
6
CONTINUOUS
10
15.170803
20
7.625037
30
0.0
11
15.150161
21
7.632982
31
0.0
0
LINE
8
0
6
CONTINUOUS
10
15.170803
20
7.625037
30
0.0
11
15.363699
21
7.550787
31
0.0
0
LINE
8
0
6
CONTINUOUS
10
15.502600
20
7.550787
30
0.0
11
16.605247
21
7.550787
31
0.0
0
LINE
8
0
6
CONTINUOUS
10
15.706316
20
7.625262
30
0.0
11
15.686623
21
7.618063
31
0.0
0
LINE
8
0
6
CONTINUOUS
10
16.219454
20
7.625037
30
0.0
11
16.178171
21
7.632982
31
0.0
0
LINE
8
0
6
CONTINUOUS
10
16.219454
20
7.625037
30
0.0
11
16.605247
21
7.550787
31
0.0
0
LINE
8
0
6
CONTINUOUS
10
15.502600
20
7.550787
30
0.0
11
15.686623
21
7.618063
31
0.0
0
LINE
8
0
6
CONTINUOUS
10
15.706316
20
7.625262
30
0.0
11
16.178171
21
7.632982
31
0.0
0
LINE
8
0
6
CONTINUOUS
10
17.289984
20
7.625262
30
0.0
11
17.250599
21
7.618063
31
0.0
0
LINE
8
0
6
CONTINUOUS
10
16.882552
20
7.550787
30
0.0
11
16.893929
21
7.552867
31
0.0
0
LINE
8
0
6
CONTINUOUS
10
16.893929
20
7.552867
30
0.0
11
17.250599
21
7.618063
31
0.0
0
LINE
8
0
6
CONTINUOUS
10
0.283047
20
9.058703
30
0.0
11
0.099025
21
8.991428
31
0.0
0
LINE
8
0
6
CONTINUOUS
10
1.801404
20
9.058703
30
0.0
11
1.524098
21
9.058703
31
0.0
0
LINE
8
0
6
CONTINUOUS
10
0.069509
20
8.941098
30
0.0
11
0.069509
21
8.304745
31
0.0
0
LINE
8
0
6
CONTINUOUS
10
0.099025
20
8.991428
30
0.0
11
0.079332
21
8.984228
31
0.0
0
LINE
8
0
6
CONTINUOUS
10
0.069509
20
8.976508
30
0.0
11
0.069509
21
8.941098
31
0.0
0
LINE
8
0
6
CONTINUOUS
10
0.079332
20
8.984228
30
0.0
11
0.069509
21
8.976508
31
0.0
0
LINE
8
0
6
CONTINUOUS
10
2.187196
20
8.984454
30
0.0
11
2.228479
21
8.976508
31
0.0
0
LINE
8
0
6
CONTINUOUS
10
2.187196
20
8.984454
30
0.0
11
1.812703
21
9.056529
31
0.0
0
LINE
8
0
6
CONTINUOUS
10
1.812703
20
9.056529
30
0.0
11
1.801404
21
9.058703
31
0.0
0
LINE
8
0
6
CONTINUOUS
10
1.524098
20
9.058703
30
0.0
11
0.421451
21
9.058703
31
0.0
0
LINE
8
0
6
CONTINUOUS
10
1.116666
20
8.984228
30
0.0
11
1.156051
21
8.991428
31
0.0
0
LINE
8
0
6
CONTINUOUS
10
0.614348
20
8.984454
30
0.0
11
0.634989
21
8.976508
31
0.0
0
LINE
8
0
6
CONTINUOUS
10
0.421451
20
9.058703
30
0.0
11
0.283047
21
9.058703
31
0.0
0
LINE
8
0
6
CONTINUOUS
10
0.614348
20
8.984454
30
0.0
11
0.421451
21
9.058703
31
0.0
0
LINE
8
0
6
CONTINUOUS
10
1.524098
20
9.058703
30
0.0
11
1.156051
21
8.991428
31
0.0
0
LINE
8
0
6
CONTINUOUS
10
1.116666
20
8.984228
30
0.0
11
0.634989
21
8.976508
31
0.0
0
LINE
8
0
6
CONTINUOUS
10
0.099025
20
7.618063
30
0.0
11
0.283047
21
7.550787
31
0.0
0
LINE
8
0
6
CONTINUOUS
10
1.524098
20
7.550787
30
0.0
11
1.801404
21
7.550787
31
0.0
0
LINE
8
0
6
CONTINUOUS
10
0.069509
20
8.304745
30
0.0
11
0.069509
21
7.668392
31
0.0
0
LINE
8
0
6
CONTINUOUS
10
0.079332
20
7.625262
30
0.0
11
0.099025
21
7.618063
31
0.0
0
LINE
8
0
6
CONTINUOUS
10
0.069509
20
7.632982
30
0.0
11
0.079332
21
7.625262
31
0.0
0
LINE
8
0
6
CONTINUOUS
10
0.069509
20
7.668392
30
0.0
11
0.069509
21
7.632982
31
0.0
0
LINE
8
0
6
CONTINUOUS
10
1.801404
20
7.550787
30
0.0
11
1.813001
21
7.550787
31
0.0
0
LINE
8
0
6
CONTINUOUS
10
2.228479
20
7.632982
30
0.0
11
2.187196
21
7.625037
31
0.0
0
LINE
8
0
6
CONTINUOUS
10
1.801404
20
7.550787
30
0.0
11
1.812703
21
7.552961
31
0.0
0
LINE
8
0
6
CONTINUOUS
10
1.812703
20
7.552961
30
0.0
11
2.187196
21
7.625037
31
0.0
0
LINE
8
0
6
CONTINUOUS
10
0.421451
20
7.550787
30
0.0
11
1.524098
21
7.550787
31
0.0
0
LINE
8
0
6
CONTINUOUS
10
0.634989
20
7.632982
30
0.0
11
0.614348
21
7.625037
31
0.0
0
LINE
8
0
6
CONTINUOUS
10
1.156051
20
7.618063
30
0.0
11
1.116666
21
7.625262
31
0.0
0
LINE
8
0
6
CONTINUOUS
10
0.283047
20
7.550787
30
0.0
11
0.421451
21
7.550787
31
0.0
0
LINE
8
0
6
CONTINUOUS
10
0.421451
20
7.550787
30
0.0
11
0.614348
21
7.625037
31
0.0
0
LINE
8
0
6
CONTINUOUS
10
1.156051
20
7.618063
30
0.0
11
1.524098
21
7.550787
31
0.0
0
LINE
8
0
6
CONTINUOUS
10
0.634989
20
7.632982
30
0.0
11
1.116666
21
7.625262
31
0.0
0
LINE
8
0
6
CONTINUOUS
10
5.378901
20
9.616951
30
0.0
11
5.378901
21
9.552758
31
0.0
0
LINE
8
0
6
CONTINUOUS
10
-1.413858
20
9.616951
30
0.0
11
-1.413858
21
9.552758
31
0.0
0
LINE
8
0
6
CONTINUOUS
10
2.643834
20
11.750800
30
0.0
11
1.979760
21
11.750799
31
0.0
0
LINE
8
0
6
CONTINUOUS
10
3.284029
20
11.750799
30
0.0
11
2.643834
21
11.750800
31
0.0
0
LINE
8
0
6
CONTINUOUS
10
3.877877
20
11.750799
30
0.0
11
3.284029
21
11.750799
31
0.0
0
LINE
8
0
6
CONTINUOUS
10
4.390971
20
11.750800
30
0.0
11
3.877877
21
11.750799
31
0.0
0
LINE
8
0
6
CONTINUOUS
10
4.814009
20
11.750800
30
0.0
11
4.390971
21
11.750800
31
0.0
0
LINE
8
0
6
CONTINUOUS
10
5.129769
20
11.750801
30
0.0
11
4.814009
21
11.750800
31
0.0
0
LINE
8
0
6
CONTINUOUS
10
5.316134
20
11.750801
30
0.0
11
5.129769
21
11.750801
31
0.0
0
LINE
8
0
6
CONTINUOUS
10
5.378903
20
11.750802
30
0.0
11
5.316134
21
11.750801
31
0.0
0
LINE
8
0
6
CONTINUOUS
10
5.311931
20
11.750805
30
0.0
11
5.378903
21
11.750802
31
0.0
0
LINE
8
0
6
CONTINUOUS
10
5.111023
20
11.750803
30
0.0
11
5.311931
21
11.750805
31
0.0
0
LINE
8
0
6
CONTINUOUS
10
4.796362
20
11.750804
30
0.0
11
5.111023
21
11.750803
31
0.0
0
LINE
8
0
6
CONTINUOUS
10
4.374182
20
11.750804
30
0.0
11
4.796362
21
11.750804
31
0.0
0
LINE
8
0
6
CONTINUOUS
10
3.854939
20
11.750805
30
0.0
11
4.374182
21
11.750804
31
0.0
0
LINE
8
0
6
CONTINUOUS
10
3.272612
20
11.750805
30
0.0
11
3.854939
21
11.750805
31
0.0
0
LINE
8
0
6
CONTINUOUS
10
2.643225
20
11.750806
30
0.0
11
3.272612
21
11.750805
31
0.0
0
LINE
8
0
6
CONTINUOUS
10
1.975710
20
11.750806
30
0.0
11
2.643225
21
11.750806
31
0.0
0
LINE
8
0
6
CONTINUOUS
10
1.321513
20
11.750805
30
0.0
11
1.975710
21
11.750806
31
0.0
0
LINE
8
0
6
CONTINUOUS
10
0.690354
20
11.750805
30
0.0
11
1.321513
21
11.750805
31
0.0
0
LINE
8
0
6
CONTINUOUS
10
0.100100
20
11.750805
30
0.0
11
0.690354
21
11.750805
31
0.0
0
LINE
8
0
6
CONTINUOUS
10
-0.408620
20
11.750804
30
0.0
11
0.100100
21
11.750805
31
0.0
0
LINE
8
0
6
CONTINUOUS
10
-0.831726
20
11.750803
30
0.0
11
-0.408620
21
11.750804
31
0.0
0
LINE
8
0
6
CONTINUOUS
10
-1.149221
20
11.750803
30
0.0
11
-0.831726
21
11.750803
31
0.0
0
LINE
8
0
6
CONTINUOUS
10
-1.341989
20
11.750803
30
0.0
11
-1.149221
21
11.750803
31
0.0
0
LINE
8
0
6
CONTINUOUS
10
-1.413855
20
11.750802
30
0.0
11
-1.341989
21
11.750803
31
0.0
0
LINE
8
0
6
CONTINUOUS
10
-1.351853
20
11.750801
30
0.0
11
-1.413855
21
11.750802
31
0.0
0
LINE
8
0
6
CONTINUOUS
10
-1.160387
20
11.750801
30
0.0
11
-1.351853
21
11.750801
31
0.0
0
LINE
8
0
6
CONTINUOUS
10
-0.852869
20
11.750800
30
0.0
11
-1.160387
21
11.750801
31
0.0
0
LINE
8
0
6
CONTINUOUS
10
-0.429904
20
11.750801
30
0.0
11
-0.852869
21
11.750800
31
0.0
0
LINE
8
0
6
CONTINUOUS
10
0.085276
20
11.750799
30
0.0
11
-0.429904
21
11.750801
31
0.0
0
LINE
8
0
6
CONTINUOUS
10
0.671057
20
11.750800
30
0.0
11
0.085276
21
11.750799
31
0.0
0
LINE
8
0
6
CONTINUOUS
10
1.314040
20
11.750799
30
0.0
11
0.671057
21
11.750800
31
0.0
0
LINE
8
0
6
CONTINUOUS
10
1.979760
20
11.750799
30
0.0
11
1.314040
21
11.750799
31
0.0
0
LINE
8
0
6
CONTINUOUS
10
5.378901
20
9.552758
30
0.0
11
5.329553
21
9.440211
31
0.0
0
LINE
8
0
6
CONTINUOUS
10
-1.413858
20
9.552758
30
0.0
11
-1.375151
21
9.448094
31
0.0
0
LINE
8
0
6
CONTINUOUS
10
0.670485
20
7.300807
30
0.0
11
0.770031
21
7.300807
31
0.0
0
LINE
8
0
6
CONTINUOUS
10
1.978224
20
7.300806
30
0.0
11
2.478676
21
7.300806
31
0.0
0
LINE
8
0
6
CONTINUOUS
10
2.902937
20
7.300806
30
0.0
11
3.186419
21
7.300806
31
0.0
0
LINE
8
0
6
CONTINUOUS
10
1.477776
20
7.300807
30
0.0
11
1.978224
21
7.300806
31
0.0
0
LINE
8
0
6
CONTINUOUS
10
0.770031
20
7.300807
30
0.0
11
1.053515
21
7.300807
31
0.0
0
LINE
8
0
6
CONTINUOUS
10
0.670485
20
7.300807
30
0.0
11
0.665088
21
7.550787
31
0.0
0
LINE
8
0
6
CONTINUOUS
10
0.632532
20
9.058703
30
0.0
11
0.627652
21
9.284758
31
0.0
0
LINE
8
0
6
CONTINUOUS
10
3.285965
20
7.300806
30
0.0
11
3.292191
21
7.550787
31
0.0
0
LINE
8
0
6
CONTINUOUS
10
3.329744
20
9.058703
30
0.0
11
3.335363
21
9.284356
31
0.0
0
LINE
8
0
6
CONTINUOUS
10
3.186419
20
7.300806
30
0.0
11
3.285965
21
7.300806
31
0.0
0
LINE
8
0
6
CONTINUOUS
10
2.478676
20
7.300806
30
0.0
11
2.902937
21
7.300806
31
0.0
0
LINE
8
0
6
CONTINUOUS
10
1.070906
20
1.944656
30
0.0
11
2.028435
21
1.931969
31
0.0
0
LINE
8
0
6
CONTINUOUS
10
3.554625
20
7.246143
30
0.0
11
3.570458
21
6.892089
31
0.0
0
LINE
8
0
6
CONTINUOUS
10
2.632498
20
9.435098
30
0.0
11
1.978049
21
9.435103
31
0.0
0
LINE
8
0
6
CONTINUOUS
10
3.261950
20
9.434010
30
0.0
11
2.632498
21
9.435098
31
0.0
0
LINE
8
0
6
CONTINUOUS
10
3.841010
20
9.435018
30
0.0
11
3.261950
21
9.434010
31
0.0
0
LINE
8
0
6
CONTINUOUS
10
4.349045
20
9.436217
30
0.0
11
3.841010
21
9.435018
31
0.0
0
LINE
8
0
6
CONTINUOUS
10
4.766118
20
9.436305
30
0.0
11
4.349045
21
9.436217
31
0.0
0
LINE
8
0
6
CONTINUOUS
10
5.075421
20
9.437087
30
0.0
11
4.766118
21
9.436305
31
0.0
0
LINE
8
0
6
CONTINUOUS
10
5.265493
20
9.439285
30
0.0
11
5.075421
21
9.437087
31
0.0
0
LINE
8
0
6
CONTINUOUS
10
5.329553
20
9.440211
30
0.0
11
5.265493
21
9.439285
31
0.0
0
LINE
8
0
6
CONTINUOUS
10
5.329553
20
9.440211
30
0.0
11
5.171114
21
9.427828
31
0.0
0
LINE
8
0
6
CONTINUOUS
10
-1.375151
20
9.448094
30
0.0
11
-1.216550
21
9.435159
31
0.0
0
LINE
8
0
6
CONTINUOUS
10
-1.312973
20
9.446120
30
0.0
11
-1.375151
21
9.448094
31
0.0
0
LINE
8
0
6
CONTINUOUS
10
-1.122888
20
9.445266
30
0.0
11
-1.312973
21
9.446120
31
0.0
0
LINE
8
0
6
CONTINUOUS
10
-0.808513
20
9.439264
30
0.0
11
-1.122888
21
9.445266
31
0.0
0
LINE
8
0
6
CONTINUOUS
10
-0.392503
20
9.437403
30
0.0
11
-0.808513
21
9.439264
31
0.0
0
LINE
8
0
6
CONTINUOUS
10
0.115658
20
9.437421
30
0.0
11
-0.392503
21
9.437403
31
0.0
0
LINE
8
0
6
CONTINUOUS
10
0.695288
20
9.436244
30
0.0
11
0.115658
21
9.437421
31
0.0
0
LINE
8
0
6
CONTINUOUS
10
1.323519
20
9.434061
30
0.0
11
0.695288
21
9.436244
31
0.0
0
LINE
8
0
6
CONTINUOUS
10
1.978049
20
9.435103
30
0.0
11
1.323519
21
9.434061
31
0.0
0
LINE
8
0
6
CONTINUOUS
10
1.053515
20
7.300807
30
0.0
11
1.477776
21
7.300807
31
0.0
0
LINE
8
0
6
CONTINUOUS
10
9.503325
20
6.650834
30
0.0
11
15.094664
21
6.660039
31
0.0
0
LINE
8
0
6
CONTINUOUS
10
2.787854
20
1.928815
30
0.0
11
9.503325
21
1.901643
31
0.0
0
LINE
8
0
6
CONTINUOUS
10
-1.069833
20
1.971229
30
0.0
11
1.070906
21
1.944656
31
0.0
0
LINE
8
0
6
CONTINUOUS
10
-0.207975
20
5.724170
30
0.0
11
-1.069833
21
5.714378
31
0.0
0
LINE
8
0
6
CONTINUOUS
10
2.028435
20
1.931969
30
0.0
11
2.787854
21
1.928815
31
0.0
0
LINE
8
0
6
CONTINUOUS
10
0.412732
20
7.246031
30
0.0
11
0.392191
21
6.052622
31
0.0
0
LINE
8
0
6
CONTINUOUS
10
0.272446
20
5.823702
30
0.0
11
0.392191
21
6.052622
31
0.0
0
LINE
8
0
6
CONTINUOUS
10
3.686387
20
6.687106
30
0.0
11
3.570458
21
6.892089
31
0.0
0
LINE
8
0
6
CONTINUOUS
10
-0.207975
20
5.724170
30
0.0
11
0.055220
21
5.750661
31
0.0
0
LINE
8
0
6
CONTINUOUS
10
0.303942
20
5.846933
30
0.0
11
0.055220
21
5.750661
31
0.0
0
LINE
8
0
6
CONTINUOUS
10
0.441431
20
5.803281
30
0.0
11
0.303942
21
5.846933
31
0.0
0
LINE
8
0
6
CONTINUOUS
10
0.666771
20
5.707572
30
0.0
11
0.441431
21
5.803281
31
0.0
0
LINE
8
0
6
CONTINUOUS
10
1.000815
20
5.602356
30
0.0
11
0.666771
21
5.707572
31
0.0
0
LINE
8
0
6
CONTINUOUS
10
3.912000
20
6.660037
30
0.0
11
3.983294
21
6.650934
31
0.0
0
LINE
8
0
6
CONTINUOUS
10
3.606709
20
6.772106
30
0.0
11
3.911019
21
6.599261
31
0.0
0
LINE
8
0
6
CONTINUOUS
10
3.686387
20
6.687106
30
0.0
11
3.637696
21
6.508379
31
0.0
0
LINE
8
0
6
CONTINUOUS
10
3.637696
20
6.508379
30
0.0
11
3.508313
21
6.218492
31
0.0
0
LINE
8
0
6
CONTINUOUS
10
3.508313
20
6.218492
30
0.0
11
3.311766
21
5.876771
31
0.0
0
LINE
8
0
6
CONTINUOUS
10
3.311766
20
5.876771
30
0.0
11
2.978152
21
5.575938
31
0.0
0
LINE
8
0
6
CONTINUOUS
10
3.553819
20
7.299808
30
0.0
11
3.554625
21
7.246143
31
0.0
0
LINE
8
0
6
CONTINUOUS
10
0.413147
20
7.299727
30
0.0
11
0.412732
21
7.246031
31
0.0
0
LINE
8
0
6
CONTINUOUS
10
-1.095825
20
1.971398
30
0.0
11
-1.069833
21
1.971229
31
0.0
0
LINE
8
0
6
CONTINUOUS
10
-1.069833
20
5.714378
30
0.0
11
-1.095722
21
5.714315
31
0.0
0
LINE
8
0
6
CONTINUOUS
10
-3.625564
20
2.000267
30
0.0
11
-1.173790
21
1.971909
31
0.0
0
LINE
8
0
6
CONTINUOUS
10
-1.173790
20
1.971909
30
0.0
11
-1.147802
21
1.971739
31
0.0
0
LINE
8
0
6
CONTINUOUS
10
-1.147781
20
2.039529
30
0.0
11
-1.147802
21
1.971739
31
0.0
0
LINE
8
0
6
CONTINUOUS
10
-1.147802
20
1.971739
30
0.0
11
-1.121805
21
2.075289
31
0.0
0
LINE
8
0
6
CONTINUOUS
10
-1.121793
20
2.139368
30
0.0
11
-1.121805
21
2.075289
31
0.0
0
LINE
8
0
6
CONTINUOUS
10
-1.095825
20
1.971398
30
0.0
11
-1.095817
21
2.039212
31
0.0
0
LINE
8
0
6
CONTINUOUS
10
-1.121805
20
2.075289
30
0.0
11
-1.095825
21
1.971398
31
0.0
0
LINE
8
0
6
CONTINUOUS
10
-1.148330
20
2.228205
30
0.0
11
-1.147781
21
2.039529
31
0.0
0
LINE
8
0
6
CONTINUOUS
10
-1.122140
20
2.317735
30
0.0
11
-1.121793
21
2.139368
31
0.0
0
LINE
8
0
6
CONTINUOUS
10
-1.095817
20
2.039212
30
0.0
11
-1.096000
21
2.227994
31
0.0
0
LINE
8
0
6
CONTINUOUS
10
-1.147817
20
2.534471
30
0.0
11
-1.148330
21
2.228205
31
0.0
0
LINE
8
0
6
CONTINUOUS
10
-1.121816
20
2.607202
30
0.0
11
-1.122140
21
2.317735
31
0.0
0
LINE
8
0
6
CONTINUOUS
10
-1.096000
20
2.227994
30
0.0
11
-1.095827
21
2.534287
31
0.0
0
LINE
8
0
6
CONTINUOUS
10
-1.147640
20
2.933291
30
0.0
11
-1.147817
21
2.534471
31
0.0
0
LINE
8
0
6
CONTINUOUS
10
-1.121706
20
2.984143
30
0.0
11
-1.121816
21
2.607202
31
0.0
0
LINE
8
0
6
CONTINUOUS
10
-1.095827
20
2.534287
30
0.0
11
-1.095768
21
2.933145
31
0.0
0
LINE
8
0
6
CONTINUOUS
10
-1.147567
20
3.392716
30
0.0
11
-1.147640
21
2.933291
31
0.0
0
LINE
8
0
6
CONTINUOUS
10
-1.121658
20
3.418384
30
0.0
11
-1.121706
21
2.984143
31
0.0
0
LINE
8
0
6
CONTINUOUS
10
-1.095768
20
2.933145
30
0.0
11
-1.095747
21
3.392652
31
0.0
0
LINE
8
0
6
CONTINUOUS
10
-1.147508
20
3.880845
30
0.0
11
-1.147567
21
3.392716
31
0.0
0
LINE
8
0
6
CONTINUOUS
10
-1.121622
20
3.879747
30
0.0
11
-1.121658
21
3.418384
31
0.0
0
LINE
8
0
6
CONTINUOUS
10
-1.095747
20
3.392652
30
0.0
11
-1.095725
21
3.880850
31
0.0
0
LINE
8
0
6
CONTINUOUS
10
-1.147504
20
4.365552
30
0.0
11
-1.147508
21
3.880845
31
0.0
0
LINE
8
0
6
CONTINUOUS
10
-1.121617
20
4.337872
30
0.0
11
-1.121622
21
3.879747
31
0.0
0
LINE
8
0
6
CONTINUOUS
10
-1.095725
20
3.880850
30
0.0
11
-1.095722
21
4.365620
31
0.0
0
LINE
8
0
6
CONTINUOUS
10
-1.147504
20
4.810786
30
0.0
11
-1.147504
21
4.365552
31
0.0
0
LINE
8
0
6
CONTINUOUS
10
-1.121617
20
4.758693
30
0.0
11
-1.121617
21
4.337872
31
0.0
0
LINE
8
0
6
CONTINUOUS
10
-1.095722
20
4.365620
30
0.0
11
-1.095722
21
4.810916
31
0.0
0
LINE
8
0
6
CONTINUOUS
10
-1.147504
20
5.187900
30
0.0
11
-1.147504
21
4.810786
31
0.0
0
LINE
8
0
6
CONTINUOUS
10
-1.121617
20
5.115110
30
0.0
11
-1.121617
21
4.758693
31
0.0
0
LINE
8
0
6
CONTINUOUS
10
-1.095722
20
4.810916
30
0.0
11
-1.095722
21
5.188045
31
0.0
0
LINE
8
0
6
CONTINUOUS
10
-1.147504
20
5.480609
30
0.0
11
-1.147504
21
5.187900
31
0.0
0
LINE
8
0
6
CONTINUOUS
10
-1.121617
20
5.391767
30
0.0
11
-1.121617
21
5.115110
31
0.0
0
LINE
8
0
6
CONTINUOUS
10
-1.095722
20
5.188045
30
0.0
11
-1.095722
21
5.480794
31
0.0
0
LINE
8
0
6
CONTINUOUS
10
-1.147504
20
5.714190
30
0.0
11
-1.173391
21
5.714128
31
0.0
0
LINE
8
0
6
CONTINUOUS
10
-1.147504
20
5.714190
30
0.0
11
-1.147504
21
5.649477
31
0.0
0
LINE
8
0
6
CONTINUOUS
10
-1.121617
20
5.612497
30
0.0
11
-1.147504
21
5.714190
31
0.0
0
LINE
8
0
6
CONTINUOUS
10
-1.121617
20
5.612497
30
0.0
11
-1.121617
21
5.551330
31
0.0
0
LINE
8
0
6
CONTINUOUS
10
-1.095722
20
5.714315
30
0.0
11
-1.121617
21
5.612497
31
0.0
0
LINE
8
0
6
CONTINUOUS
10
-1.095722
20
5.649588
30
0.0
11
-1.095722
21
5.714315
31
0.0
0
LINE
8
0
6
CONTINUOUS
10
-1.147504
20
5.649477
30
0.0
11
-1.147504
21
5.480609
31
0.0
0
LINE
8
0
6
CONTINUOUS
10
-1.121617
20
5.551330
30
0.0
11
-1.121617
21
5.391767
31
0.0
0
LINE
8
0
6
CONTINUOUS
10
-1.095722
20
5.480794
30
0.0
11
-1.095722
21
5.649588
31
0.0
0
LINE
8
0
6
CONTINUOUS
10
-5.601352
20
5.695258
30
0.0
11
-5.682281
21
5.694913
31
0.0
0
LINE
8
0
6
CONTINUOUS
10
-5.601352
20
5.695258
30
0.0
11
-1.173391
21
5.714128
31
0.0
0
LINE
8
0
6
CONTINUOUS
10
2.643834
20
11.750800
30
0.0
11
1.979760
21
11.750799
31
0.0
0
LINE
8
0
6
CONTINUOUS
10
3.284029
20
11.750799
30
0.0
11
2.643834
21
11.750800
31
0.0
0
LINE
8
0
6
CONTINUOUS
10
3.877877
20
11.750799
30
0.0
11
3.284029
21
11.750799
31
0.0
0
LINE
8
0
6
CONTINUOUS
10
4.390971
20
11.750800
30
0.0
11
3.877877
21
11.750799
31
0.0
0
LINE
8
0
6
CONTINUOUS
10
4.814009
20
11.750800
30
0.0
11
4.390971
21
11.750800
31
0.0
0
LINE
8
0
6
CONTINUOUS
10
5.129769
20
11.750801
30
0.0
11
4.814009
21
11.750800
31
0.0
0
LINE
8
0
6
CONTINUOUS
10
5.316134
20
11.750801
30
0.0
11
5.129769
21
11.750801
31
0.0
0
LINE
8
0
6
CONTINUOUS
10
5.378903
20
11.750802
30
0.0
11
5.316134
21
11.750801
31
0.0
0
LINE
8
0
6
CONTINUOUS
10
5.311931
20
11.750805
30
0.0
11
5.378903
21
11.750802
31
0.0
0
LINE
8
0
6
CONTINUOUS
10
5.378903
20
11.750802
30
0.0
11
5.378901
21
9.616951
31
0.0
0
LINE
8
0
6
CONTINUOUS
10
5.111023
20
11.750803
30
0.0
11
5.311931
21
11.750805
31
0.0
0
LINE
8
0
6
CONTINUOUS
10
4.796362
20
11.750804
30
0.0
11
5.111023
21
11.750803
31
0.0
0
LINE
8
0
6
CONTINUOUS
10
4.374182
20
11.750804
30
0.0
11
4.796362
21
11.750804
31
0.0
0
LINE
8
0
6
CONTINUOUS
10
3.854939
20
11.750805
30
0.0
11
4.374182
21
11.750804
31
0.0
0
LINE
8
0
6
CONTINUOUS
10
3.272612
20
11.750805
30
0.0
11
3.854939
21
11.750805
31
0.0
0
LINE
8
0
6
CONTINUOUS
10
2.643225
20
11.750806
30
0.0
11
3.272612
21
11.750805
31
0.0
0
LINE
8
0
6
CONTINUOUS
10
1.975710
20
11.750806
30
0.0
11
2.643225
21
11.750806
31
0.0
0
LINE
8
0
6
CONTINUOUS
10
1.321513
20
11.750805
30
0.0
11
1.975710
21
11.750806
31
0.0
0
LINE
8
0
6
CONTINUOUS
10
0.690354
20
11.750805
30
0.0
11
1.321513
21
11.750805
31
0.0
0
LINE
8
0
6
CONTINUOUS
10
0.100100
20
11.750805
30
0.0
11
0.690354
21
11.750805
31
0.0
0
LINE
8
0
6
CONTINUOUS
10
-0.408620
20
11.750804
30
0.0
11
0.100100
21
11.750805
31
0.0
0
LINE
8
0
6
CONTINUOUS
10
-0.831726
20
11.750803
30
0.0
11
-0.408620
21
11.750804
31
0.0
0
LINE
8
0
6
CONTINUOUS
10
-1.149221
20
11.750803
30
0.0
11
-0.831726
21
11.750803
31
0.0
0
LINE
8
0
6
CONTINUOUS
10
-1.341989
20
11.750803
30
0.0
11
-1.149221
21
11.750803
31
0.0
0
LINE
8
0
6
CONTINUOUS
10
-1.413855
20
11.750802
30
0.0
11
-1.341989
21
11.750803
31
0.0
0
LINE
8
0
6
CONTINUOUS
10
-1.351853
20
11.750801
30
0.0
11
-1.413855
21
11.750802
31
0.0
0
LINE
8
0
6
CONTINUOUS
10
-1.413855
20
11.750802
30
0.0
11
-1.413858
21
9.616951
31
0.0
0
LINE
8
0
6
CONTINUOUS
10
-1.160387
20
11.750801
30
0.0
11
-1.351853
21
11.750801
31
0.0
0
LINE
8
0
6
CONTINUOUS
10
-0.852869
20
11.750800
30
0.0
11
-1.160387
21
11.750801
31
0.0
0
LINE
8
0
6
CONTINUOUS
10
-0.429904
20
11.750801
30
0.0
11
-0.852869
21
11.750800
31
0.0
0
LINE
8
0
6
CONTINUOUS
10
0.085276
20
11.750799
30
0.0
11
-0.429904
21
11.750801
31
0.0
0
LINE
8
0
6
CONTINUOUS
10
0.671057
20
11.750800
30
0.0
11
0.085276
21
11.750799
31
0.0
0
LINE
8
0
6
CONTINUOUS
10
1.979760
20
11.750799
30
0.0
11
1.314040
21
11.750799
31
0.0
0
LINE
8
0
6
CONTINUOUS
10
1.314040
20
11.750799
30
0.0
11
0.671057
21
11.750800
31
0.0
0
LINE
8
0
6
CONTINUOUS
10
5.171114
20
9.427828
30
0.0
11
3.335363
21
9.284356
31
0.0
0
LINE
8
0
6
CONTINUOUS
10
-1.216550
20
9.435159
30
0.0
11
0.627652
21
9.284758
31
0.0
0
LINE
8
0
6
CONTINUOUS
10
0.413147
20
7.299727
30
0.0
11
0.456130
21
7.299809
31
0.0
0
LINE
8
0
6
CONTINUOUS
10
3.351347
20
7.299937
30
0.0
11
3.509676
21
7.299880
31
0.0
0
LINE
8
0
6
CONTINUOUS
10
3.102355
20
7.299991
30
0.0
11
3.351347
21
7.299937
31
0.0
0
LINE
8
0
6
CONTINUOUS
10
2.775459
20
7.299918
30
0.0
11
3.102355
21
7.299991
31
0.0
0
LINE
8
0
6
CONTINUOUS
10
2.390002
20
7.299930
30
0.0
11
2.775459
21
7.299918
31
0.0
0
LINE
8
0
6
CONTINUOUS
10
1.976525
20
7.300037
30
0.0
11
2.390002
21
7.299930
31
0.0
0
LINE
8
0
6
CONTINUOUS
10
3.509676
20
7.299880
30
0.0
11
3.553819
21
7.299808
31
0.0
0
LINE
8
0
6
CONTINUOUS
10
0.456130
20
7.299809
30
0.0
11
0.612868
21
7.299820
31
0.0
0
LINE
8
0
6
CONTINUOUS
10
0.612868
20
7.299820
30
0.0
11
0.858841
21
7.299894
31
0.0
0
LINE
8
0
6
CONTINUOUS
10
0.858841
20
7.299894
30
0.0
11
1.183956
21
7.299870
31
0.0
0
LINE
8
0
6
CONTINUOUS
10
1.183956
20
7.299870
30
0.0
11
1.567053
21
7.299960
31
0.0
0
LINE
8
0
6
CONTINUOUS
10
1.567053
20
7.299960
30
0.0
11
1.976525
21
7.300037
31
0.0
0
LINE
8
0
6
CONTINUOUS
10
-5.682281
20
2.562718
30
0.0
11
-5.682281
21
2.955928
31
0.0
0
LINE
8
0
6
CONTINUOUS
10
-5.682281
20
2.955928
30
0.0
11
-5.682281
21
3.402869
31
0.0
0
LINE
8
0
6
CONTINUOUS
10
-5.682281
20
3.402869
30
0.0
11
-5.682281
21
3.880110
31
0.0
0
LINE
8
0
6
CONTINUOUS
10
-5.682281
20
3.880110
30
0.0
11
-5.682281
21
4.355199
31
0.0
0
LINE
8
0
6
CONTINUOUS
10
-5.682281
20
4.355199
30
0.0
11
-5.682281
21
4.790692
31
0.0
0
LINE
8
0
6
CONTINUOUS
10
-5.682281
20
4.790692
30
0.0
11
-5.682281
21
5.165386
31
0.0
0
LINE
8
0
6
CONTINUOUS
10
-5.682281
20
5.165386
30
0.0
11
-5.682281
21
5.452008
31
0.0
0
LINE
8
0
6
CONTINUOUS
10
-5.682281
20
5.452008
30
0.0
11
-5.682281
21
5.632338
31
0.0
0
LINE
8
0
6
CONTINUOUS
10
-5.682281
20
5.632338
30
0.0
11
-5.682281
21
5.694913
31
0.0
0
LINE
8
0
6
CONTINUOUS
10
-3.686689
20
1.338675
30
0.0
11
-3.630501
21
1.337776
31
0.0
0
LINE
8
0
6
CONTINUOUS
10
-5.712133
20
1.371077
30
0.0
11
-5.657626
21
1.370641
31
0.0
0
LINE
8
0
6
CONTINUOUS
10
-5.657626
20
1.370641
30
0.0
11
-3.686689
21
1.338675
31
0.0
0
LINE
8
0
6
CONTINUOUS
10
-3.630574
20
1.389540
30
0.0
11
-3.630501
21
1.337776
31
0.0
0
LINE
8
0
6
CONTINUOUS
10
-3.629487
20
1.653421
30
0.0
11
-3.630189
21
1.512534
31
0.0
0
LINE
8
0
6
CONTINUOUS
10
-3.628634
20
1.786221
30
0.0
11
-3.629487
21
1.653421
31
0.0
0
LINE
8
0
6
CONTINUOUS
10
-3.629243
20
1.448468
30
0.0
11
-3.623956
21
2.241614
31
0.0
0
LINE
8
0
6
CONTINUOUS
10
-3.623350
20
2.579362
30
0.0
11
-3.628634
21
1.786221
31
0.0
0
LINE
8
0
6
CONTINUOUS
10
-3.630189
20
1.512534
30
0.0
11
-3.630574
21
1.389540
31
0.0
0
LINE
8
0
6
CONTINUOUS
10
-5.712133
20
1.371077
30
0.0
11
-5.712367
21
1.423567
31
0.0
0
LINE
8
0
6
CONTINUOUS
10
-5.712165
20
1.540649
30
0.0
11
-5.711584
21
1.682069
31
0.0
0
LINE
8
0
6
CONTINUOUS
10
-5.711584
20
1.682069
30
0.0
11
-5.710775
21
1.815061
31
0.0
0
LINE
8
0
6
CONTINUOUS
10
-5.710775
20
1.815061
30
0.0
11
-5.705488
21
2.608202
31
0.0
0
LINE
8
0
6
CONTINUOUS
10
-5.712367
20
1.423567
30
0.0
11
-5.712165
21
1.540649
31
0.0
0
LINE
8
0
6
CONTINUOUS
10
13.627749
20
9.552758
30
0.0
11
13.627749
21
9.616951
31
0.0
0
LINE
8
0
6
CONTINUOUS
10
20.420509
20
9.552758
30
0.0
11
20.420509
21
9.616951
31
0.0
0
LINE
8
0
6
CONTINUOUS
10
17.692611
20
11.750799
30
0.0
11
17.026893
21
11.750799
31
0.0
0
LINE
8
0
6
CONTINUOUS
10
18.335593
20
11.750800
30
0.0
11
17.692611
21
11.750799
31
0.0
0
LINE
8
0
6
CONTINUOUS
10
18.921374
20
11.750799
30
0.0
11
18.335593
21
11.750800
31
0.0
0
LINE
8
0
6
CONTINUOUS
10
19.436553
20
11.750801
30
0.0
11
18.921374
21
11.750799
31
0.0
0
LINE
8
0
6
CONTINUOUS
10
19.859520
20
11.750800
30
0.0
11
19.436553
21
11.750801
31
0.0
0
LINE
8
0
6
CONTINUOUS
10
20.167038
20
11.750801
30
0.0
11
19.859520
21
11.750800
31
0.0
0
LINE
8
0
6
CONTINUOUS
10
20.358505
20
11.750801
30
0.0
11
20.167038
21
11.750801
31
0.0
0
LINE
8
0
6
CONTINUOUS
10
20.420509
20
11.750802
30
0.0
11
20.358505
21
11.750801
31
0.0
0
LINE
8
0
6
CONTINUOUS
10
20.348639
20
11.750803
30
0.0
11
20.420509
21
11.750802
31
0.0
0
LINE
8
0
6
CONTINUOUS
10
20.155872
20
11.750803
30
0.0
11
20.348639
21
11.750803
31
0.0
0
LINE
8
0
6
CONTINUOUS
10
19.838378
20
11.750803
30
0.0
11
20.155872
21
11.750803
31
0.0
0
LINE
8
0
6
CONTINUOUS
10
19.415270
20
11.750804
30
0.0
11
19.838378
21
11.750803
31
0.0
0
LINE
8
0
6
CONTINUOUS
10
18.906550
20
11.750805
30
0.0
11
19.415270
21
11.750804
31
0.0
0
LINE
8
0
6
CONTINUOUS
10
18.316298
20
11.750805
30
0.0
11
18.906550
21
11.750805
31
0.0
0
LINE
8
0
6
CONTINUOUS
10
17.685137
20
11.750805
30
0.0
11
18.316298
21
11.750805
31
0.0
0
LINE
8
0
6
CONTINUOUS
10
17.030940
20
11.750806
30
0.0
11
17.685137
21
11.750805
31
0.0
0
LINE
8
0
6
CONTINUOUS
10
16.363426
20
11.750806
30
0.0
11
17.030940
21
11.750806
31
0.0
0
LINE
8
0
6
CONTINUOUS
10
15.734038
20
11.750805
30
0.0
11
16.363426
21
11.750806
31
0.0
0
LINE
8
0
6
CONTINUOUS
10
15.151713
20
11.750805
30
0.0
11
15.734038
21
11.750805
31
0.0
0
LINE
8
0
6
CONTINUOUS
10
14.632469
20
11.750804
30
0.0
11
15.151713
21
11.750805
31
0.0
0
LINE
8
0
6
CONTINUOUS
10
14.210289
20
11.750804
30
0.0
11
14.632469
21
11.750804
31
0.0
0
LINE
8
0
6
CONTINUOUS
10
13.895625
20
11.750803
30
0.0
11
14.210289
21
11.750804
31
0.0
0
LINE
8
0
6
CONTINUOUS
10
13.694721
20
11.750805
30
0.0
11
13.895625
21
11.750803
31
0.0
0
LINE
8
0
6
CONTINUOUS
10
13.627746
20
11.750802
30
0.0
11
13.694721
21
11.750805
31
0.0
0
LINE
8
0
6
CONTINUOUS
10
13.690516
20
11.750801
30
0.0
11
13.627746
21
11.750802
31
0.0
0
LINE
8
0
6
CONTINUOUS
10
13.876883
20
11.750801
30
0.0
11
13.690516
21
11.750801
31
0.0
0
LINE
8
0
6
CONTINUOUS
10
14.192641
20
11.750800
30
0.0
11
13.876883
21
11.750801
31
0.0
0
LINE
8
0
6
CONTINUOUS
10
14.615680
20
11.750800
30
0.0
11
14.192641
21
11.750800
31
0.0
0
LINE
8
0
6
CONTINUOUS
10
15.128775
20
11.750799
30
0.0
11
14.615680
21
11.750800
31
0.0
0
LINE
8
0
6
CONTINUOUS
10
15.722622
20
11.750799
30
0.0
11
15.128775
21
11.750799
31
0.0
0
LINE
8
0
6
CONTINUOUS
10
16.362814
20
11.750800
30
0.0
11
15.722622
21
11.750799
31
0.0
0
LINE
8
0
6
CONTINUOUS
10
17.026893
20
11.750799
30
0.0
11
16.362814
21
11.750800
31
0.0
0
LINE
8
0
6
CONTINUOUS
10
13.677101
20
9.440211
30
0.0
11
13.627749
21
9.552758
31
0.0
0
LINE
8
0
6
CONTINUOUS
10
20.381805
20
9.448094
30
0.0
11
20.420509
21
9.552758
31
0.0
0
LINE
8
0
6
CONTINUOUS
10
18.236618
20
7.300807
30
0.0
11
18.336166
21
7.300807
31
0.0
0
LINE
8
0
6
CONTINUOUS
10
16.527976
20
7.300806
30
0.0
11
17.028426
21
7.300806
31
0.0
0
LINE
8
0
6
CONTINUOUS
10
15.820231
20
7.300806
30
0.0
11
16.103714
21
7.300806
31
0.0
0
LINE
8
0
6
CONTINUOUS
10
17.028426
20
7.300806
30
0.0
11
17.528877
21
7.300807
31
0.0
0
LINE
8
0
6
CONTINUOUS
10
17.953136
20
7.300807
30
0.0
11
18.236618
21
7.300807
31
0.0
0
LINE
8
0
6
CONTINUOUS
10
18.378999
20
9.284758
30
0.0
11
18.374119
21
9.058703
31
0.0
0
LINE
8
0
6
CONTINUOUS
10
18.341563
20
7.550787
30
0.0
11
18.336166
21
7.300807
31
0.0
0
LINE
8
0
6
CONTINUOUS
10
15.720686
20
7.300806
30
0.0
11
15.820231
21
7.300806
31
0.0
0
LINE
8
0
6
CONTINUOUS
10
15.671290
20
9.284356
30
0.0
11
15.676909
21
9.058703
31
0.0
0
LINE
8
0
6
CONTINUOUS
10
15.714461
20
7.550787
30
0.0
11
15.720686
21
7.300806
31
0.0
0
LINE
8
0
6
CONTINUOUS
10
16.103714
20
7.300806
30
0.0
11
16.527976
21
7.300806
31
0.0
0
LINE
8
0
6
CONTINUOUS
10
16.978218
20
1.931969
30
0.0
11
17.935745
21
1.944656
31
0.0
0
LINE
8
0
6
CONTINUOUS
10
15.436194
20
6.892089
30
0.0
11
15.452026
21
7.246143
31
0.0
0
LINE
8
0
6
CONTINUOUS
10
17.028602
20
9.435103
30
0.0
11
16.374153
21
9.435098
31
0.0
0
LINE
8
0
6
CONTINUOUS
10
16.374153
20
9.435098
30
0.0
11
15.744700
21
9.434010
31
0.0
0
LINE
8
0
6
CONTINUOUS
10
15.744700
20
9.434010
30
0.0
11
15.165640
21
9.435018
31
0.0
0
LINE
8
0
6
CONTINUOUS
10
15.165640
20
9.435018
30
0.0
11
14.657607
21
9.436217
31
0.0
0
LINE
8
0
6
CONTINUOUS
10
14.657607
20
9.436217
30
0.0
11
14.240535
21
9.436305
31
0.0
0
LINE
8
0
6
CONTINUOUS
10
14.240535
20
9.436305
30
0.0
11
13.931227
21
9.437087
31
0.0
0
LINE
8
0
6
CONTINUOUS
10
13.931227
20
9.437087
30
0.0
11
13.741157
21
9.439285
31
0.0
0
LINE
8
0
6
CONTINUOUS
10
13.741157
20
9.439285
30
0.0
11
13.677101
21
9.440211
31
0.0
0
LINE
8
0
6
CONTINUOUS
10
13.835539
20
9.427828
30
0.0
11
13.677101
21
9.440211
31
0.0
0
LINE
8
0
6
CONTINUOUS
10
20.381805
20
9.448094
30
0.0
11
20.319625
21
9.446120
31
0.0
0
LINE
8
0
6
CONTINUOUS
10
20.223201
20
9.435159
30
0.0
11
20.381805
21
9.448094
31
0.0
0
LINE
8
0
6
CONTINUOUS
10
20.319625
20
9.446120
30
0.0
11
20.129538
21
9.445266
31
0.0
0
LINE
8
0
6
CONTINUOUS
10
20.129538
20
9.445266
30
0.0
11
19.815162
21
9.439264
31
0.0
0
LINE
8
0
6
CONTINUOUS
10
19.815162
20
9.439264
30
0.0
11
19.399154
21
9.437403
31
0.0
0
LINE
8
0
6
CONTINUOUS
10
19.399154
20
9.437403
30
0.0
11
18.890990
21
9.437421
31
0.0
0
LINE
8
0
6
CONTINUOUS
10
18.890990
20
9.437421
30
0.0
11
18.311363
21
9.436244
31
0.0
0
LINE
8
0
6
CONTINUOUS
10
18.311363
20
9.436244
30
0.0
11
17.683131
21
9.434061
31
0.0
0
LINE
8
0
6
CONTINUOUS
10
17.683131
20
9.434061
30
0.0
11
17.028602
21
9.435103
31
0.0
0
LINE
8
0
6
CONTINUOUS
10
17.528877
20
7.300807
30
0.0
11
17.953136
21
7.300807
31
0.0
0
LINE
8
0
6
CONTINUOUS
10
9.503325
20
1.901643
30
0.0
11
16.218798
21
1.928815
31
0.0
0
LINE
8
0
6
CONTINUOUS
10
17.935745
20
1.944656
30
0.0
11
20.076483
21
1.971229
31
0.0
0
LINE
8
0
6
CONTINUOUS
10
20.076483
20
5.714378
30
0.0
11
19.214626
21
5.724170
31
0.0
0
LINE
8
0
6
CONTINUOUS
10
16.218798
20
1.928815
30
0.0
11
16.978218
21
1.931969
31
0.0
0
LINE
8
0
6
CONTINUOUS
10
18.614459
20
6.052622
30
0.0
11
18.593917
21
7.246031
31
0.0
0
LINE
8
0
6
CONTINUOUS
10
18.614459
20
6.052622
30
0.0
11
18.734206
21
5.823702
31
0.0
0
LINE
8
0
6
CONTINUOUS
10
15.436194
20
6.892089
30
0.0
11
15.320261
21
6.687106
31
0.0
0
LINE
8
0
6
CONTINUOUS
10
18.951431
20
5.750661
30
0.0
11
19.214626
21
5.724170
31
0.0
0
LINE
8
0
6
CONTINUOUS
10
18.702709
20
5.846933
30
0.0
11
18.565223
21
5.803281
31
0.0
0
LINE
8
0
6
CONTINUOUS
10
18.951431
20
5.750661
30
0.0
11
18.702709
21
5.846933
31
0.0
0
LINE
8
0
6
CONTINUOUS
10
18.565223
20
5.803281
30
0.0
11
18.339881
21
5.707572
31
0.0
0
LINE
8
0
6
CONTINUOUS
10
18.339881
20
5.707572
30
0.0
11
18.005836
21
5.602356
31
0.0
0
LINE
8
0
6
CONTINUOUS
10
15.094664
20
6.660039
30
0.0
11
15.023357
21
6.650934
31
0.0
0
LINE
8
0
6
CONTINUOUS
10
15.399939
20
6.772106
30
0.0
11
15.095634
21
6.599261
31
0.0
0
LINE
8
0
6
CONTINUOUS
10
15.368952
20
6.508379
30
0.0
11
15.320261
21
6.687106
31
0.0
0
LINE
8
0
6
CONTINUOUS
10
15.498336
20
6.218492
30
0.0
11
15.368952
21
6.508379
31
0.0
0
LINE
8
0
6
CONTINUOUS
10
15.694885
20
5.876771
30
0.0
11
15.498336
21
6.218492
31
0.0
0
LINE
8
0
6
CONTINUOUS
10
16.028498
20
5.575938
30
0.0
11
15.694885
21
5.876771
31
0.0
0
LINE
8
0
6
CONTINUOUS
10
15.452026
20
7.246143
30
0.0
11
15.452835
21
7.299808
31
0.0
0
LINE
8
0
6
CONTINUOUS
10
18.593917
20
7.246031
30
0.0
11
18.593505
21
7.299727
31
0.0
0
LINE
8
0
6
CONTINUOUS
10
20.076483
20
1.971229
30
0.0
11
20.102477
21
1.971398
31
0.0
0
LINE
8
0
6
CONTINUOUS
10
20.102370
20
5.714315
30
0.0
11
20.076483
21
5.714378
31
0.0
0
LINE
8
0
6
CONTINUOUS
10
20.180442
20
1.971909
30
0.0
11
22.632215
21
2.000267
31
0.0
0
LINE
8
0
6
CONTINUOUS
10
20.154452
20
1.971739
30
0.0
11
20.180442
21
1.971909
31
0.0
0
LINE
8
0
6
CONTINUOUS
10
20.128455
20
2.075289
30
0.0
11
20.154452
21
1.971739
31
0.0
0
LINE
8
0
6
CONTINUOUS
10
20.154452
20
1.971739
30
0.0
11
20.154434
21
2.039529
31
0.0
0
LINE
8
0
6
CONTINUOUS
10
20.102477
20
1.971398
30
0.0
11
20.128455
21
2.075289
31
0.0
0
LINE
8
0
6
CONTINUOUS
10
20.102469
20
2.039212
30
0.0
11
20.102477
21
1.971398
31
0.0
0
LINE
8
0
6
CONTINUOUS
10
20.128455
20
2.075289
30
0.0
11
20.128443
21
2.139368
31
0.0
0
LINE
8
0
6
CONTINUOUS
10
20.154434
20
2.039529
30
0.0
11
20.154983
21
2.228205
31
0.0
0
LINE
8
0
6
CONTINUOUS
10
20.102653
20
2.227994
30
0.0
11
20.102469
21
2.039212
31
0.0
0
LINE
8
0
6
CONTINUOUS
10
20.128443
20
2.139368
30
0.0
11
20.128790
21
2.317735
31
0.0
0
LINE
8
0
6
CONTINUOUS
10
20.154983
20
2.228205
30
0.0
11
20.154467
21
2.534471
31
0.0
0
LINE
8
0
6
CONTINUOUS
10
20.102477
20
2.534287
30
0.0
11
20.102653
21
2.227994
31
0.0
0
LINE
8
0
6
CONTINUOUS
10
20.128790
20
2.317735
30
0.0
11
20.128466
21
2.607202
31
0.0
0
LINE
8
0
6
CONTINUOUS
10
20.154467
20
2.534471
30
0.0
11
20.154289
21
2.933291
31
0.0
0
LINE
8
0
6
CONTINUOUS
10
20.102420
20
2.933145
30
0.0
11
20.102477
21
2.534287
31
0.0
0
LINE
8
0
6
CONTINUOUS
10
20.128466
20
2.607202
30
0.0
11
20.128356
21
2.984143
31
0.0
0
LINE
8
0
6
CONTINUOUS
10
20.154289
20
2.933291
30
0.0
11
20.154219
21
3.392716
31
0.0
0
LINE
8
0
6
CONTINUOUS
10
20.102398
20
3.392652
30
0.0
11
20.102420
21
2.933145
31
0.0
0
LINE
8
0
6
CONTINUOUS
10
20.128356
20
2.984143
30
0.0
11
20.128311
21
3.418384
31
0.0
0
LINE
8
0
6
CONTINUOUS
10
20.154219
20
3.392716
30
0.0
11
20.154158
21
3.880845
31
0.0
0
LINE
8
0
6
CONTINUOUS
10
20.102378
20
3.880850
30
0.0
11
20.102398
21
3.392652
31
0.0
0
LINE
8
0
6
CONTINUOUS
10
20.128311
20
3.418384
30
0.0
11
20.128273
21
3.879747
31
0.0
0
LINE
8
0
6
CONTINUOUS
10
20.154158
20
3.880845
30
0.0
11
20.154154
21
4.365552
31
0.0
0
LINE
8
0
6
CONTINUOUS
10
20.102370
20
4.365620
30
0.0
11
20.102378
21
3.880850
31
0.0
0
LINE
8
0
6
CONTINUOUS
10
20.128273
20
3.879747
30
0.0
11
20.128269
21
4.337872
31
0.0
0
LINE
8
0
6
CONTINUOUS
10
20.154154
20
4.365552
30
0.0
11
20.154154
21
4.810786
31
0.0
0
LINE
8
0
6
CONTINUOUS
10
20.102370
20
4.810916
30
0.0
11
20.102370
21
4.365620
31
0.0
0
LINE
8
0
6
CONTINUOUS
10
20.128269
20
4.337872
30
0.0
11
20.128269
21
4.758693
31
0.0
0
LINE
8
0
6
CONTINUOUS
10
20.154154
20
4.810786
30
0.0
11
20.154154
21
5.187900
31
0.0
0
LINE
8
0
6
CONTINUOUS
10
20.102370
20
5.188045
30
0.0
11
20.102370
21
4.810916
31
0.0
0
LINE
8
0
6
CONTINUOUS
10
20.128269
20
4.758693
30
0.0
11
20.128269
21
5.115110
31
0.0
0
LINE
8
0
6
CONTINUOUS
10
20.154154
20
5.187900
30
0.0
11
20.154154
21
5.480609
31
0.0
0
LINE
8
0
6
CONTINUOUS
10
20.102370
20
5.480794
30
0.0
11
20.102370
21
5.188045
31
0.0
0
LINE
8
0
6
CONTINUOUS
10
20.128269
20
5.115110
30
0.0
11
20.128269
21
5.391767
31
0.0
0
LINE
8
0
6
CONTINUOUS
10
20.180042
20
5.714128
30
0.0
11
20.154154
21
5.714190
31
0.0
0
LINE
8
0
6
CONTINUOUS
10
20.154154
20
5.714190
30
0.0
11
20.128269
21
5.612497
31
0.0
0
LINE
8
0
6
CONTINUOUS
10
20.154154
20
5.649477
30
0.0
11
20.154154
21
5.714190
31
0.0
0
LINE
8
0
6
CONTINUOUS
10
20.102370
20
5.714315
30
0.0
11
20.102370
21
5.649588
31
0.0
0
LINE
8
0
6
CONTINUOUS
10
20.128269
20
5.612497
30
0.0
11
20.102370
21
5.714315
31
0.0
0
LINE
8
0
6
CONTINUOUS
10
20.128269
20
5.551330
30
0.0
11
20.128269
21
5.612497
31
0.0
0
LINE
8
0
6
CONTINUOUS
10
20.154154
20
5.480609
30
0.0
11
20.154154
21
5.649477
31
0.0
0
LINE
8
0
6
CONTINUOUS
10
20.102370
20
5.649588
30
0.0
11
20.102370
21
5.480794
31
0.0
0
LINE
8
0
6
CONTINUOUS
10
20.128269
20
5.391767
30
0.0
11
20.128269
21
5.551330
31
0.0
0
LINE
8
0
6
CONTINUOUS
10
24.688933
20
5.694913
30
0.0
11
24.608000
21
5.695258
31
0.0
0
LINE
8
0
6
CONTINUOUS
10
20.180042
20
5.714128
30
0.0
11
24.608000
21
5.695258
31
0.0
0
LINE
8
0
6
CONTINUOUS
10
17.026893
20
11.750799
30
0.0
11
16.362814
21
11.750800
31
0.0
0
LINE
8
0
6
CONTINUOUS
10
16.362814
20
11.750800
30
0.0
11
15.722622
21
11.750799
31
0.0
0
LINE
8
0
6
CONTINUOUS
10
15.722622
20
11.750799
30
0.0
11
15.128775
21
11.750799
31
0.0
0
LINE
8
0
6
CONTINUOUS
10
15.128775
20
11.750799
30
0.0
11
14.615680
21
11.750800
31
0.0
0
LINE
8
0
6
CONTINUOUS
10
14.615680
20
11.750800
30
0.0
11
14.192641
21
11.750800
31
0.0
0
LINE
8
0
6
CONTINUOUS
10
14.192641
20
11.750800
30
0.0
11
13.876883
21
11.750801
31
0.0
0
LINE
8
0
6
CONTINUOUS
10
13.876883
20
11.750801
30
0.0
11
13.690516
21
11.750801
31
0.0
0
LINE
8
0
6
CONTINUOUS
10
13.690516
20
11.750801
30
0.0
11
13.627746
21
11.750802
31
0.0
0
LINE
8
0
6
CONTINUOUS
10
13.627749
20
9.616951
30
0.0
11
13.627746
21
11.750802
31
0.0
0
LINE
8
0
6
CONTINUOUS
10
13.627746
20
11.750802
30
0.0
11
13.694721
21
11.750805
31
0.0
0
LINE
8
0
6
CONTINUOUS
10
13.694721
20
11.750805
30
0.0
11
13.895625
21
11.750803
31
0.0
0
LINE
8
0
6
CONTINUOUS
10
13.895625
20
11.750803
30
0.0
11
14.210289
21
11.750804
31
0.0
0
LINE
8
0
6
CONTINUOUS
10
14.210289
20
11.750804
30
0.0
11
14.632469
21
11.750804
31
0.0
0
LINE
8
0
6
CONTINUOUS
10
14.632469
20
11.750804
30
0.0
11
15.151713
21
11.750805
31
0.0
0
LINE
8
0
6
CONTINUOUS
10
15.151713
20
11.750805
30
0.0
11
15.734038
21
11.750805
31
0.0
0
LINE
8
0
6
CONTINUOUS
10
15.734038
20
11.750805
30
0.0
11
16.363426
21
11.750806
31
0.0
0
LINE
8
0
6
CONTINUOUS
10
16.363426
20
11.750806
30
0.0
11
17.030940
21
11.750806
31
0.0
0
LINE
8
0
6
CONTINUOUS
10
17.030940
20
11.750806
30
0.0
11
17.685137
21
11.750805
31
0.0
0
LINE
8
0
6
CONTINUOUS
10
17.685137
20
11.750805
30
0.0
11
18.316298
21
11.750805
31
0.0
0
LINE
8
0
6
CONTINUOUS
10
18.316298
20
11.750805
30
0.0
11
18.906550
21
11.750805
31
0.0
0
LINE
8
0
6
CONTINUOUS
10
18.906550
20
11.750805
30
0.0
11
19.415270
21
11.750804
31
0.0
0
LINE
8
0
6
CONTINUOUS
10
19.415270
20
11.750804
30
0.0
11
19.838378
21
11.750803
31
0.0
0
LINE
8
0
6
CONTINUOUS
10
19.838378
20
11.750803
30
0.0
11
20.155872
21
11.750803
31
0.0
0
LINE
8
0
6
CONTINUOUS
10
20.155872
20
11.750803
30
0.0
11
20.348639
21
11.750803
31
0.0
0
LINE
8
0
6
CONTINUOUS
10
20.348639
20
11.750803
30
0.0
11
20.420509
21
11.750802
31
0.0
0
LINE
8
0
6
CONTINUOUS
10
20.420509
20
9.616951
30
0.0
11
20.420509
21
11.750802
31
0.0
0
LINE
8
0
6
CONTINUOUS
10
20.420509
20
11.750802
30
0.0
11
20.358505
21
11.750801
31
0.0
0
LINE
8
0
6
CONTINUOUS
10
20.358505
20
11.750801
30
0.0
11
20.167038
21
11.750801
31
0.0
0
LINE
8
0
6
CONTINUOUS
10
20.167038
20
11.750801
30
0.0
11
19.859520
21
11.750800
31
0.0
0
LINE
8
0
6
CONTINUOUS
10
19.859520
20
11.750800
30
0.0
11
19.436553
21
11.750801
31
0.0
0
LINE
8
0
6
CONTINUOUS
10
19.436553
20
11.750801
30
0.0
11
18.921374
21
11.750799
31
0.0
0
LINE
8
0
6
CONTINUOUS
10
18.921374
20
11.750799
30
0.0
11
18.335593
21
11.750800
31
0.0
0
LINE
8
0
6
CONTINUOUS
10
17.692611
20
11.750799
30
0.0
11
17.026893
21
11.750799
31
0.0
0
LINE
8
0
6
CONTINUOUS
10
18.335593
20
11.750800
30
0.0
11
17.692611
21
11.750799
31
0.0
0
LINE
8
0
6
CONTINUOUS
10
15.671290
20
9.284356
30
0.0
11
13.835539
21
9.427828
31
0.0
0
LINE
8
0
6
CONTINUOUS
10
18.378999
20
9.284758
30
0.0
11
20.223201
21
9.435159
31
0.0
0
LINE
8
0
6
CONTINUOUS
10
18.550521
20
7.299809
30
0.0
11
18.593505
21
7.299727
31
0.0
0
LINE
8
0
6
CONTINUOUS
10
15.496974
20
7.299880
30
0.0
11
15.655304
21
7.299937
31
0.0
0
LINE
8
0
6
CONTINUOUS
10
15.655304
20
7.299937
30
0.0
11
15.904295
21
7.299991
31
0.0
0
LINE
8
0
6
CONTINUOUS
10
15.904295
20
7.299991
30
0.0
11
16.231192
21
7.299918
31
0.0
0
LINE
8
0
6
CONTINUOUS
10
16.231192
20
7.299918
30
0.0
11
16.616648
21
7.299930
31
0.0
0
LINE
8
0
6
CONTINUOUS
10
16.616648
20
7.299930
30
0.0
11
17.030127
21
7.300037
31
0.0
0
LINE
8
0
6
CONTINUOUS
10
15.452835
20
7.299808
30
0.0
11
15.496974
21
7.299880
31
0.0
0
LINE
8
0
6
CONTINUOUS
10
18.393783
20
7.299820
30
0.0
11
18.550521
21
7.299809
31
0.0
0
LINE
8
0
6
CONTINUOUS
10
18.147810
20
7.299894
30
0.0
11
18.393783
21
7.299820
31
0.0
0
LINE
8
0
6
CONTINUOUS
10
17.822696
20
7.299870
30
0.0
11
18.147810
21
7.299894
31
0.0
0
LINE
8
0
6
CONTINUOUS
10
17.439597
20
7.299960
30
0.0
11
17.822696
21
7.299870
31
0.0
0
LINE
8
0
6
CONTINUOUS
10
17.030127
20
7.300037
30
0.0
11
17.439597
21
7.299960
31
0.0
0
LINE
8
0
6
CONTINUOUS
10
24.688933
20
2.562718
30
0.0
11
24.688933
21
2.553363
31
0.0
0
LINE
8
0
6
CONTINUOUS
10
24.688933
20
2.955928
30
0.0
11
24.688933
21
2.562718
31
0.0
0
LINE
8
0
6
CONTINUOUS
10
24.688933
20
3.402869
30
0.0
11
24.688933
21
2.955928
31
0.0
0
LINE
8
0
6
CONTINUOUS
10
24.688933
20
3.880110
30
0.0
11
24.688933
21
3.402869
31
0.0
0
LINE
8
0
6
CONTINUOUS
10
24.688933
20
4.355199
30
0.0
11
24.688933
21
3.880110
31
0.0
0
LINE
8
0
6
CONTINUOUS
10
24.688933
20
4.790692
30
0.0
11
24.688933
21
4.355199
31
0.0
0
LINE
8
0
6
CONTINUOUS
10
24.688933
20
5.165386
30
0.0
11
24.688933
21
4.790692
31
0.0
0
LINE
8
0
6
CONTINUOUS
10
24.688933
20
5.452008
30
0.0
11
24.688933
21
5.165386
31
0.0
0
LINE
8
0
6
CONTINUOUS
10
24.688933
20
5.632338
30
0.0
11
24.688933
21
5.452008
31
0.0
0
LINE
8
0
6
CONTINUOUS
10
24.688933
20
5.694913
30
0.0
11
24.688933
21
5.632338
31
0.0
0
LINE
8
0
6
CONTINUOUS
10
24.712138
20
2.608202
30
0.0
11
24.688933
21
2.608096
31
0.0
0
LINE
8
0
6
CONTINUOUS
10
22.637153
20
1.337776
30
0.0
11
22.693339
21
1.338675
31
0.0
0
LINE
8
0
6
CONTINUOUS
10
24.664275
20
1.370641
30
0.0
11
24.718783
21
1.371077
31
0.0
0
LINE
8
0
6
CONTINUOUS
10
22.693339
20
1.338675
30
0.0
11
24.664275
21
1.370641
31
0.0
0
LINE
8
0
6
CONTINUOUS
10
22.637153
20
1.337776
30
0.0
11
22.637225
21
1.389540
31
0.0
0
LINE
8
0
6
CONTINUOUS
10
22.636840
20
1.512534
30
0.0
11
22.636137
21
1.653421
31
0.0
0
LINE
8
0
6
CONTINUOUS
10
22.636137
20
1.653421
30
0.0
11
22.635283
21
1.786221
31
0.0
0
LINE
8
0
6
CONTINUOUS
10
22.630606
20
2.241614
30
0.0
11
22.635893
21
1.448468
31
0.0
0
LINE
8
0
6
CONTINUOUS
10
22.635283
20
1.786221
30
0.0
11
22.630000
21
2.579362
31
0.0
0
LINE
8
0
6
CONTINUOUS
10
22.637225
20
1.389540
30
0.0
11
22.636840
21
1.512534
31
0.0
0
LINE
8
0
6
CONTINUOUS
10
24.719017
20
1.423567
30
0.0
11
24.718783
21
1.371077
31
0.0
0
LINE
8
0
6
CONTINUOUS
10
24.718234
20
1.682069
30
0.0
11
24.718818
21
1.540649
31
0.0
0
LINE
8
0
6
CONTINUOUS
10
24.717426
20
1.815061
30
0.0
11
24.718234
21
1.682069
31
0.0
0
LINE
8
0
6
CONTINUOUS
10
24.712138
20
2.608202
30
0.0
11
24.717426
21
1.815061
31
0.0
0
LINE
8
0
6
CONTINUOUS
10
24.718818
20
1.540649
30
0.0
11
24.719017
21
1.423567
31
0.0
0
LINE
8
0
6
CONTINUOUS
10
3.983294
20
6.650934
30
0.0
11
9.503325
21
6.650834
31
0.0
0
LINE
8
0
6
CONTINUOUS
10
9.503325
20
6.650802
30
0.0
11
3.912000
21
6.660037
31
0.0
0
LINE
8
0
6
CONTINUOUS
10
1.416667
20
7.625262
30
0.0
11
1.456053
21
7.618063
31
0.0
0
LINE
8
0
6
CONTINUOUS
10
1.824099
20
7.550787
30
0.0
11
1.456053
21
7.618063
31
0.0
0
LINE
8
0
6
CONTINUOUS
10
3.000337
20
7.625262
30
0.0
11
2.528481
21
7.632982
31
0.0
0
LINE
8
0
6
CONTINUOUS
10
3.000337
20
7.625262
30
0.0
11
3.020030
21
7.618063
31
0.0
0
LINE
8
0
6
CONTINUOUS
10
2.487196
20
7.625037
30
0.0
11
2.528481
21
7.632982
31
0.0
0
LINE
8
0
6
CONTINUOUS
10
2.487196
20
7.625037
30
0.0
11
2.101407
21
7.550787
31
0.0
0
LINE
8
0
6
CONTINUOUS
10
3.204052
20
7.550787
30
0.0
11
3.020030
21
7.618063
31
0.0
0
LINE
8
0
6
CONTINUOUS
10
3.204052
20
7.550787
30
0.0
11
2.101407
21
7.550787
31
0.0
0
LINE
8
0
6
CONTINUOUS
10
3.546669
20
7.625262
30
0.0
11
3.556490
21
7.632982
31
0.0
0
LINE
8
0
6
CONTINUOUS
10
3.546669
20
7.625262
30
0.0
11
3.526976
21
7.618063
31
0.0
0
LINE
8
0
6
CONTINUOUS
10
3.535849
20
7.625037
30
0.0
11
3.556490
21
7.632982
31
0.0
0
LINE
8
0
6
CONTINUOUS
10
3.556490
20
7.632982
30
0.0
11
3.556490
21
7.668392
31
0.0
0
LINE
8
0
6
CONTINUOUS
10
3.535849
20
7.625037
30
0.0
11
3.342956
21
7.550787
31
0.0
0
LINE
8
0
6
CONTINUOUS
10
3.526976
20
7.618063
30
0.0
11
3.342956
21
7.550787
31
0.0
0
LINE
8
0
6
CONTINUOUS
10
3.556492
20
8.304745
30
0.0
11
3.556490
21
7.668392
31
0.0
0
LINE
8
0
6
CONTINUOUS
10
2.101407
20
7.550787
30
0.0
11
1.824099
21
7.550787
31
0.0
0
LINE
8
0
6
CONTINUOUS
10
3.342956
20
7.550787
30
0.0
11
3.204052
21
7.550787
31
0.0
0
LINE
8
0
6
CONTINUOUS
10
1.456053
20
8.991428
30
0.0
11
1.416667
21
8.984228
31
0.0
0
LINE
8
0
6
CONTINUOUS
10
1.456053
20
8.991428
30
0.0
11
1.812724
21
9.056624
31
0.0
0
LINE
8
0
6
CONTINUOUS
10
1.812724
20
9.056624
30
0.0
11
1.824099
21
9.058703
31
0.0
0
LINE
8
0
6
CONTINUOUS
10
0.583048
20
9.058703
30
0.0
11
0.721453
21
9.058703
31
0.0
0
LINE
8
0
6
CONTINUOUS
10
0.721453
20
9.058703
30
0.0
11
1.813001
21
9.058703
31
0.0
0
LINE
8
0
6
CONTINUOUS
10
1.813001
20
9.058703
30
0.0
11
1.824099
21
9.058703
31
0.0
0
LINE
8
0
6
CONTINUOUS
10
2.528481
20
8.976508
30
0.0
11
3.000337
21
8.984228
31
0.0
0
LINE
8
0
6
CONTINUOUS
10
3.020030
20
8.991428
30
0.0
11
3.000337
21
8.984228
31
0.0
0
LINE
8
0
6
CONTINUOUS
10
2.528481
20
8.976508
30
0.0
11
2.487196
21
8.984454
31
0.0
0
LINE
8
0
6
CONTINUOUS
10
3.020030
20
8.991428
30
0.0
11
3.204052
21
9.058703
31
0.0
0
LINE
8
0
6
CONTINUOUS
10
2.101407
20
9.058703
30
0.0
11
2.487196
21
8.984454
31
0.0
0
LINE
8
0
6
CONTINUOUS
10
2.101407
20
9.058703
30
0.0
11
3.204052
21
9.058703
31
0.0
0
LINE
8
0
6
CONTINUOUS
10
3.556490
20
8.976508
30
0.0
11
3.546669
21
8.984228
31
0.0
0
LINE
8
0
6
CONTINUOUS
10
3.526976
20
8.991428
30
0.0
11
3.546669
21
8.984228
31
0.0
0
LINE
8
0
6
CONTINUOUS
10
3.556490
20
8.941098
30
0.0
11
3.556490
21
8.976508
31
0.0
0
LINE
8
0
6
CONTINUOUS
10
3.556490
20
8.976508
30
0.0
11
3.535849
21
8.984454
31
0.0
0
LINE
8
0
6
CONTINUOUS
10
3.526976
20
8.991428
30
0.0
11
3.342956
21
9.058703
31
0.0
0
LINE
8
0
6
CONTINUOUS
10
3.342956
20
9.058703
30
0.0
11
3.535849
21
8.984454
31
0.0
0
LINE
8
0
6
CONTINUOUS
10
3.556490
20
8.941098
30
0.0
11
3.556492
21
8.304745
31
0.0
0
LINE
8
0
6
CONTINUOUS
10
1.824099
20
9.058703
30
0.0
11
2.101407
21
9.058703
31
0.0
0
LINE
8
0
6
CONTINUOUS
10
3.204052
20
9.058703
30
0.0
11
3.342956
21
9.058703
31
0.0
0
LINE
8
0
6
CONTINUOUS
10
3.342953
20
9.058703
30
0.0
11
3.329744
21
9.058703
31
0.0
0
LINE
8
0
6
CONTINUOUS
10
0.632532
20
9.058703
30
0.0
11
0.583048
21
9.058703
31
0.0
0
LINE
8
0
6
CONTINUOUS
10
18.071661
20
7.632982
30
0.0
11
17.589987
21
7.625262
31
0.0
0
LINE
8
0
6
CONTINUOUS
10
17.550602
20
7.618063
30
0.0
11
17.589987
21
7.625262
31
0.0
0
LINE
8
0
6
CONTINUOUS
10
18.071661
20
7.632982
30
0.0
11
18.092308
21
7.625037
31
0.0
0
LINE
8
0
6
CONTINUOUS
10
17.550602
20
7.618063
30
0.0
11
17.182556
21
7.550787
31
0.0
0
LINE
8
0
6
CONTINUOUS
10
18.285201
20
7.550787
30
0.0
11
18.092308
21
7.625037
31
0.0
0
LINE
8
0
6
CONTINUOUS
10
18.423606
20
7.550787
30
0.0
11
18.285201
21
7.550787
31
0.0
0
LINE
8
0
6
CONTINUOUS
10
18.285201
20
7.550787
30
0.0
11
17.182556
21
7.550787
31
0.0
0
LINE
8
0
6
CONTINUOUS
10
16.478171
20
7.632982
30
0.0
11
16.519458
21
7.625037
31
0.0
0
LINE
8
0
6
CONTINUOUS
10
16.905249
20
7.550787
30
0.0
11
16.893950
21
7.552962
31
0.0
0
LINE
8
0
6
CONTINUOUS
10
16.893950
20
7.552962
30
0.0
11
16.519458
21
7.625037
31
0.0
0
LINE
8
0
6
CONTINUOUS
10
16.905249
20
7.550787
30
0.0
11
16.893652
21
7.550787
31
0.0
0
LINE
8
0
6
CONTINUOUS
10
18.637146
20
7.632982
30
0.0
11
18.627319
21
7.625262
31
0.0
0
LINE
8
0
6
CONTINUOUS
10
18.607627
20
7.618063
30
0.0
11
18.627319
21
7.625262
31
0.0
0
LINE
8
0
6
CONTINUOUS
10
18.637146
20
7.668392
30
0.0
11
18.637146
21
7.632982
31
0.0
0
LINE
8
0
6
CONTINUOUS
10
18.637146
20
7.668392
30
0.0
11
18.637146
21
8.304745
31
0.0
0
LINE
8
0
6
CONTINUOUS
10
17.182556
20
7.550787
30
0.0
11
16.905249
21
7.550787
31
0.0
0
LINE
8
0
6
CONTINUOUS
10
18.607627
20
7.618063
30
0.0
11
18.423606
21
7.550787
31
0.0
0
LINE
8
0
6
CONTINUOUS
10
17.589987
20
8.984228
30
0.0
11
18.071661
21
8.976508
31
0.0
0
LINE
8
0
6
CONTINUOUS
10
17.589987
20
8.984228
30
0.0
11
17.550602
21
8.991428
31
0.0
0
LINE
8
0
6
CONTINUOUS
10
18.092308
20
8.984454
30
0.0
11
18.071661
21
8.976508
31
0.0
0
LINE
8
0
6
CONTINUOUS
10
18.092308
20
8.984454
30
0.0
11
18.285201
21
9.058703
31
0.0
0
LINE
8
0
6
CONTINUOUS
10
17.182556
20
9.058703
30
0.0
11
17.550602
21
8.991428
31
0.0
0
LINE
8
0
6
CONTINUOUS
10
18.285201
20
9.058703
30
0.0
11
18.423606
21
9.058703
31
0.0
0
LINE
8
0
6
CONTINUOUS
10
17.182556
20
9.058703
30
0.0
11
18.285201
21
9.058703
31
0.0
0
LINE
8
0
6
CONTINUOUS
10
16.519458
20
8.984454
30
0.0
11
16.478171
21
8.976508
31
0.0
0
LINE
8
0
6
CONTINUOUS
10
16.519458
20
8.984454
30
0.0
11
16.905249
21
9.058703
31
0.0
0
LINE
8
0
6
CONTINUOUS
10
15.802604
20
9.058703
30
0.0
11
16.905249
21
9.058703
31
0.0
0
LINE
8
0
6
CONTINUOUS
10
18.627319
20
8.984228
30
0.0
11
18.637146
21
8.976508
31
0.0
0
LINE
8
0
6
CONTINUOUS
10
18.627319
20
8.984228
30
0.0
11
18.607627
21
8.991428
31
0.0
0
LINE
8
0
6
CONTINUOUS
10
18.637146
20
8.976508
30
0.0
11
18.637146
21
8.941098
31
0.0
0
LINE
8
0
6
CONTINUOUS
10
18.637146
20
8.304745
30
0.0
11
18.637146
21
8.941098
31
0.0
0
LINE
8
0
6
CONTINUOUS
10
16.905249
20
9.058703
30
0.0
11
17.182556
21
9.058703
31
0.0
0
LINE
8
0
6
CONTINUOUS
10
15.663700
20
9.058703
30
0.0
11
15.802604
21
9.058703
31
0.0
0
LINE
8
0
6
CONTINUOUS
10
15.676909
20
9.058703
30
0.0
11
15.663703
21
9.058703
31
0.0
0
LINE
8
0
6
CONTINUOUS
10
18.423606
20
9.058703
30
0.0
11
18.607627
21
8.991428
31
0.0
0
LINE
8
0
6
CONTINUOUS
10
18.423606
20
9.058703
30
0.0
11
18.374119
21
9.058703
31
0.0
0
LINE
8
0
6
CONTINUOUS
10
-12.017708
20
-7.967792
30
0.0
11
-12.015140
21
-7.954648
31
0.0
0
LINE
8
0
6
CONTINUOUS
10
-12.392387
20
-9.063727
30
0.0
11
-12.017708
21
-7.967792
31
0.0
0
LINE
8
0
6
CONTINUOUS
10
-17.284993
20
-11.750806
30
0.0
11
-15.964251
21
-11.610501
31
0.0
0
LINE
8
0
6
CONTINUOUS
10
-15.964251
20
-11.610501
30
0.0
11
-14.689297
21
-11.192685
31
0.0
0
LINE
8
0
6
CONTINUOUS
10
-14.689297
20
-11.192685
30
0.0
11
-13.567480
21
-10.498481
31
0.0
0
LINE
8
0
6
CONTINUOUS
10
-12.426239
20
-9.130397
30
0.0
11
-12.392387
21
-9.063727
31
0.0
0
LINE
8
0
6
CONTINUOUS
10
-12.916332
20
-9.859548
30
0.0
11
-12.426239
21
-9.130397
31
0.0
0
LINE
8
0
6
CONTINUOUS
10
-13.567480
20
-10.498481
30
0.0
11
-12.916332
21
-9.859548
31
0.0
0
LINE
8
0
6
CONTINUOUS
10
-13.383770
20
-3.456498
30
0.0
11
-13.892765
21
-3.055078
31
0.0
0
LINE
8
0
6
CONTINUOUS
10
-16.283899
20
4.883040
30
0.0
11
-16.581519
21
5.047179
31
0.0
0
LINE
8
0
6
CONTINUOUS
10
-16.011019
20
4.624753
30
0.0
11
-16.043414
21
4.662301
31
0.0
0
LINE
8
0
6
CONTINUOUS
10
-15.770141
20
2.040596
30
0.0
11
-15.931292
21
3.767070
31
0.0
0
LINE
8
0
6
CONTINUOUS
10
-15.784550
20
2.101170
30
0.0
11
-15.661052
21
0.758135
31
0.0
0
LINE
8
0
6
CONTINUOUS
10
-15.644708
20
0.683501
30
0.0
11
-15.770141
21
2.040596
31
0.0
0
LINE
8
0
6
CONTINUOUS
10
-15.661052
20
0.758135
30
0.0
11
-15.561126
21
-0.337980
31
0.0
0
LINE
8
0
6
CONTINUOUS
10
-15.543522
20
-0.426280
30
0.0
11
-15.644708
21
0.683501
31
0.0
0
LINE
8
0
6
CONTINUOUS
10
-15.453858
20
-1.088623
30
0.0
11
-15.543522
21
-0.426280
31
0.0
0
LINE
8
0
6
CONTINUOUS
10
-15.463853
20
-1.062975
30
0.0
11
-15.561126
21
-0.337980
31
0.0
0
LINE
8
0
6
CONTINUOUS
10
-14.850393
20
-2.195408
30
0.0
11
-15.244396
21
-1.626161
31
0.0
0
LINE
8
0
6
CONTINUOUS
10
-11.994785
20
-7.065639
30
0.0
11
-12.375263
21
-8.143180
31
0.0
0
LINE
8
0
6
CONTINUOUS
10
-11.906016
20
-7.124328
30
0.0
11
-11.897706
21
-5.953229
31
0.0
0
LINE
8
0
6
CONTINUOUS
10
-11.945563
20
-7.598565
30
0.0
11
-11.909339
21
-7.164197
31
0.0
0
LINE
8
0
6
CONTINUOUS
10
-11.897706
20
-5.953229
30
0.0
11
-12.261116
21
-4.835864
31
0.0
0
LINE
8
0
6
CONTINUOUS
10
-12.975291
20
-3.857622
30
0.0
11
-12.263834
21
-4.835074
31
0.0
0
LINE
8
0
6
CONTINUOUS
10
-12.261116
20
-4.835864
30
0.0
11
-12.972108
21
-3.843704
31
0.0
0
LINE
8
0
6
CONTINUOUS
10
-12.972108
20
-3.843704
30
0.0
11
-13.383770
21
-3.456498
31
0.0
0
LINE
8
0
6
CONTINUOUS
10
-13.383770
20
-3.456498
30
0.0
11
-12.975291
21
-3.857622
31
0.0
0
LINE
8
0
6
CONTINUOUS
10
-15.978748
20
-10.670068
30
0.0
11
-17.284995
21
-10.789228
31
0.0
0
LINE
8
0
6
CONTINUOUS
10
-14.741843
20
-10.285230
30
0.0
11
-15.978748
21
-10.670068
31
0.0
0
LINE
8
0
6
CONTINUOUS
10
-13.618610
20
-9.611239
30
0.0
11
-14.741843
21
-10.285230
31
0.0
0
LINE
8
0
6
CONTINUOUS
10
-12.375263
20
-8.143180
30
0.0
11
-12.891545
21
-8.901940
31
0.0
0
LINE
8
0
6
CONTINUOUS
10
-12.891545
20
-8.901940
30
0.0
11
-13.618610
21
-9.611239
31
0.0
0
LINE
8
0
6
CONTINUOUS
10
-14.405327
20
-2.622430
30
0.0
11
-14.850393
21
-2.195408
31
0.0
0
LINE
8
0
6
CONTINUOUS
10
-13.892765
20
-3.055078
30
0.0
11
-14.405327
21
-2.622430
31
0.0
0
LINE
8
0
6
CONTINUOUS
10
-15.244396
20
-1.626161
30
0.0
11
-15.463853
21
-1.062975
31
0.0
0
LINE
8
0
6
CONTINUOUS
10
-11.994785
20
-7.065639
30
0.0
11
-11.940683
21
-5.927882
31
0.0
0
LINE
8
0
6
CONTINUOUS
10
-11.940683
20
-5.927882
30
0.0
11
-12.263834
21
-4.835074
31
0.0
0
LINE
8
0
6
CONTINUOUS
10
-11.909339
20
-7.164197
30
0.0
11
-11.906016
21
-7.124328
31
0.0
0
LINE
8
0
6
CONTINUOUS
10
-12.015140
20
-7.954648
30
0.0
11
-11.945563
21
-7.598565
31
0.0
0
LINE
8
0
6
CONTINUOUS
10
-16.581519
20
5.047179
30
0.0
11
-16.925454
21
5.150249
31
0.0
0
LINE
8
0
6
CONTINUOUS
10
-16.925454
20
5.150249
30
0.0
11
-17.284958
21
5.185263
31
0.0
0
LINE
8
0
6
CONTINUOUS
10
-16.043414
20
4.662301
30
0.0
11
-16.283899
21
4.883040
31
0.0
0
LINE
8
0
6
CONTINUOUS
10
-15.931292
20
3.767070
30
0.0
11
-16.004397
21
4.556709
31
0.0
0
LINE
8
0
6
CONTINUOUS
10
-22.552267
20
-7.967786
30
0.0
11
-22.177591
21
-9.063724
31
0.0
0
LINE
8
0
6
CONTINUOUS
10
-22.554833
20
-7.954644
30
0.0
11
-22.552267
21
-7.967786
31
0.0
0
LINE
8
0
6
CONTINUOUS
10
-18.605734
20
-11.610499
30
0.0
11
-17.284993
21
-11.750806
31
0.0
0
LINE
8
0
6
CONTINUOUS
10
-19.880686
20
-11.192683
30
0.0
11
-18.605734
21
-11.610499
31
0.0
0
LINE
8
0
6
CONTINUOUS
10
-21.002501
20
-10.498477
30
0.0
11
-19.880686
21
-11.192683
31
0.0
0
LINE
8
0
6
CONTINUOUS
10
-22.143739
20
-9.130393
30
0.0
11
-21.653648
21
-9.859544
31
0.0
0
LINE
8
0
6
CONTINUOUS
10
-22.177591
20
-9.063724
30
0.0
11
-22.143739
21
-9.130393
31
0.0
0
LINE
8
0
6
CONTINUOUS
10
-21.653648
20
-9.859544
30
0.0
11
-21.002501
21
-10.498477
31
0.0
0
LINE
8
0
6
CONTINUOUS
10
-20.677198
20
-3.055075
30
0.0
11
-21.186195
21
-3.456494
31
0.0
0
LINE
8
0
6
CONTINUOUS
10
-17.988397
20
5.047180
30
0.0
11
-18.286018
21
4.883041
31
0.0
0
LINE
8
0
6
CONTINUOUS
10
-18.526502
20
4.662302
30
0.0
11
-18.558897
21
4.624754
31
0.0
0
LINE
8
0
6
CONTINUOUS
10
-18.638630
20
3.767072
30
0.0
11
-18.799793
21
2.040598
31
0.0
0
LINE
8
0
6
CONTINUOUS
10
-18.799793
20
2.040598
30
0.0
11
-18.925235
21
0.683503
31
0.0
0
LINE
8
0
6
CONTINUOUS
10
-18.908890
20
0.758137
30
0.0
11
-18.785384
21
2.101171
31
0.0
0
LINE
8
0
6
CONTINUOUS
10
-18.925235
20
0.683503
30
0.0
11
-19.026428
21
-0.426278
31
0.0
0
LINE
8
0
6
CONTINUOUS
10
-19.008824
20
-0.337978
30
0.0
11
-18.908890
21
0.758137
31
0.0
0
LINE
8
0
6
CONTINUOUS
10
-19.026428
20
-0.426278
30
0.0
11
-19.116094
21
-1.088620
31
0.0
0
LINE
8
0
6
CONTINUOUS
10
-19.008824
20
-0.337978
30
0.0
11
-19.106101
21
-1.062974
31
0.0
0
LINE
8
0
6
CONTINUOUS
10
-19.325562
20
-1.626159
30
0.0
11
-19.719567
21
-2.195405
31
0.0
0
LINE
8
0
6
CONTINUOUS
10
-22.194719
20
-8.143176
30
0.0
11
-22.575193
21
-7.065633
31
0.0
0
LINE
8
0
6
CONTINUOUS
10
-22.672267
20
-5.953223
30
0.0
11
-22.663962
21
-7.124324
31
0.0
0
LINE
8
0
6
CONTINUOUS
10
-22.660636
20
-7.164191
30
0.0
11
-22.624413
21
-7.598561
31
0.0
0
LINE
8
0
6
CONTINUOUS
10
-22.308853
20
-4.835858
30
0.0
11
-22.672267
21
-5.953223
31
0.0
0
LINE
8
0
6
CONTINUOUS
10
-21.597859
20
-3.843700
30
0.0
11
-22.308853
21
-4.835858
31
0.0
0
LINE
8
0
6
CONTINUOUS
10
-22.306136
20
-4.835069
30
0.0
11
-21.594676
21
-3.857618
31
0.0
0
LINE
8
0
6
CONTINUOUS
10
-21.186195
20
-3.456494
30
0.0
11
-21.597859
21
-3.843700
31
0.0
0
LINE
8
0
6
CONTINUOUS
10
-21.594676
20
-3.857618
30
0.0
11
-21.186195
21
-3.456494
31
0.0
0
LINE
8
0
6
CONTINUOUS
10
-17.284995
20
-10.789228
30
0.0
11
-18.591240
21
-10.670066
31
0.0
0
LINE
8
0
6
CONTINUOUS
10
-18.591240
20
-10.670066
30
0.0
11
-19.828143
21
-10.285228
31
0.0
0
LINE
8
0
6
CONTINUOUS
10
-19.828143
20
-10.285228
30
0.0
11
-20.951376
21
-9.611238
31
0.0
0
LINE
8
0
6
CONTINUOUS
10
-21.678439
20
-8.901937
30
0.0
11
-22.194719
21
-8.143176
31
0.0
0
LINE
8
0
6
CONTINUOUS
10
-20.951376
20
-9.611238
30
0.0
11
-21.678439
21
-8.901937
31
0.0
0
LINE
8
0
6
CONTINUOUS
10
-19.719567
20
-2.195405
30
0.0
11
-20.164635
21
-2.622427
31
0.0
0
LINE
8
0
6
CONTINUOUS
10
-20.164635
20
-2.622427
30
0.0
11
-20.677198
21
-3.055075
31
0.0
0
LINE
8
0
6
CONTINUOUS
10
-19.106101
20
-1.062974
30
0.0
11
-19.325562
21
-1.626159
31
0.0
0
LINE
8
0
6
CONTINUOUS
10
-22.629291
20
-5.927877
30
0.0
11
-22.575193
21
-7.065633
31
0.0
0
LINE
8
0
6
CONTINUOUS
10
-22.306136
20
-4.835069
30
0.0
11
-22.629291
21
-5.927877
31
0.0
0
LINE
8
0
6
CONTINUOUS
10
-22.663962
20
-7.124324
30
0.0
11
-22.660636
21
-7.164191
31
0.0
0
LINE
8
0
6
CONTINUOUS
10
-22.624413
20
-7.598561
30
0.0
11
-22.554833
21
-7.954644
31
0.0
0
LINE
8
0
6
CONTINUOUS
10
-17.644462
20
5.150250
30
0.0
11
-17.988397
21
5.047180
31
0.0
0
LINE
8
0
6
CONTINUOUS
10
-17.284958
20
5.185263
30
0.0
11
-17.644462
21
5.150250
31
0.0
0
LINE
8
0
6
CONTINUOUS
10
-18.286018
20
4.883041
30
0.0
11
-18.526502
21
4.662302
31
0.0
0
LINE
8
0
6
CONTINUOUS
10
-18.565519
20
4.556710
30
0.0
11
-18.638630
21
3.767072
31
0.0
0
LINE
8
0
6
CONTINUOUS
10
-16.159465
20
4.768823
30
0.0
11
-16.257902
21
5.679131
31
0.0
0
LINE
8
0
6
CONTINUOUS
10
-16.396878
20
6.143826
30
0.0
11
-16.453696
21
6.207882
31
0.0
0
LINE
8
0
6
CONTINUOUS
10
-16.257902
20
5.679131
30
0.0
11
-16.260561
21
5.703733
31
0.0
0
LINE
8
0
6
CONTINUOUS
10
-16.260561
20
5.703733
30
0.0
11
-16.295231
21
5.931542
31
0.0
0
LINE
8
0
6
CONTINUOUS
10
-16.295231
20
5.931542
30
0.0
11
-16.396878
21
6.143826
31
0.0
0
LINE
8
0
6
CONTINUOUS
10
-18.327237
20
4.885604
30
0.0
11
-18.293601
21
4.946353
31
0.0
0
LINE
8
0
6
CONTINUOUS
10
-18.293601
20
4.946353
30
0.0
11
-18.271931
21
4.996416
31
0.0
0
LINE
8
0
6
CONTINUOUS
10
-16.703371
20
5.399759
30
0.0
11
-16.639616
21
5.347512
31
0.0
0
LINE
8
0
6
CONTINUOUS
10
-17.759644
20
5.465347
30
0.0
11
-17.637510
21
5.502752
31
0.0
0
LINE
8
0
6
CONTINUOUS
10
-17.637510
20
5.502752
30
0.0
11
-17.572834
21
5.531805
31
0.0
0
LINE
8
0
6
CONTINUOUS
10
-16.983144
20
5.528371
30
0.0
11
-16.949146
21
5.512690
31
0.0
0
LINE
8
0
6
CONTINUOUS
10
-17.278041
20
5.574815
30
0.0
11
-17.261209
21
5.572498
31
0.0
0
LINE
8
0
6
CONTINUOUS
10
-18.271931
20
4.996416
30
0.0
11
-18.119880
21
5.188469
31
0.0
0
LINE
8
0
6
CONTINUOUS
10
-18.119880
20
5.188469
30
0.0
11
-18.087201
21
5.230709
31
0.0
0
ENDSEC
0
EOF
