999
unknown String-ID: 20550
0
SECTION
2
HEADER
9
$ACADVER
1
AC1009
9
$DWGCODEPAGE
3
unknown String-ID: 20561
0
ENDSEC
0
SECTION
2
TABLES
0
TABLE
2
LAYER
70
1
0
LAYER
2
0
70
0
62
7
6
CONTINUOUS
0
ENDTAB
0
ENDSEC
0
SECTION
2
ENTITIES
0
LINE
8
0
6
CONTINUOUS
10
-7.049862
20
28.982304
30
0.0
11
-7.349088
21
28.427270
31
0.0
0
LINE
8
0
6
CONTINUOUS
10
-6.767268
20
25.893800
30
0.0
11
-6.648331
21
26.148426
31
0.0
0
LINE
8
0
6
CONTINUOUS
10
-7.349088
20
28.427270
30
0.0
11
-8.239320
21
26.520749
31
0.0
0
LINE
8
0
6
CONTINUOUS
10
-7.415131
20
24.215593
30
0.0
11
-6.767268
21
25.893800
31
0.0
0
LINE
8
0
6
CONTINUOUS
10
-8.239320
20
26.520749
30
0.0
11
-8.928827
21
24.733976
31
0.0
0
LINE
8
0
6
CONTINUOUS
10
-7.891141
20
22.629499
30
0.0
11
-7.415131
21
24.215593
31
0.0
0
LINE
8
0
6
CONTINUOUS
10
-8.928827
20
24.733976
30
0.0
11
-9.440683
21
23.028146
31
0.0
0
LINE
8
0
6
CONTINUOUS
10
-8.222859
20
21.088525
30
0.0
11
-7.891141
21
22.629499
31
0.0
0
LINE
8
0
6
CONTINUOUS
10
-9.440683
20
23.028146
30
0.0
11
-9.798479
21
21.366773
31
0.0
0
LINE
8
0
6
CONTINUOUS
10
-8.436340
20
19.544656
30
0.0
11
-8.222859
21
21.088525
31
0.0
0
LINE
8
0
6
CONTINUOUS
10
-9.798479
20
21.366773
30
0.0
11
-10.027309
21
19.714410
31
0.0
0
LINE
8
0
6
CONTINUOUS
10
-8.556046
20
17.950914
30
0.0
11
-8.436340
21
19.544656
31
0.0
0
LINE
8
0
6
CONTINUOUS
10
-10.027309
20
19.714410
30
0.0
11
-10.153860
21
18.034543
31
0.0
0
LINE
8
0
6
CONTINUOUS
10
-8.605730
20
16.262876
30
0.0
11
-8.556046
21
17.950914
31
0.0
0
LINE
8
0
6
CONTINUOUS
10
-10.153860
20
18.034543
30
0.0
11
-10.205530
21
16.288129
31
0.0
0
LINE
8
0
6
CONTINUOUS
10
-8.609435
20
14.438783
30
0.0
11
-8.605730
21
16.262876
31
0.0
0
LINE
8
0
6
CONTINUOUS
10
-10.205530
20
16.288129
30
0.0
11
-10.209426
21
14.433446
31
0.0
0
LINE
8
0
6
CONTINUOUS
10
-8.591982
20
12.442125
30
0.0
11
-8.609435
21
14.438783
31
0.0
0
LINE
8
0
6
CONTINUOUS
10
-10.209426
20
14.433446
30
0.0
11
-10.191874
21
12.423536
31
0.0
0
LINE
8
0
6
CONTINUOUS
10
-8.531531
20
8.272340
30
0.0
11
-8.591982
21
12.442125
31
0.0
0
LINE
8
0
6
CONTINUOUS
10
-10.191874
20
12.423536
30
0.0
11
-10.131251
21
8.242401
31
0.0
0
LINE
8
0
6
CONTINUOUS
10
-8.433437
20
3.995082
30
0.0
11
-8.531531
21
8.272340
31
0.0
0
LINE
8
0
6
CONTINUOUS
10
-10.131251
20
8.242401
30
0.0
11
-10.032893
21
3.953359
31
0.0
0
LINE
8
0
6
CONTINUOUS
10
-8.308026
20
-0.293963
30
0.0
11
-8.433437
21
3.995082
31
0.0
0
LINE
8
0
6
CONTINUOUS
10
-10.032893
20
3.953359
30
0.0
11
-9.907231
21
-0.344428
31
0.0
0
LINE
8
0
6
CONTINUOUS
10
-8.165662
20
-4.497094
30
0.0
11
-8.308026
21
-0.293963
31
0.0
0
LINE
8
0
6
CONTINUOUS
10
-9.907231
20
-0.344428
30
0.0
11
-9.764657
21
-4.553799
31
0.0
0
LINE
8
0
6
CONTINUOUS
10
-8.016711
20
-8.516776
30
0.0
11
-8.165662
21
-4.497094
31
0.0
0
LINE
8
0
6
CONTINUOUS
10
-9.764657
20
-4.553799
30
0.0
11
-9.615561
21
-8.577438
31
0.0
0
LINE
8
0
6
CONTINUOUS
10
-7.871541
20
-12.255646
30
0.0
11
-8.016711
21
-8.516776
31
0.0
0
LINE
8
0
6
CONTINUOUS
10
-9.615561
20
-8.577438
30
0.0
11
-9.470331
21
-12.317851
31
0.0
0
LINE
8
0
6
CONTINUOUS
10
-7.740512
20
-15.616607
30
0.0
11
-7.871541
21
-12.255646
31
0.0
0
LINE
8
0
6
CONTINUOUS
10
-9.470331
20
-12.317851
30
0.0
11
-9.339362
21
-15.677280
31
0.0
0
LINE
8
0
6
CONTINUOUS
10
-7.679247
20
-17.276560
30
0.0
11
-7.740512
21
-15.616607
31
0.0
0
LINE
8
0
6
CONTINUOUS
10
-9.339362
20
-15.677280
30
0.0
11
-9.280333
21
-17.276560
31
0.0
0
LINE
8
0
6
CONTINUOUS
10
-3.678702
20
30.503244
30
0.0
11
-3.733633
21
30.705862
31
0.0
0
LINE
8
0
6
CONTINUOUS
10
-3.761565
20
30.790506
30
0.0
11
-3.759265
21
30.786303
31
0.0
0
LINE
8
0
6
CONTINUOUS
10
-3.678702
20
30.503244
30
0.0
11
-3.761565
21
30.790506
31
0.0
0
LINE
8
0
6
CONTINUOUS
10
-3.791576
20
30.857099
30
0.0
11
-3.761565
21
30.790506
31
0.0
0
LINE
8
0
6
CONTINUOUS
10
-7.384552
20
29.711000
30
0.0
11
-7.302512
21
29.426229
31
0.0
0
LINE
8
0
6
CONTINUOUS
10
-7.302512
20
29.426229
30
0.0
11
-7.298453
21
29.413072
31
0.0
0
LINE
8
0
6
CONTINUOUS
10
-7.384552
20
29.711000
30
0.0
11
-7.292117
21
29.402498
31
0.0
0
LINE
8
0
6
CONTINUOUS
10
-7.271676
20
29.357141
30
0.0
11
-7.292117
21
29.402498
31
0.0
0
LINE
8
0
6
CONTINUOUS
10
-7.283682
20
29.386354
30
0.0
11
-7.298453
21
29.413072
31
0.0
0
LINE
8
0
6
CONTINUOUS
10
-3.637036
20
30.134157
30
0.0
11
-3.678702
21
30.503244
31
0.0
0
LINE
8
0
6
CONTINUOUS
10
-3.740156
20
30.695899
30
0.0
11
-3.791576
21
30.857099
31
0.0
0
LINE
8
0
6
CONTINUOUS
10
-6.606636
20
31.667329
30
0.0
11
-6.890381
21
31.427629
31
0.0
0
LINE
8
0
6
CONTINUOUS
10
-3.941343
20
29.077066
30
0.0
11
-3.770928
21
29.407102
31
0.0
0
LINE
8
0
6
CONTINUOUS
10
-3.668176
20
29.764039
30
0.0
11
-3.637036
21
30.134157
31
0.0
0
LINE
8
0
6
CONTINUOUS
10
-5.874782
20
28.243730
30
0.0
11
-5.504648
21
28.212602
31
0.0
0
LINE
8
0
6
CONTINUOUS
10
-4.211022
20
31.465867
30
0.0
11
-4.501480
21
31.697374
31
0.0
0
LINE
8
0
6
CONTINUOUS
10
-5.558604
20
32.001634
30
0.0
11
-5.927702
21
31.959958
31
0.0
0
LINE
8
0
6
CONTINUOUS
10
-5.135550
20
28.254285
30
0.0
11
-4.781672
21
28.367162
31
0.0
0
LINE
8
0
6
CONTINUOUS
10
-7.292326
20
30.807142
30
0.0
11
-7.395076
21
30.450204
31
0.0
0
LINE
8
0
6
CONTINUOUS
10
-6.890381
20
31.427629
30
0.0
11
-7.121911
21
31.137178
31
0.0
0
LINE
8
0
6
CONTINUOUS
10
-3.791576
20
30.857099
30
0.0
11
-3.971319
21
31.182138
31
0.0
0
LINE
8
0
6
CONTINUOUS
10
-6.231729
20
28.346467
30
0.0
11
-5.874782
21
28.243730
31
0.0
0
LINE
8
0
6
CONTINUOUS
10
-3.770928
20
29.407102
30
0.0
11
-3.668176
21
29.764039
31
0.0
0
LINE
8
0
6
CONTINUOUS
10
-6.561773
20
28.516866
30
0.0
11
-6.231729
21
28.346467
31
0.0
0
LINE
8
0
6
CONTINUOUS
10
-4.172872
20
28.786615
30
0.0
11
-3.941343
21
29.077066
31
0.0
0
LINE
8
0
6
CONTINUOUS
10
-6.281580
20
31.847078
30
0.0
11
-6.606636
21
31.667329
31
0.0
0
LINE
8
0
6
CONTINUOUS
10
-6.852230
20
28.748376
30
0.0
11
-6.561773
21
28.516866
31
0.0
0
LINE
8
0
6
CONTINUOUS
10
-7.426217
20
30.080083
30
0.0
11
-7.384550
21
29.711000
31
0.0
0
LINE
8
0
6
CONTINUOUS
10
-7.091933
20
29.032102
30
0.0
11
-6.852230
21
28.748376
31
0.0
0
LINE
8
0
6
CONTINUOUS
10
-7.121911
20
31.137178
30
0.0
11
-7.292326
21
30.807142
31
0.0
0
LINE
8
0
6
CONTINUOUS
10
-4.501480
20
31.697374
30
0.0
11
-4.576312
21
31.736010
31
0.0
0
LINE
8
0
6
CONTINUOUS
10
-7.384550
20
29.711000
30
0.0
11
-7.271676
21
29.357141
31
0.0
0
LINE
8
0
6
CONTINUOUS
10
-7.395076
20
30.450204
30
0.0
11
-7.426217
21
30.080083
31
0.0
0
LINE
8
0
6
CONTINUOUS
10
-5.188469
20
31.970506
30
0.0
11
-5.558604
21
32.001634
31
0.0
0
LINE
8
0
6
CONTINUOUS
10
-3.971319
20
31.182138
30
0.0
11
-4.211022
21
31.465867
31
0.0
0
LINE
8
0
6
CONTINUOUS
10
-5.927702
20
31.959958
30
0.0
11
-6.281580
21
31.847078
31
0.0
0
LINE
8
0
6
CONTINUOUS
10
-5.504648
20
28.212602
30
0.0
11
-5.135550
21
28.254285
31
0.0
0
LINE
8
0
6
CONTINUOUS
10
-7.271676
20
29.357141
30
0.0
11
-7.091933
21
29.032102
31
0.0
0
LINE
8
0
6
CONTINUOUS
10
-4.456614
20
28.546911
30
0.0
11
-4.172872
21
28.786615
31
0.0
0
LINE
8
0
6
CONTINUOUS
10
-4.781672
20
28.367162
30
0.0
11
-4.456614
21
28.546911
31
0.0
0
LINE
8
0
6
CONTINUOUS
10
-5.135743
20
31.955331
30
0.0
11
-5.188469
21
31.970506
31
0.0
0
LINE
8
0
6
CONTINUOUS
10
-7.418954
20
30.107129
30
0.0
11
-7.354645
21
30.595582
31
0.0
0
LINE
8
0
6
CONTINUOUS
10
-7.354645
20
29.618673
30
0.0
11
-7.418954
21
30.107129
31
0.0
0
LINE
8
0
6
CONTINUOUS
10
-7.400276
20
30.106351
30
0.0
11
-7.354645
21
29.618673
31
0.0
0
LINE
8
0
6
CONTINUOUS
10
-7.354645
20
29.618673
30
0.0
11
-7.166100
21
29.163507
31
0.0
0
LINE
8
0
6
CONTINUOUS
10
-7.166100
20
29.163507
30
0.0
11
-6.866168
21
28.772653
31
0.0
0
LINE
8
0
6
CONTINUOUS
10
-6.866168
20
28.772653
30
0.0
11
-6.475289
21
28.472734
31
0.0
0
LINE
8
0
6
CONTINUOUS
10
-6.475289
20
28.472734
30
0.0
11
-6.020101
21
28.284200
31
0.0
0
LINE
8
0
6
CONTINUOUS
10
-6.020101
20
28.284200
30
0.0
11
-5.531624
21
28.219892
31
0.0
0
LINE
8
0
6
CONTINUOUS
10
-5.531624
20
28.219892
30
0.0
11
-5.043147
21
28.284200
31
0.0
0
LINE
8
0
6
CONTINUOUS
10
-5.043147
20
28.284200
30
0.0
11
-4.587958
21
28.472734
31
0.0
0
LINE
8
0
6
CONTINUOUS
10
-4.587958
20
28.472734
30
0.0
11
-4.197080
21
28.772653
31
0.0
0
LINE
8
0
6
CONTINUOUS
10
-4.197080
20
28.772653
30
0.0
11
-3.897146
21
29.163507
31
0.0
0
LINE
8
0
6
CONTINUOUS
10
-3.897146
20
29.163507
30
0.0
11
-3.708601
21
29.618673
31
0.0
0
LINE
8
0
6
CONTINUOUS
10
-3.708601
20
29.618673
30
0.0
11
-3.644291
21
30.107129
31
0.0
0
LINE
8
0
6
CONTINUOUS
10
-3.644291
20
30.107129
30
0.0
11
-3.708601
21
30.595579
31
0.0
0
LINE
8
0
6
CONTINUOUS
10
-3.708601
20
30.595579
30
0.0
11
-3.897147
21
31.050744
31
0.0
0
LINE
8
0
6
CONTINUOUS
10
-3.897147
20
31.050744
30
0.0
11
-4.197078
21
31.441602
31
0.0
0
LINE
8
0
6
CONTINUOUS
10
-4.197078
20
31.441602
30
0.0
11
-4.587956
21
31.741521
31
0.0
0
LINE
8
0
6
CONTINUOUS
10
-4.587956
20
31.741521
30
0.0
11
-5.043145
21
31.930059
31
0.0
0
LINE
8
0
6
CONTINUOUS
10
-5.043145
20
31.930059
30
0.0
11
-5.531622
21
31.994367
31
0.0
0
LINE
8
0
6
CONTINUOUS
10
-5.531622
20
31.994367
30
0.0
11
-6.020099
21
31.930059
31
0.0
0
LINE
8
0
6
CONTINUOUS
10
-6.020099
20
31.930059
30
0.0
11
-6.475287
21
31.741521
31
0.0
0
LINE
8
0
6
CONTINUOUS
10
-6.475287
20
31.741521
30
0.0
11
-6.866167
21
31.441606
31
0.0
0
LINE
8
0
6
CONTINUOUS
10
-6.866167
20
31.441606
30
0.0
11
-7.166100
21
31.050744
31
0.0
0
LINE
8
0
6
CONTINUOUS
10
-7.166100
20
31.050744
30
0.0
11
-7.354645
21
30.595582
31
0.0
0
LINE
8
0
6
CONTINUOUS
10
-7.354645
20
30.595582
30
0.0
11
-7.400276
21
30.106351
31
0.0
0
LINE
8
0
6
CONTINUOUS
10
-4.316719
20
32.502550
30
0.0
11
-4.332943
21
32.425840
31
0.0
0
LINE
8
0
6
CONTINUOUS
10
-4.320899
20
32.580846
30
0.0
11
-4.316719
21
32.502550
31
0.0
0
LINE
8
0
6
CONTINUOUS
10
-4.345191
20
32.655393
30
0.0
11
-4.320899
21
32.580846
31
0.0
0
LINE
8
0
6
CONTINUOUS
10
-4.387948
20
32.721109
30
0.0
11
-4.345191
21
32.655393
31
0.0
0
LINE
8
0
6
CONTINUOUS
10
-4.446249
20
32.773519
30
0.0
11
-4.387948
21
32.721109
31
0.0
0
LINE
8
0
6
CONTINUOUS
10
-4.516126
20
32.809034
30
0.0
11
-4.448218
21
32.774520
31
0.0
0
LINE
8
0
6
CONTINUOUS
10
-4.592812
20
32.825258
30
0.0
11
-4.516126
21
32.809034
31
0.0
0
LINE
8
0
6
CONTINUOUS
10
-4.335186
20
32.425805
30
0.0
11
-4.319116
21
32.502408
31
0.0
0
LINE
8
0
6
CONTINUOUS
10
-4.319116
20
32.502408
30
0.0
11
-4.323449
21
32.580587
31
0.0
0
LINE
8
0
6
CONTINUOUS
10
-4.323449
20
32.580587
30
0.0
11
-4.347891
21
32.655004
31
0.0
0
LINE
8
0
6
CONTINUOUS
10
-4.347891
20
32.655004
30
0.0
11
-4.390776
21
32.720605
31
0.0
0
LINE
8
0
6
CONTINUOUS
10
-4.390776
20
32.720605
30
0.0
11
-4.448218
21
32.772050
31
0.0
0
LINE
8
0
6
CONTINUOUS
10
-4.449181
20
32.772912
30
0.0
11
-4.519126
21
32.808347
31
0.0
0
LINE
8
0
6
CONTINUOUS
10
-4.519126
20
32.808347
30
0.0
11
-4.595846
21
32.824510
31
0.0
0
LINE
8
0
6
CONTINUOUS
10
-4.595846
20
32.824510
30
0.0
11
-4.674110
21
32.820295
31
0.0
0
LINE
8
0
6
CONTINUOUS
10
-4.674110
20
32.820295
30
0.0
11
-4.748587
21
32.796003
31
0.0
0
LINE
8
0
6
CONTINUOUS
10
-4.748587
20
32.796003
30
0.0
11
-4.814198
21
32.753259
31
0.0
0
LINE
8
0
6
CONTINUOUS
10
-4.814198
20
32.753259
30
0.0
11
-4.866476
21
32.695009
31
0.0
0
LINE
8
0
6
CONTINUOUS
10
-4.866476
20
32.695009
30
0.0
11
-4.901855
21
32.625207
31
0.0
0
LINE
8
0
6
CONTINUOUS
10
-5.141572
20
31.943017
30
0.0
11
-4.902275
21
32.624011
31
0.0
0
LINE
8
0
6
CONTINUOUS
10
-4.577262
20
31.733316
30
0.0
11
-4.332943
21
32.425840
31
0.0
0
LINE
8
0
6
CONTINUOUS
10
-4.671411
20
32.821084
30
0.0
11
-4.593140
21
32.825277
31
0.0
0
LINE
8
0
6
CONTINUOUS
10
-4.578256
20
31.734079
30
0.0
11
-4.335186
21
32.425805
31
0.0
0
LINE
8
0
6
CONTINUOUS
10
-4.488221
20
-17.276560
30
0.0
11
-4.448218
21
-17.276560
31
0.0
0
LINE
8
0
6
CONTINUOUS
10
-5.548274
20
-22.476565
30
0.0
11
-11.700800
21
-22.476565
31
0.0
0
LINE
8
0
6
CONTINUOUS
10
-5.268259
20
-22.476565
30
0.0
11
-5.548274
21
-22.476565
31
0.0
0
LINE
8
0
6
CONTINUOUS
10
-4.998247
20
-22.476565
30
0.0
11
-5.268259
21
-22.476565
31
0.0
0
LINE
8
0
6
CONTINUOUS
10
-4.768234
20
-22.476565
30
0.0
11
-4.998247
21
-22.476565
31
0.0
0
LINE
8
0
6
CONTINUOUS
10
-4.598226
20
-22.476565
30
0.0
11
-4.768234
21
-22.476565
31
0.0
0
LINE
8
0
6
CONTINUOUS
10
-4.488221
20
-22.476565
30
0.0
11
-4.598226
21
-22.476565
31
0.0
0
LINE
8
0
6
CONTINUOUS
10
-4.448218
20
-22.476565
30
0.0
11
-4.488221
21
-22.476565
31
0.0
0
LINE
8
0
6
CONTINUOUS
10
-4.488221
20
-17.276560
30
0.0
11
-4.598226
21
-17.276560
31
0.0
0
LINE
8
0
6
CONTINUOUS
10
-4.598226
20
-17.276560
30
0.0
11
-4.768234
21
-17.276560
31
0.0
0
LINE
8
0
6
CONTINUOUS
10
-4.998247
20
-17.276560
30
0.0
11
-5.268259
21
-17.276560
31
0.0
0
LINE
8
0
6
CONTINUOUS
10
-4.448218
20
-22.421149
30
0.0
11
-4.448218
21
-22.476565
31
0.0
0
LINE
8
0
6
CONTINUOUS
10
-5.268259
20
-17.276560
30
0.0
11
-5.548274
21
-17.276560
31
0.0
0
LINE
8
0
6
CONTINUOUS
10
-4.768234
20
-17.276560
30
0.0
11
-4.998247
21
-17.276560
31
0.0
0
LINE
8
0
6
CONTINUOUS
10
-4.448218
20
44.352605
30
0.0
11
-4.448218
21
44.423437
31
0.0
0
LINE
8
0
6
CONTINUOUS
10
-5.548274
20
44.423437
30
0.0
11
-5.268259
21
44.423437
31
0.0
0
LINE
8
0
6
CONTINUOUS
10
-5.268259
20
44.423437
30
0.0
11
-4.998247
21
44.423437
31
0.0
0
LINE
8
0
6
CONTINUOUS
10
-4.998247
20
44.423437
30
0.0
11
-4.768234
21
44.423437
31
0.0
0
LINE
8
0
6
CONTINUOUS
10
-4.768234
20
44.423437
30
0.0
11
-4.598226
21
44.423437
31
0.0
0
LINE
8
0
6
CONTINUOUS
10
-4.598226
20
44.423437
30
0.0
11
-4.488221
21
44.423437
31
0.0
0
LINE
8
0
6
CONTINUOUS
10
-4.488221
20
44.423437
30
0.0
11
-4.448218
21
44.423437
31
0.0
0
LINE
8
0
6
CONTINUOUS
10
-5.548274
20
39.173437
30
0.0
11
-5.268259
21
39.173437
31
0.0
0
LINE
8
0
6
CONTINUOUS
10
-5.268259
20
39.173437
30
0.0
11
-4.998247
21
39.173437
31
0.0
0
LINE
8
0
6
CONTINUOUS
10
-4.998247
20
39.173437
30
0.0
11
-4.768234
21
39.173437
31
0.0
0
LINE
8
0
6
CONTINUOUS
10
-4.768234
20
39.173437
30
0.0
11
-4.598226
21
39.173437
31
0.0
0
LINE
8
0
6
CONTINUOUS
10
-4.598226
20
39.173437
30
0.0
11
-4.488221
21
39.173437
31
0.0
0
LINE
8
0
6
CONTINUOUS
10
-4.488221
20
39.173437
30
0.0
11
-4.448218
21
39.173437
31
0.0
0
LINE
8
0
6
CONTINUOUS
10
-4.448218
20
-17.226565
30
0.0
11
-4.498222
21
-17.276560
31
0.0
0
LINE
8
0
6
CONTINUOUS
10
-4.448218
20
39.173437
30
0.0
11
-4.448218
21
39.142125
31
0.0
0
LINE
8
0
6
CONTINUOUS
10
-4.498222
20
39.223440
30
0.0
11
-4.448218
21
39.173437
31
0.0
0
LINE
8
0
6
CONTINUOUS
10
-4.448218
20
39.173437
30
0.0
11
-4.488221
21
39.173437
31
0.0
0
LINE
8
0
6
CONTINUOUS
10
-6.498323
20
39.173437
30
0.0
11
-6.608328
21
39.173437
31
0.0
0
LINE
8
0
6
CONTINUOUS
10
-6.648331
20
39.173437
30
0.0
11
-6.598327
21
39.223440
31
0.0
0
LINE
8
0
6
CONTINUOUS
10
-6.648331
20
-17.226565
30
0.0
11
-6.598327
21
-17.276560
31
0.0
0
LINE
8
0
6
CONTINUOUS
10
-5.828289
20
39.173437
30
0.0
11
-6.098302
21
39.173437
31
0.0
0
LINE
8
0
6
CONTINUOUS
10
-6.098302
20
39.173437
30
0.0
11
-6.328315
21
39.173437
31
0.0
0
LINE
8
0
6
CONTINUOUS
10
-6.328315
20
39.173437
30
0.0
11
-6.498323
21
39.173437
31
0.0
0
LINE
8
0
6
CONTINUOUS
10
-6.498323
20
39.173437
30
0.0
11
-6.608328
21
39.173437
31
0.0
0
LINE
8
0
6
CONTINUOUS
10
-6.648331
20
39.173437
30
0.0
11
-6.648331
21
39.142125
31
0.0
0
LINE
8
0
6
CONTINUOUS
10
-6.608328
20
39.173437
30
0.0
11
-6.648331
21
39.173437
31
0.0
0
LINE
8
0
6
CONTINUOUS
10
-5.828289
20
39.173437
30
0.0
11
-5.548274
21
39.173437
31
0.0
0
LINE
8
0
6
CONTINUOUS
10
-5.548274
20
39.223440
30
0.0
11
-5.268259
21
39.223440
31
0.0
0
LINE
8
0
6
CONTINUOUS
10
-5.268259
20
39.223440
30
0.0
11
-4.998247
21
39.223440
31
0.0
0
LINE
8
0
6
CONTINUOUS
10
-4.998247
20
39.223440
30
0.0
11
-4.768234
21
39.223440
31
0.0
0
LINE
8
0
6
CONTINUOUS
10
-4.768234
20
39.223440
30
0.0
11
-4.598226
21
39.223440
31
0.0
0
LINE
8
0
6
CONTINUOUS
10
-4.598226
20
39.223440
30
0.0
11
-4.488221
21
39.223440
31
0.0
0
LINE
8
0
6
CONTINUOUS
10
-4.448218
20
39.223440
30
0.0
11
-4.448218
21
39.294210
31
0.0
0
LINE
8
0
6
CONTINUOUS
10
-4.488221
20
39.223440
30
0.0
11
-4.448218
21
39.223440
31
0.0
0
LINE
8
0
6
CONTINUOUS
10
-4.448218
20
39.294210
30
0.0
11
-4.448218
21
44.352605
31
0.0
0
LINE
8
0
6
CONTINUOUS
10
-11.750802
20
44.423437
30
0.0
11
-11.750802
21
44.352605
31
0.0
0
LINE
8
0
6
CONTINUOUS
10
-5.548274
20
39.223440
30
0.0
11
-11.700800
21
39.223440
31
0.0
0
LINE
8
0
6
CONTINUOUS
10
-11.750802
20
39.294210
30
0.0
11
-11.750802
21
39.223440
31
0.0
0
LINE
8
0
6
CONTINUOUS
10
-11.750802
20
44.352605
30
0.0
11
-11.750802
21
39.294210
31
0.0
0
LINE
8
0
6
CONTINUOUS
10
-4.448218
20
39.142125
30
0.0
11
-4.448218
21
39.087942
31
0.0
0
LINE
8
0
6
CONTINUOUS
10
-6.648331
20
39.142125
30
0.0
11
-6.648331
21
39.087942
31
0.0
0
LINE
8
0
6
CONTINUOUS
10
-4.448218
20
-17.276560
30
0.0
11
-4.448218
21
-17.331977
31
0.0
0
LINE
8
0
6
CONTINUOUS
10
-4.448218
20
-17.331977
30
0.0
11
-4.448218
21
-22.421149
31
0.0
0
LINE
8
0
6
CONTINUOUS
10
-11.750802
20
-17.276560
30
0.0
11
-11.750802
21
-17.331977
31
0.0
0
LINE
8
0
6
CONTINUOUS
10
-11.750802
20
-17.331977
30
0.0
11
-11.750802
21
-22.421149
31
0.0
0
LINE
8
0
6
CONTINUOUS
10
-11.750802
20
-22.476565
30
0.0
11
-11.700800
21
-22.476565
31
0.0
0
LINE
8
0
6
CONTINUOUS
10
-11.750802
20
-22.421149
30
0.0
11
-11.750802
21
-22.476565
31
0.0
0
LINE
8
0
6
CONTINUOUS
10
-11.700800
20
-17.276560
30
0.0
11
-5.548274
21
-17.276560
31
0.0
0
LINE
8
0
6
CONTINUOUS
10
-11.750802
20
-17.276560
30
0.0
11
-11.700800
21
-17.276560
31
0.0
0
LINE
8
0
6
CONTINUOUS
10
-4.598226
20
-17.226565
30
0.0
11
-4.488221
21
-17.226565
31
0.0
0
LINE
8
0
6
CONTINUOUS
10
-5.828289
20
-17.226565
30
0.0
11
-5.548274
21
-17.226565
31
0.0
0
LINE
8
0
6
CONTINUOUS
10
-6.608328
20
-17.226565
30
0.0
11
-6.498323
21
-17.226565
31
0.0
0
LINE
8
0
6
CONTINUOUS
10
-6.098302
20
-17.226565
30
0.0
11
-5.828289
21
-17.226565
31
0.0
0
LINE
8
0
6
CONTINUOUS
10
-6.498323
20
-17.226565
30
0.0
11
-6.328315
21
-17.226565
31
0.0
0
LINE
8
0
6
CONTINUOUS
10
-5.548274
20
-17.226565
30
0.0
11
-5.268259
21
-17.226565
31
0.0
0
LINE
8
0
6
CONTINUOUS
10
-6.328315
20
-17.226565
30
0.0
11
-6.098302
21
-17.226565
31
0.0
0
LINE
8
0
6
CONTINUOUS
10
-4.448218
20
-17.226565
30
0.0
11
-4.448218
21
-17.205134
31
0.0
0
LINE
8
0
6
CONTINUOUS
10
-4.488221
20
-17.226565
30
0.0
11
-4.448218
21
-17.226565
31
0.0
0
LINE
8
0
6
CONTINUOUS
10
-4.768234
20
-17.226565
30
0.0
11
-4.598226
21
-17.226565
31
0.0
0
LINE
8
0
6
CONTINUOUS
10
-5.268259
20
-17.226565
30
0.0
11
-4.998247
21
-17.226565
31
0.0
0
LINE
8
0
6
CONTINUOUS
10
-6.648331
20
-17.226565
30
0.0
11
-6.608328
21
-17.226565
31
0.0
0
LINE
8
0
6
CONTINUOUS
10
-4.998247
20
-17.226565
30
0.0
11
-4.768234
21
-17.226565
31
0.0
0
LINE
8
0
6
CONTINUOUS
10
-6.648331
20
-17.226565
30
0.0
11
-6.648331
21
-17.205134
31
0.0
0
LINE
8
0
6
CONTINUOUS
10
-4.448218
20
39.087942
30
0.0
11
-4.448218
21
32.774520
31
0.0
0
LINE
8
0
6
CONTINUOUS
10
-4.448218
20
32.099093
30
0.0
11
-4.448218
21
31.654922
31
0.0
0
LINE
8
0
6
CONTINUOUS
10
-4.448218
20
28.554004
30
0.0
11
-4.448218
21
-17.147139
31
0.0
0
LINE
8
0
6
CONTINUOUS
10
-6.648331
20
39.087942
30
0.0
11
-6.648331
21
31.632108
31
0.0
0
LINE
8
0
6
CONTINUOUS
10
-6.648331
20
28.585857
30
0.0
11
-6.648331
21
-17.147139
31
0.0
0
LINE
8
0
6
CONTINUOUS
10
-4.448218
20
-17.147139
30
0.0
11
-4.448218
21
-17.205134
31
0.0
0
LINE
8
0
6
CONTINUOUS
10
-6.648331
20
-17.147139
30
0.0
11
-6.648331
21
-17.205134
31
0.0
0
LINE
8
0
6
CONTINUOUS
10
-11.700800
20
39.223440
30
0.0
11
-11.750802
21
39.223440
31
0.0
0
LINE
8
0
6
CONTINUOUS
10
-11.700800
20
44.423437
30
0.0
11
-5.548274
21
44.423437
31
0.0
0
LINE
8
0
6
CONTINUOUS
10
-11.750802
20
44.423437
30
0.0
11
-11.700800
21
44.423437
31
0.0
0
LINE
8
0
6
CONTINUOUS
10
-8.304745
20
-44.647654
30
0.0
11
-8.941098
21
-44.647654
31
0.0
0
LINE
8
0
6
CONTINUOUS
10
-8.984454
20
-44.647654
30
0.0
11
-9.058703
21
-44.647654
31
0.0
0
LINE
8
0
6
CONTINUOUS
10
-8.976508
20
-44.647654
30
0.0
11
-8.984454
21
-44.647654
31
0.0
0
LINE
8
0
6
CONTINUOUS
10
-8.941098
20
-44.647654
30
0.0
11
-8.976508
21
-44.647654
31
0.0
0
LINE
8
0
6
CONTINUOUS
10
-7.668392
20
-44.647654
30
0.0
11
-8.304745
21
-44.647654
31
0.0
0
LINE
8
0
6
CONTINUOUS
10
-7.550787
20
-44.647654
30
0.0
11
-7.625037
21
-44.647654
31
0.0
0
LINE
8
0
6
CONTINUOUS
10
-7.625037
20
-44.647654
30
0.0
11
-7.632982
21
-44.647654
31
0.0
0
LINE
8
0
6
CONTINUOUS
10
-7.632982
20
-44.647654
30
0.0
11
-7.668392
21
-44.647654
31
0.0
0
LINE
8
0
6
CONTINUOUS
10
-9.058703
20
-45.524278
30
0.0
11
-9.058703
21
-46.798076
31
0.0
0
LINE
8
0
6
CONTINUOUS
10
-9.058703
20
-46.798076
30
0.0
11
-9.058703
21
-47.038086
31
0.0
0
LINE
8
0
6
CONTINUOUS
10
-9.058703
20
-45.524278
30
0.0
11
-8.991428
21
-45.843586
31
0.0
0
LINE
8
0
6
CONTINUOUS
10
-8.304745
20
-44.647654
30
0.0
11
-9.015164
21
-44.647654
31
0.0
0
LINE
8
0
6
CONTINUOUS
10
-9.015164
20
-44.647654
30
0.0
11
-9.054463
21
-44.647654
31
0.0
0
LINE
8
0
6
CONTINUOUS
10
-9.054463
20
-44.647654
30
0.0
11
-9.058703
21
-44.647654
31
0.0
0
LINE
8
0
6
CONTINUOUS
10
-8.984228
20
-45.877695
30
0.0
11
-8.991428
21
-45.843586
31
0.0
0
LINE
8
0
6
CONTINUOUS
10
-8.984454
20
-46.463970
30
0.0
11
-8.976508
21
-46.428217
31
0.0
0
LINE
8
0
6
CONTINUOUS
10
-8.984454
20
-46.463970
30
0.0
11
-9.058703
21
-46.798076
31
0.0
0
LINE
8
0
6
CONTINUOUS
10
-8.984228
20
-45.877695
30
0.0
11
-8.976508
21
-46.428217
31
0.0
0
LINE
8
0
6
CONTINUOUS
10
-8.941098
20
-47.674701
30
0.0
11
-8.304745
21
-47.674701
31
0.0
0
LINE
8
0
6
CONTINUOUS
10
-9.058703
20
-47.038086
30
0.0
11
-9.058703
21
-47.674702
31
0.0
0
LINE
8
0
6
CONTINUOUS
10
-8.984228
20
-47.390933
30
0.0
11
-8.991428
21
-47.356825
31
0.0
0
LINE
8
0
6
CONTINUOUS
10
-8.984454
20
-47.674701
30
0.0
11
-8.976508
21
-47.674701
31
0.0
0
LINE
8
0
6
CONTINUOUS
10
-8.984454
20
-47.674701
30
0.0
11
-9.058703
21
-47.674702
31
0.0
0
LINE
8
0
6
CONTINUOUS
10
-9.058703
20
-47.038086
30
0.0
11
-8.991428
21
-47.356825
31
0.0
0
LINE
8
0
6
CONTINUOUS
10
-8.976508
20
-47.674701
30
0.0
11
-8.941098
21
-47.674701
31
0.0
0
LINE
8
0
6
CONTINUOUS
10
-8.984228
20
-47.390933
30
0.0
11
-8.976516
21
-47.674415
31
0.0
0
LINE
8
0
6
CONTINUOUS
10
-8.304745
20
-44.647942
30
0.0
11
-8.948053
21
-44.647942
31
0.0
0
LINE
8
0
6
CONTINUOUS
10
-9.058703
20
-44.647942
30
0.0
11
-9.058703
21
-45.284555
31
0.0
0
LINE
8
0
6
CONTINUOUS
10
-8.991428
20
-44.647942
30
0.0
11
-9.058703
21
-44.647942
31
0.0
0
LINE
8
0
6
CONTINUOUS
10
-8.984228
20
-44.647942
30
0.0
11
-8.991428
21
-44.647942
31
0.0
0
LINE
8
0
6
CONTINUOUS
10
-8.984454
20
-44.950450
30
0.0
11
-8.976508
21
-44.914697
31
0.0
0
LINE
8
0
6
CONTINUOUS
10
-9.058703
20
-45.284555
30
0.0
11
-9.058703
21
-45.524278
31
0.0
0
LINE
8
0
6
CONTINUOUS
10
-8.984454
20
-44.950450
30
0.0
11
-9.058703
21
-45.284555
31
0.0
0
LINE
8
0
6
CONTINUOUS
10
-8.984228
20
-44.647942
30
0.0
11
-8.976508
21
-44.914697
31
0.0
0
LINE
8
0
6
CONTINUOUS
10
-8.948053
20
-44.647942
30
0.0
11
-8.984228
21
-44.647942
31
0.0
0
LINE
8
0
6
CONTINUOUS
10
-7.550787
20
-46.798076
30
0.0
11
-7.550787
21
-45.524278
31
0.0
0
LINE
8
0
6
CONTINUOUS
10
-7.550787
20
-47.038086
30
0.0
11
-7.550787
21
-46.798076
31
0.0
0
LINE
8
0
6
CONTINUOUS
10
-7.618063
20
-45.843586
30
0.0
11
-7.550787
21
-45.524278
31
0.0
0
LINE
8
0
6
CONTINUOUS
10
-7.594326
20
-44.647654
30
0.0
11
-8.304745
21
-44.647654
31
0.0
0
LINE
8
0
6
CONTINUOUS
10
-7.550787
20
-44.647654
30
0.0
11
-7.555027
21
-44.647654
31
0.0
0
LINE
8
0
6
CONTINUOUS
10
-7.555027
20
-44.647654
30
0.0
11
-7.594326
21
-44.647654
31
0.0
0
LINE
8
0
6
CONTINUOUS
10
-7.632982
20
-46.428217
30
0.0
11
-7.625037
21
-46.463970
31
0.0
0
LINE
8
0
6
CONTINUOUS
10
-7.618063
20
-45.843586
30
0.0
11
-7.625262
21
-45.877695
31
0.0
0
LINE
8
0
6
CONTINUOUS
10
-7.550787
20
-46.798076
30
0.0
11
-7.625037
21
-46.463970
31
0.0
0
LINE
8
0
6
CONTINUOUS
10
-7.632982
20
-46.428217
30
0.0
11
-7.625262
21
-45.877695
31
0.0
0
LINE
8
0
6
CONTINUOUS
10
-8.304745
20
-47.674701
30
0.0
11
-7.668392
21
-47.674701
31
0.0
0
LINE
8
0
6
CONTINUOUS
10
-7.550787
20
-47.674702
30
0.0
11
-7.550787
21
-47.038086
31
0.0
0
LINE
8
0
6
CONTINUOUS
10
-7.632982
20
-47.674701
30
0.0
11
-7.625037
21
-47.674701
31
0.0
0
LINE
8
0
6
CONTINUOUS
10
-7.618063
20
-47.356825
30
0.0
11
-7.625262
21
-47.390933
31
0.0
0
LINE
8
0
6
CONTINUOUS
10
-7.550787
20
-47.674702
30
0.0
11
-7.625037
21
-47.674701
31
0.0
0
LINE
8
0
6
CONTINUOUS
10
-7.618063
20
-47.356825
30
0.0
11
-7.550787
21
-47.038086
31
0.0
0
LINE
8
0
6
CONTINUOUS
10
-7.632982
20
-47.674701
30
0.0
11
-7.625262
21
-47.390933
31
0.0
0
LINE
8
0
6
CONTINUOUS
10
-7.668392
20
-47.674701
30
0.0
11
-7.632982
21
-47.674701
31
0.0
0
LINE
8
0
6
CONTINUOUS
10
-7.661437
20
-44.647942
30
0.0
11
-8.304745
21
-44.647942
31
0.0
0
LINE
8
0
6
CONTINUOUS
10
-7.550787
20
-44.647942
30
0.0
11
-7.618063
21
-44.647942
31
0.0
0
LINE
8
0
6
CONTINUOUS
10
-7.550787
20
-45.284555
30
0.0
11
-7.550787
21
-44.647942
31
0.0
0
LINE
8
0
6
CONTINUOUS
10
-7.632982
20
-44.914697
30
0.0
11
-7.625037
21
-44.950450
31
0.0
0
LINE
8
0
6
CONTINUOUS
10
-7.618063
20
-44.647942
30
0.0
11
-7.625262
21
-44.647942
31
0.0
0
LINE
8
0
6
CONTINUOUS
10
-7.550787
20
-45.524278
30
0.0
11
-7.550787
21
-45.284555
31
0.0
0
LINE
8
0
6
CONTINUOUS
10
-7.550787
20
-45.284555
30
0.0
11
-7.625037
21
-44.950450
31
0.0
0
LINE
8
0
6
CONTINUOUS
10
-7.625262
20
-44.647942
30
0.0
11
-7.661437
21
-44.647942
31
0.0
0
LINE
8
0
6
CONTINUOUS
10
-7.632982
20
-44.914697
30
0.0
11
-7.625262
21
-44.647942
31
0.0
0
LINE
8
0
6
CONTINUOUS
10
-3.007615
20
-47.859633
30
0.0
11
-3.007615
21
-47.580057
31
0.0
0
LINE
8
0
6
CONTINUOUS
10
-5.026357
20
-47.859633
30
0.0
11
-5.026357
21
-47.777351
31
0.0
0
LINE
8
0
6
CONTINUOUS
10
-2.878909
20
-47.859633
30
0.0
11
-3.073766
21
-47.859633
31
0.0
0
LINE
8
0
6
CONTINUOUS
10
-4.776743
20
-47.859633
30
0.0
11
-5.058334
21
-47.859633
31
0.0
0
LINE
8
0
6
CONTINUOUS
10
-3.429785
20
-47.859633
30
0.0
11
-3.885409
21
-47.859633
31
0.0
0
LINE
8
0
6
CONTINUOUS
10
-2.878909
20
-47.859633
30
0.0
11
-2.878909
21
-47.997678
31
0.0
0
LINE
8
0
6
CONTINUOUS
10
-4.361855
20
-47.859633
30
0.0
11
-4.776743
21
-47.859633
31
0.0
0
LINE
8
0
6
CONTINUOUS
10
-3.073766
20
-47.859633
30
0.0
11
-3.429785
21
-47.859633
31
0.0
0
LINE
8
0
6
CONTINUOUS
10
-5.157939
20
-47.859633
30
0.0
11
-5.157939
21
-47.997678
31
0.0
0
LINE
8
0
6
CONTINUOUS
10
-5.058334
20
-47.859633
30
0.0
11
-5.157939
21
-47.859633
31
0.0
0
LINE
8
0
6
CONTINUOUS
10
-3.885409
20
-47.859633
30
0.0
11
-4.361855
21
-47.859633
31
0.0
0
LINE
8
0
6
CONTINUOUS
10
-4.947973
20
-50.124425
30
0.0
11
-4.695909
21
-50.124425
31
0.0
0
LINE
8
0
6
CONTINUOUS
10
-5.037134
20
-50.124425
30
0.0
11
-4.947973
21
-50.124425
31
0.0
0
LINE
8
0
6
CONTINUOUS
10
-4.695909
20
-50.124425
30
0.0
11
-4.324525
21
-50.124425
31
0.0
0
LINE
8
0
6
CONTINUOUS
10
-4.324525
20
-50.124425
30
0.0
11
-3.898036
21
-50.124425
31
0.0
0
LINE
8
0
6
CONTINUOUS
10
-3.898036
20
-50.124425
30
0.0
11
-3.490188
21
-50.124425
31
0.0
0
LINE
8
0
6
CONTINUOUS
10
-3.490188
20
-50.124425
30
0.0
11
-3.171498
21
-50.124425
31
0.0
0
LINE
8
0
6
CONTINUOUS
10
-3.171498
20
-50.124425
30
0.0
11
-2.997074
21
-50.124425
31
0.0
0
LINE
8
0
6
CONTINUOUS
10
-2.992948
20
-50.050150
30
0.0
11
-2.997074
21
-50.124425
31
0.0
0
LINE
8
0
6
CONTINUOUS
10
-5.037134
20
-50.124425
30
0.0
11
-5.041353
21
-50.050150
31
0.0
0
LINE
8
0
6
CONTINUOUS
10
-2.878909
20
-47.997678
30
0.0
11
-2.992948
21
-50.050150
31
0.0
0
LINE
8
0
6
CONTINUOUS
10
-5.041353
20
-50.050150
30
0.0
11
-5.157939
21
-47.997678
31
0.0
0
LINE
8
0
6
CONTINUOUS
10
-9.616954
20
-49.553322
30
0.0
11
-9.552761
21
-49.553322
31
0.0
0
LINE
8
0
6
CONTINUOUS
10
-9.552756
20
-42.762850
30
0.0
11
-9.616948
21
-42.762850
31
0.0
0
LINE
8
0
6
CONTINUOUS
10
-11.750805
20
-49.487371
30
0.0
11
-11.750806
21
-49.553322
31
0.0
0
LINE
8
0
6
CONTINUOUS
10
-11.750805
20
-49.301219
30
0.0
11
-11.750805
21
-49.487371
31
0.0
0
LINE
8
0
6
CONTINUOUS
10
-11.750805
20
-48.983731
30
0.0
11
-11.750805
21
-49.301219
31
0.0
0
LINE
8
0
6
CONTINUOUS
10
-11.750804
20
-48.566443
30
0.0
11
-11.750805
21
-48.983731
31
0.0
0
LINE
8
0
6
CONTINUOUS
10
-11.750803
20
-48.061296
30
0.0
11
-11.750804
21
-48.566443
31
0.0
0
LINE
8
0
6
CONTINUOUS
10
-11.750803
20
-47.470184
30
0.0
11
-11.750803
21
-48.061296
31
0.0
0
LINE
8
0
6
CONTINUOUS
10
-11.750803
20
-46.839043
30
0.0
11
-11.750803
21
-47.470184
31
0.0
0
LINE
8
0
6
CONTINUOUS
10
-11.750802
20
-46.181847
30
0.0
11
-11.750803
21
-46.839043
31
0.0
0
LINE
8
0
6
CONTINUOUS
10
-11.750801
20
-45.512457
30
0.0
11
-11.750802
21
-46.181847
31
0.0
0
LINE
8
0
6
CONTINUOUS
10
-11.750801
20
-44.877896
30
0.0
11
-11.750801
21
-45.512457
31
0.0
0
LINE
8
0
6
CONTINUOUS
10
-11.750800
20
-44.289652
30
0.0
11
-11.750801
21
-44.877896
31
0.0
0
LINE
8
0
6
CONTINUOUS
10
-11.750801
20
-43.765298
30
0.0
11
-11.750800
21
-44.289652
31
0.0
0
LINE
8
0
6
CONTINUOUS
10
-11.750799
20
-43.343642
30
0.0
11
-11.750801
21
-43.765298
31
0.0
0
LINE
8
0
6
CONTINUOUS
10
-11.750800
20
-43.026567
30
0.0
11
-11.750799
21
-43.343642
31
0.0
0
LINE
8
0
6
CONTINUOUS
10
-11.750799
20
-42.824453
30
0.0
11
-11.750800
21
-43.026567
31
0.0
0
LINE
8
0
6
CONTINUOUS
10
-11.750799
20
-42.762850
30
0.0
11
-11.750799
21
-42.824453
31
0.0
0
LINE
8
0
6
CONTINUOUS
10
-9.552761
20
-49.553322
30
0.0
11
-9.456875
21
-49.522349
31
0.0
0
LINE
8
0
6
CONTINUOUS
10
-9.435103
20
-42.825591
30
0.0
11
-9.552756
21
-42.762850
31
0.0
0
LINE
8
0
6
CONTINUOUS
10
-7.300807
20
-46.178789
30
0.0
11
-7.300807
21
-45.678338
31
0.0
0
LINE
8
0
6
CONTINUOUS
10
-7.300807
20
-47.103502
30
0.0
11
-7.300807
21
-46.679239
31
0.0
0
LINE
8
0
6
CONTINUOUS
10
-7.300806
20
-47.486531
30
0.0
11
-7.300806
21
-47.386984
31
0.0
0
LINE
8
0
6
CONTINUOUS
10
-7.300806
20
-44.871049
30
0.0
11
-7.550787
21
-44.862867
31
0.0
0
LINE
8
0
6
CONTINUOUS
10
-9.058703
20
-44.813509
30
0.0
11
-9.284560
21
-44.806117
31
0.0
0
LINE
8
0
6
CONTINUOUS
10
-7.300807
20
-46.679239
30
0.0
11
-7.300807
21
-46.178789
31
0.0
0
LINE
8
0
6
CONTINUOUS
10
-7.300806
20
-47.386984
30
0.0
11
-7.300807
21
-47.103502
31
0.0
0
LINE
8
0
6
CONTINUOUS
10
-7.300806
20
-47.486531
30
0.0
11
-7.550787
21
-47.489970
31
0.0
0
LINE
8
0
6
CONTINUOUS
10
-9.058703
20
-47.510716
30
0.0
11
-9.284596
21
-47.513823
31
0.0
0
LINE
8
0
6
CONTINUOUS
10
-9.456875
20
-49.522349
30
0.0
11
-9.443336
21
-49.364502
31
0.0
0
LINE
8
0
6
CONTINUOUS
10
-9.457588
20
-49.457339
30
0.0
11
-9.456875
21
-49.522349
31
0.0
0
LINE
8
0
6
CONTINUOUS
10
-9.455493
20
-49.269292
30
0.0
11
-9.457588
21
-49.457339
31
0.0
0
LINE
8
0
6
CONTINUOUS
10
-9.456385
20
-48.959295
30
0.0
11
-9.455493
21
-49.269292
31
0.0
0
LINE
8
0
6
CONTINUOUS
10
-9.456069
20
-48.543699
30
0.0
11
-9.456385
21
-48.959295
31
0.0
0
LINE
8
0
6
CONTINUOUS
10
-9.453083
20
-48.038682
30
0.0
11
-9.456069
21
-48.543699
31
0.0
0
LINE
8
0
6
CONTINUOUS
10
-9.452394
20
-47.460348
30
0.0
11
-9.453083
21
-48.038682
31
0.0
0
LINE
8
0
6
CONTINUOUS
10
-9.451458
20
-46.832300
30
0.0
11
-9.452394
21
-47.460348
31
0.0
0
LINE
8
0
6
CONTINUOUS
10
-9.448094
20
-46.178559
30
0.0
11
-9.451458
21
-46.832300
31
0.0
0
LINE
8
0
6
CONTINUOUS
10
-9.446120
20
-45.524605
30
0.0
11
-9.448094
21
-46.178559
31
0.0
0
LINE
8
0
6
CONTINUOUS
10
-9.445266
20
-44.894397
30
0.0
11
-9.446120
21
-45.524605
31
0.0
0
LINE
8
0
6
CONTINUOUS
10
-9.439264
20
-44.316588
30
0.0
11
-9.445266
21
-44.894397
31
0.0
0
LINE
8
0
6
CONTINUOUS
10
-9.437403
20
-43.808569
30
0.0
11
-9.439264
21
-44.316588
31
0.0
0
LINE
8
0
6
CONTINUOUS
10
-9.437421
20
-43.391475
30
0.0
11
-9.437403
21
-43.808569
31
0.0
0
LINE
8
0
6
CONTINUOUS
10
-9.436244
20
-43.081172
30
0.0
11
-9.437421
21
-43.391475
31
0.0
0
LINE
8
0
6
CONTINUOUS
10
-9.434061
20
-42.889743
30
0.0
11
-9.436244
21
-43.081172
31
0.0
0
LINE
8
0
6
CONTINUOUS
10
-9.435103
20
-42.825591
30
0.0
11
-9.434061
21
-42.889743
31
0.0
0
LINE
8
0
6
CONTINUOUS
10
-9.423054
20
-42.984104
30
0.0
11
-9.435103
21
-42.825591
31
0.0
0
LINE
8
0
6
CONTINUOUS
10
-2.591073
20
-44.596056
30
0.0
11
-2.291316
21
-44.999571
31
0.0
0
LINE
8
0
6
CONTINUOUS
10
-7.245937
20
-47.733629
30
0.0
11
-5.862781
21
-47.744246
31
0.0
0
LINE
8
0
6
CONTINUOUS
10
-5.583491
20
-44.563438
30
0.0
11
-7.246340
21
-44.582346
31
0.0
0
LINE
8
0
6
CONTINUOUS
10
-5.495414
20
-44.887612
30
0.0
11
-5.371877
21
-44.687528
31
0.0
0
LINE
8
0
6
CONTINUOUS
10
-5.563704
20
-45.007177
30
0.0
11
-5.495414
21
-44.887612
31
0.0
0
LINE
8
0
6
CONTINUOUS
10
-5.199554
20
-44.498268
30
0.0
11
-5.105447
21
-44.396863
31
0.0
0
LINE
8
0
6
CONTINUOUS
10
-5.371877
20
-44.687528
30
0.0
11
-5.199554
21
-44.498268
31
0.0
0
LINE
8
0
6
CONTINUOUS
10
-5.311881
20
-44.482696
30
0.0
11
-5.583491
21
-44.563438
31
0.0
0
LINE
8
0
6
CONTINUOUS
10
-5.823702
20
-46.197904
30
0.0
11
-5.670010
21
-46.579872
31
0.0
0
LINE
8
0
6
CONTINUOUS
10
-5.475817
20
-46.772150
30
0.0
11
-5.558108
21
-46.662672
31
0.0
0
LINE
8
0
6
CONTINUOUS
10
-5.185647
20
-47.151914
30
0.0
11
-5.475817
21
-46.772150
31
0.0
0
LINE
8
0
6
CONTINUOUS
10
-5.670010
20
-46.579872
30
0.0
11
-5.477233
21
-46.933771
31
0.0
0
LINE
8
0
6
CONTINUOUS
10
-4.804574
20
-47.480376
30
0.0
11
-5.004683
21
-47.346923
31
0.0
0
LINE
8
0
6
CONTINUOUS
10
-4.372991
20
-47.670961
30
0.0
11
-4.804574
21
-47.480376
31
0.0
0
LINE
8
0
6
CONTINUOUS
10
-5.803281
20
-45.429129
30
0.0
11
-5.846933
21
-45.811230
31
0.0
0
LINE
8
0
6
CONTINUOUS
10
-5.707572
20
-45.095987
30
0.0
11
-5.803281
21
-45.429129
31
0.0
0
LINE
8
0
6
CONTINUOUS
10
-5.602356
20
-44.826977
30
0.0
11
-5.707572
21
-45.095987
31
0.0
0
LINE
8
0
6
CONTINUOUS
10
-6.103785
20
-47.749343
30
0.0
11
-6.171072
21
-47.746383
31
0.0
0
LINE
8
0
6
CONTINUOUS
10
-5.063812
20
-44.345858
30
0.0
11
-4.824638
21
-44.193974
31
0.0
0
LINE
8
0
6
CONTINUOUS
10
-4.827377
20
-44.189019
30
0.0
11
-5.093438
21
-44.370353
31
0.0
0
LINE
8
0
6
CONTINUOUS
10
-5.311881
20
-44.482696
30
0.0
11
-5.063812
21
-44.345858
31
0.0
0
LINE
8
0
6
CONTINUOUS
10
-5.862781
20
-47.744246
30
0.0
11
-5.760598
21
-47.746804
31
0.0
0
LINE
8
0
6
CONTINUOUS
10
-7.299636
20
-47.733193
30
0.0
11
-7.245937
21
-47.733629
31
0.0
0
LINE
8
0
6
CONTINUOUS
10
-7.246340
20
-44.582346
30
0.0
11
-7.300037
21
-44.582836
31
0.0
0
LINE
8
0
6
CONTINUOUS
10
-3.875786
20
-43.887955
30
0.0
11
-3.377918
21
-43.958249
31
0.0
0
LINE
8
0
6
CONTINUOUS
10
-5.235297
20
-44.476396
30
0.0
11
-4.842651
21
-44.166177
31
0.0
0
LINE
8
0
6
CONTINUOUS
10
-5.469632
20
-46.762990
30
0.0
11
-5.653803
21
-46.312146
31
0.0
0
LINE
8
0
6
CONTINUOUS
10
-5.181091
20
-47.143757
30
0.0
11
-5.469632
21
-46.762990
31
0.0
0
LINE
8
0
6
CONTINUOUS
10
-4.802769
20
-47.460584
30
0.0
11
-5.181091
21
-47.143757
31
0.0
0
LINE
8
0
6
CONTINUOUS
10
-4.367351
20
-47.650007
30
0.0
11
-4.802769
21
-47.460584
31
0.0
0
LINE
8
0
6
CONTINUOUS
10
-3.882417
20
-47.722102
30
0.0
11
-4.367351
21
-47.650007
31
0.0
0
LINE
8
0
6
CONTINUOUS
10
-4.367422
20
-47.650270
30
0.0
11
-3.882435
21
-47.722402
31
0.0
0
LINE
8
0
6
CONTINUOUS
10
-3.390685
20
-47.663129
30
0.0
11
-3.882417
21
-47.722102
31
0.0
0
LINE
8
0
6
CONTINUOUS
10
-3.882435
20
-47.722402
30
0.0
11
-3.390618
21
-47.663433
31
0.0
0
LINE
8
0
6
CONTINUOUS
10
-2.929976
20
-47.477362
30
0.0
11
-3.007615
21
-47.508668
31
0.0
0
LINE
8
0
6
CONTINUOUS
10
-2.225569
20
-46.784457
30
0.0
11
-2.532309
21
-47.177967
31
0.0
0
LINE
8
0
6
CONTINUOUS
10
-1.971739
20
-45.832402
30
0.0
11
-2.034898
21
-46.328652
31
0.0
0
LINE
8
0
6
CONTINUOUS
10
-2.039529
20
-45.337838
30
0.0
11
-1.971739
21
-45.832402
31
0.0
0
LINE
8
0
6
CONTINUOUS
10
-2.192355
20
-44.963694
30
0.0
11
-2.039529
21
-45.337838
31
0.0
0
LINE
8
0
6
CONTINUOUS
10
-2.534471
20
-44.489364
30
0.0
11
-2.523861
21
-44.502756
31
0.0
0
LINE
8
0
6
CONTINUOUS
10
-3.392716
20
-44.013352
30
0.0
11
-2.933291
21
-44.194475
31
0.0
0
LINE
8
0
6
CONTINUOUS
10
-3.880845
20
-43.953193
30
0.0
11
-3.392716
21
-44.013352
31
0.0
0
LINE
8
0
6
CONTINUOUS
10
-3.392652
20
-44.013096
30
0.0
11
-3.880850
21
-43.952931
31
0.0
0
LINE
8
0
6
CONTINUOUS
10
-4.365552
20
-44.023043
30
0.0
11
-3.880845
21
-43.953193
31
0.0
0
LINE
8
0
6
CONTINUOUS
10
-3.880850
20
-43.952931
30
0.0
11
-4.365620
21
-44.022792
31
0.0
0
LINE
8
0
6
CONTINUOUS
10
-4.810786
20
-44.216521
30
0.0
11
-4.365552
21
-44.023043
31
0.0
0
LINE
8
0
6
CONTINUOUS
10
-5.187900
20
-44.513400
30
0.0
11
-4.810786
21
-44.216521
31
0.0
0
LINE
8
0
6
CONTINUOUS
10
-5.649477
20
-45.346680
30
0.0
11
-5.480609
21
-44.899380
31
0.0
0
LINE
8
0
6
CONTINUOUS
10
-11.750805
20
-49.487371
30
0.0
11
-11.750806
21
-49.553322
31
0.0
0
LINE
8
0
6
CONTINUOUS
10
-11.750806
20
-49.553322
30
0.0
11
-9.616954
21
-49.553322
31
0.0
0
LINE
8
0
6
CONTINUOUS
10
-11.750805
20
-49.301219
30
0.0
11
-11.750805
21
-49.487371
31
0.0
0
LINE
8
0
6
CONTINUOUS
10
-11.750805
20
-48.983731
30
0.0
11
-11.750805
21
-49.301219
31
0.0
0
LINE
8
0
6
CONTINUOUS
10
-11.750804
20
-48.566443
30
0.0
11
-11.750805
21
-48.983731
31
0.0
0
LINE
8
0
6
CONTINUOUS
10
-11.750803
20
-48.061296
30
0.0
11
-11.750804
21
-48.566443
31
0.0
0
LINE
8
0
6
CONTINUOUS
10
-11.750803
20
-47.470184
30
0.0
11
-11.750803
21
-48.061296
31
0.0
0
LINE
8
0
6
CONTINUOUS
10
-11.750803
20
-46.839043
30
0.0
11
-11.750803
21
-47.470184
31
0.0
0
LINE
8
0
6
CONTINUOUS
10
-11.750802
20
-46.181847
30
0.0
11
-11.750803
21
-46.839043
31
0.0
0
LINE
8
0
6
CONTINUOUS
10
-11.750801
20
-45.512457
30
0.0
11
-11.750802
21
-46.181847
31
0.0
0
LINE
8
0
6
CONTINUOUS
10
-11.750801
20
-44.877896
30
0.0
11
-11.750801
21
-45.512457
31
0.0
0
LINE
8
0
6
CONTINUOUS
10
-11.750800
20
-44.289652
30
0.0
11
-11.750801
21
-44.877896
31
0.0
0
LINE
8
0
6
CONTINUOUS
10
-11.750801
20
-43.765298
30
0.0
11
-11.750800
21
-44.289652
31
0.0
0
LINE
8
0
6
CONTINUOUS
10
-11.750799
20
-43.343642
30
0.0
11
-11.750801
21
-43.765298
31
0.0
0
LINE
8
0
6
CONTINUOUS
10
-11.750800
20
-43.026567
30
0.0
11
-11.750799
21
-43.343642
31
0.0
0
LINE
8
0
6
CONTINUOUS
10
-11.750799
20
-42.762850
30
0.0
11
-11.750799
21
-42.824453
31
0.0
0
LINE
8
0
6
CONTINUOUS
10
-9.616948
20
-42.762850
30
0.0
11
-11.750799
21
-42.762850
31
0.0
0
LINE
8
0
6
CONTINUOUS
10
-11.750799
20
-42.824453
30
0.0
11
-11.750800
21
-43.026567
31
0.0
0
LINE
8
0
6
CONTINUOUS
10
-9.443336
20
-49.364502
30
0.0
11
-9.284596
21
-47.513823
31
0.0
0
LINE
8
0
6
CONTINUOUS
10
-9.284560
20
-44.806117
30
0.0
11
-9.423054
21
-42.984104
31
0.0
0
LINE
8
0
6
CONTINUOUS
10
-7.299727
20
-46.178781
30
0.0
11
-7.299809
21
-45.770937
31
0.0
0
LINE
8
0
6
CONTINUOUS
10
-7.299669
20
-46.957465
30
0.0
11
-7.299688
21
-46.582308
31
0.0
0
LINE
8
0
6
CONTINUOUS
10
-7.299589
20
-47.524091
30
0.0
11
-7.299586
21
-47.276138
31
0.0
0
LINE
8
0
6
CONTINUOUS
10
-7.299636
20
-47.733193
30
0.0
11
-7.299578
21
-47.674775
31
0.0
0
LINE
8
0
6
CONTINUOUS
10
-7.299578
20
-47.674775
30
0.0
11
-7.299589
21
-47.524091
31
0.0
0
LINE
8
0
6
CONTINUOUS
10
-7.299688
20
-46.582308
30
0.0
11
-7.299727
21
-46.178781
31
0.0
0
LINE
8
0
6
CONTINUOUS
10
-7.299586
20
-47.276138
30
0.0
11
-7.299669
21
-46.957465
31
0.0
0
LINE
8
0
6
CONTINUOUS
10
-7.299809
20
-45.770937
30
0.0
11
-7.299820
21
-45.390535
31
0.0
0
LINE
8
0
6
CONTINUOUS
10
-7.299820
20
-45.390535
30
0.0
11
-7.299894
21
-45.058986
31
0.0
0
LINE
8
0
6
CONTINUOUS
10
-7.299894
20
-45.058986
30
0.0
11
-7.299870
21
-44.804462
31
0.0
0
LINE
8
0
6
CONTINUOUS
10
-7.299870
20
-44.804462
30
0.0
11
-7.299960
21
-44.643640
31
0.0
0
LINE
8
0
6
CONTINUOUS
10
-7.299960
20
-44.643640
30
0.0
11
-7.300037
21
-44.582836
31
0.0
0
LINE
8
0
6
CONTINUOUS
10
-5.694913
20
-45.832194
30
0.0
11
-5.635549
21
-46.303683
31
0.0
0
LINE
8
0
6
CONTINUOUS
10
-5.635549
20
-46.303683
30
0.0
11
-5.457684
21
-46.745294
31
0.0
0
LINE
8
0
6
CONTINUOUS
10
-5.457684
20
-46.745294
30
0.0
11
-5.172291
21
-47.128001
31
0.0
0
LINE
8
0
6
CONTINUOUS
10
-5.172291
20
-47.128001
30
0.0
11
-4.799280
21
-47.422352
31
0.0
0
LINE
8
0
6
CONTINUOUS
10
-4.799280
20
-47.422352
30
0.0
11
-4.356459
21
-47.609530
31
0.0
0
LINE
8
0
6
CONTINUOUS
10
-4.356459
20
-47.609530
30
0.0
11
-3.879536
21
-47.675839
31
0.0
0
LINE
8
0
6
CONTINUOUS
10
-3.879536
20
-47.675839
30
0.0
11
-3.400928
21
-47.616367
31
0.0
0
LINE
8
0
6
CONTINUOUS
10
-3.400928
20
-47.616367
30
0.0
11
-2.953324
21
-47.434610
31
0.0
0
LINE
8
0
6
CONTINUOUS
10
-2.953324
20
-47.434610
30
0.0
11
-2.567561
21
-47.142518
31
0.0
0
LINE
8
0
6
CONTINUOUS
10
-2.567561
20
-47.142518
30
0.0
11
-2.272258
21
-46.760336
31
0.0
0
LINE
8
0
6
CONTINUOUS
10
-2.272258
20
-46.760336
30
0.0
11
-2.086716
21
-46.312430
31
0.0
0
LINE
8
0
6
CONTINUOUS
10
-2.086716
20
-46.312430
30
0.0
11
-2.024054
21
-45.831787
31
0.0
0
LINE
8
0
6
CONTINUOUS
10
-2.024054
20
-45.831787
30
0.0
11
-2.088436
21
-45.351577
31
0.0
0
LINE
8
0
6
CONTINUOUS
10
-2.088436
20
-45.351577
30
0.0
11
-2.224913
21
-44.991383
31
0.0
0
LINE
8
0
6
CONTINUOUS
10
-2.558251
20
-44.527303
30
0.0
11
-2.562718
21
-44.521754
31
0.0
0
LINE
8
0
6
CONTINUOUS
10
-2.562718
20
-44.521754
30
0.0
11
-2.955928
21
-44.233297
31
0.0
0
LINE
8
0
6
CONTINUOUS
10
-2.955928
20
-44.233297
30
0.0
11
-3.402869
21
-44.052789
31
0.0
0
LINE
8
0
6
CONTINUOUS
10
-3.402869
20
-44.052789
30
0.0
11
-3.880110
21
-43.993433
31
0.0
0
LINE
8
0
6
CONTINUOUS
10
-3.880110
20
-43.993433
30
0.0
11
-4.355199
21
-44.061707
31
0.0
0
LINE
8
0
6
CONTINUOUS
10
-4.355199
20
-44.061707
30
0.0
11
-4.790692
21
-44.248014
31
0.0
0
LINE
8
0
6
CONTINUOUS
10
-4.790692
20
-44.248014
30
0.0
11
-5.165386
21
-44.542630
31
0.0
0
LINE
8
0
6
CONTINUOUS
10
-5.165386
20
-44.542630
30
0.0
11
-5.452008
21
-44.922112
31
0.0
0
LINE
8
0
6
CONTINUOUS
10
-5.452008
20
-44.922112
30
0.0
11
-5.632338
21
-45.361503
31
0.0
0
LINE
8
0
6
CONTINUOUS
10
-5.632338
20
-45.361503
30
0.0
11
-5.694913
21
-45.832194
31
0.0
0
LINE
8
0
6
CONTINUOUS
10
-1.359345
20
-44.325515
30
0.0
11
-1.448468
21
-44.437174
31
0.0
0
LINE
8
0
6
CONTINUOUS
10
-1.337776
20
-44.184173
30
0.0
11
-1.359345
21
-44.325515
31
0.0
0
LINE
8
0
6
CONTINUOUS
10
-1.389540
20
-44.051022
30
0.0
11
-1.337776
21
-44.184173
31
0.0
0
LINE
8
0
6
CONTINUOUS
10
-1.653421
20
-43.924185
30
0.0
11
-1.512534
21
-43.945676
31
0.0
0
LINE
8
0
6
CONTINUOUS
10
-1.786221
20
-43.976245
30
0.0
11
-1.653421
21
-43.924185
31
0.0
0
LINE
8
0
6
CONTINUOUS
10
-1.448468
20
-44.437174
30
0.0
11
-2.190948
21
-44.967139
31
0.0
0
LINE
8
0
6
CONTINUOUS
10
-2.523861
20
-44.502756
30
0.0
11
-1.786221
21
-43.976245
31
0.0
0
LINE
8
0
6
CONTINUOUS
10
-1.512534
20
-43.945676
30
0.0
11
-1.389540
21
-44.051022
31
0.0
0
LINE
8
0
6
CONTINUOUS
10
-1.481041
20
-44.456499
30
0.0
11
-1.392115
21
-44.344983
31
0.0
0
LINE
8
0
6
CONTINUOUS
10
-1.392115
20
-44.344983
30
0.0
11
-1.371077
21
-44.204033
31
0.0
0
LINE
8
0
6
CONTINUOUS
10
-1.371077
20
-44.204033
30
0.0
11
-1.423567
21
-44.071418
31
0.0
0
LINE
8
0
6
CONTINUOUS
10
-1.540649
20
-43.975765
30
0.0
11
-1.682069
21
-43.954667
31
0.0
0
LINE
8
0
6
CONTINUOUS
10
-1.682069
20
-43.954667
30
0.0
11
-1.815061
21
-44.006872
31
0.0
0
LINE
8
0
6
CONTINUOUS
10
-2.274187
20
-45.022629
30
0.0
11
-1.481041
21
-44.456499
31
0.0
0
LINE
8
0
6
CONTINUOUS
10
-2.291316
20
-44.999571
30
0.0
11
-2.274187
21
-45.022629
31
0.0
0
LINE
8
0
6
CONTINUOUS
10
-2.608202
20
-44.572998
30
0.0
11
-2.591073
21
-44.596056
31
0.0
0
LINE
8
0
6
CONTINUOUS
10
-1.815061
20
-44.006872
30
0.0
11
-2.608202
21
-44.572998
31
0.0
0
LINE
8
0
6
CONTINUOUS
10
-1.423567
20
-44.071418
30
0.0
11
-1.540649
21
-43.975765
31
0.0
0
LINE
8
0
6
CONTINUOUS
10
-9.456875
20
-49.522349
30
0.0
11
-9.552761
21
-49.553322
31
0.0
0
LINE
8
0
6
CONTINUOUS
10
-6.103987
20
-47.773868
30
0.0
11
-6.189624
21
-47.741737
31
0.0
0
LINE
8
0
6
CONTINUOUS
10
-5.459348
20
-47.774529
30
0.0
11
-6.103987
21
-47.773868
31
0.0
0
LINE
8
0
6
CONTINUOUS
10
-2.895324
20
-47.536998
30
0.0
11
-3.007615
21
-47.580057
31
0.0
0
LINE
8
0
6
CONTINUOUS
10
-2.484860
20
-47.220715
30
0.0
11
-2.895324
21
-47.536998
31
0.0
0
LINE
8
0
6
CONTINUOUS
10
-2.174970
20
-46.820049
30
0.0
11
-2.484860
21
-47.220715
31
0.0
0
LINE
8
0
6
CONTINUOUS
10
-1.971870
20
-46.339754
30
0.0
11
-2.174970
21
-46.820049
31
0.0
0
LINE
8
0
6
CONTINUOUS
10
-1.901643
20
-45.828710
30
0.0
11
-1.971870
21
-46.339754
31
0.0
0
LINE
8
0
6
CONTINUOUS
10
-1.976758
20
-45.323105
30
0.0
11
-1.901643
21
-45.828710
31
0.0
0
LINE
8
0
6
CONTINUOUS
10
-2.143443
20
-44.928782
30
0.0
11
-1.976758
21
-45.323105
31
0.0
0
LINE
8
0
6
CONTINUOUS
10
-2.494750
20
-44.447901
30
0.0
11
-2.477451
21
-44.469630
31
0.0
0
LINE
8
0
6
CONTINUOUS
10
-2.908290
20
-44.132633
30
0.0
11
-2.494750
21
-44.447901
31
0.0
0
LINE
8
0
6
CONTINUOUS
10
-3.377918
20
-43.958249
30
0.0
11
-2.908290
21
-44.132633
31
0.0
0
LINE
8
0
6
CONTINUOUS
10
-4.379850
20
-43.970115
30
0.0
11
-3.875786
21
-43.887955
31
0.0
0
LINE
8
0
6
CONTINUOUS
10
-4.842651
20
-44.166177
30
0.0
11
-4.379850
21
-43.970115
31
0.0
0
LINE
8
0
6
CONTINUOUS
10
-5.026357
20
-47.777351
30
0.0
11
-5.459348
21
-47.774529
31
0.0
0
LINE
8
0
6
CONTINUOUS
10
-9.284596
20
-47.513823
30
0.0
11
-9.443336
21
-49.364502
31
0.0
0
LINE
8
0
6
CONTINUOUS
10
-7.625037
20
-44.647654
30
0.0
11
-7.632982
21
-44.647654
31
0.0
0
LINE
8
0
6
CONTINUOUS
10
-7.625037
20
-44.647654
30
0.0
11
-7.550787
21
-44.647654
31
0.0
0
LINE
8
0
6
CONTINUOUS
10
-7.550787
20
-44.647654
30
0.0
11
-7.594326
21
-44.647654
31
0.0
0
LINE
8
0
6
CONTINUOUS
10
-7.594326
20
-44.647654
30
0.0
11
-8.304745
21
-44.647654
31
0.0
0
LINE
8
0
6
CONTINUOUS
10
-8.976508
20
-44.647654
30
0.0
11
-8.984454
21
-44.647654
31
0.0
0
LINE
8
0
6
CONTINUOUS
10
-9.058703
20
-44.647654
30
0.0
11
-8.984454
21
-44.647654
31
0.0
0
LINE
8
0
6
CONTINUOUS
10
-9.015164
20
-44.647654
30
0.0
11
-9.058703
21
-44.647654
31
0.0
0
LINE
8
0
6
CONTINUOUS
10
-8.304745
20
-44.647654
30
0.0
11
-9.015164
21
-44.647654
31
0.0
0
LINE
8
0
6
CONTINUOUS
10
-7.668392
20
-44.647654
30
0.0
11
-7.632982
21
-44.647654
31
0.0
0
LINE
8
0
6
CONTINUOUS
10
-7.632982
20
-44.647654
30
0.0
11
-7.625037
21
-44.647654
31
0.0
0
LINE
8
0
6
CONTINUOUS
10
-7.550787
20
-44.647654
30
0.0
11
-7.625037
21
-44.647654
31
0.0
0
LINE
8
0
6
CONTINUOUS
10
-7.668392
20
-44.647654
30
0.0
11
-8.304745
21
-44.647654
31
0.0
0
LINE
8
0
6
CONTINUOUS
10
-8.984454
20
-44.647654
30
0.0
11
-8.976508
21
-44.647654
31
0.0
0
LINE
8
0
6
CONTINUOUS
10
-8.976508
20
-44.647654
30
0.0
11
-8.941098
21
-44.647654
31
0.0
0
LINE
8
0
6
CONTINUOUS
10
-8.984454
20
-44.647654
30
0.0
11
-9.058703
21
-44.647654
31
0.0
0
LINE
8
0
6
CONTINUOUS
10
-8.304745
20
-44.647654
30
0.0
11
-8.941098
21
-44.647654
31
0.0
0
LINE
8
0
6
CONTINUOUS
10
11.750806
20
48.687398
30
0.0
11
11.702813
21
48.804204
31
0.0
0
LINE
8
0
6
CONTINUOUS
10
2.073031
20
44.281927
30
0.0
11
1.849979
21
44.020475
31
0.0
0
LINE
8
0
6
CONTINUOUS
10
9.563224
20
49.291822
30
0.0
11
8.880973
21
48.821943
31
0.0
0
LINE
8
0
6
CONTINUOUS
10
10.789228
20
50.124425
30
0.0
11
10.734324
21
50.104917
31
0.0
0
LINE
8
0
6
CONTINUOUS
10
8.880973
20
48.821943
30
0.0
11
8.153422
21
48.314191
31
0.0
0
LINE
8
0
6
CONTINUOUS
10
-3.112404
20
31.639001
30
0.0
11
-2.302073
21
33.007837
31
0.0
0
LINE
8
0
6
CONTINUOUS
10
-4.344637
20
34.186666
30
0.0
11
-4.448218
21
34.018810
31
0.0
0
LINE
8
0
6
CONTINUOUS
10
-2.518395
20
37.170324
30
0.0
11
-4.344637
21
34.186666
31
0.0
0
LINE
8
0
6
CONTINUOUS
10
-0.514236
20
36.020906
30
0.0
11
0.890590
21
38.383863
31
0.0
0
LINE
8
0
6
CONTINUOUS
10
0.890590
20
38.383863
30
0.0
11
1.882690
21
40.122320
31
0.0
0
LINE
8
0
6
CONTINUOUS
10
-1.078464
20
39.509263
30
0.0
11
-2.518395
21
37.170324
31
0.0
0
LINE
8
0
6
CONTINUOUS
10
-0.758137
20
39.265130
30
0.0
11
-2.101171
21
36.920808
31
0.0
0
LINE
8
0
6
CONTINUOUS
10
0.061914
20
41.361329
30
0.0
11
-1.078464
21
39.509263
31
0.0
0
LINE
8
0
6
CONTINUOUS
10
0.337978
20
41.176454
30
0.0
11
-0.758137
21
39.265130
31
0.0
0
LINE
8
0
6
CONTINUOUS
10
1.619445
20
40.493436
30
0.0
11
0.458753
21
38.623014
31
0.0
0
LINE
8
0
6
CONTINUOUS
10
0.727995
20
42.434560
30
0.0
11
0.061914
21
41.361329
31
0.0
0
LINE
8
0
6
CONTINUOUS
10
0.337978
20
41.176454
30
0.0
11
1.062974
21
42.395780
31
0.0
0
LINE
8
0
6
CONTINUOUS
10
1.100650
20
43.011510
30
0.0
11
0.727995
21
42.434560
31
0.0
0
LINE
8
0
6
CONTINUOUS
10
1.364059
20
43.385694
30
0.0
11
1.100650
21
43.011510
31
0.0
0
LINE
8
0
6
CONTINUOUS
10
1.849979
20
44.020475
30
0.0
11
1.630885
21
43.755689
31
0.0
0
LINE
8
0
6
CONTINUOUS
10
8.143176
20
48.288526
30
0.0
11
7.065633
21
47.526471
31
0.0
0
LINE
8
0
6
CONTINUOUS
10
4.835069
20
45.881505
30
0.0
11
3.857618
21
45.166730
31
0.0
0
LINE
8
0
6
CONTINUOUS
10
3.857618
20
45.166730
30
0.0
11
3.456494
21
44.849576
31
0.0
0
LINE
8
0
6
CONTINUOUS
10
10.789228
20
50.124425
30
0.0
11
10.670066
21
50.040311
31
0.0
0
LINE
8
0
6
CONTINUOUS
10
10.949544
20
50.077749
30
0.0
11
10.789228
21
50.124425
31
0.0
0
LINE
8
0
6
CONTINUOUS
10
10.992951
20
50.006467
30
0.0
11
10.949544
21
50.077749
31
0.0
0
LINE
8
0
6
CONTINUOUS
10
11.694383
20
48.819356
30
0.0
11
11.465856
21
49.229833
31
0.0
0
LINE
8
0
6
CONTINUOUS
10
10.670066
20
50.040311
30
0.0
11
10.285228
21
49.772664
31
0.0
0
LINE
8
0
6
CONTINUOUS
10
10.285228
20
49.772664
30
0.0
11
9.611238
21
49.311216
31
0.0
0
LINE
8
0
6
CONTINUOUS
10
8.901937
20
48.821576
30
0.0
11
8.143176
21
48.288526
31
0.0
0
LINE
8
0
6
CONTINUOUS
10
9.611238
20
49.311216
30
0.0
11
8.901937
21
48.821576
31
0.0
0
LINE
8
0
6
CONTINUOUS
10
2.954132
20
42.278837
30
0.0
11
2.391836
21
41.622518
31
0.0
0
LINE
8
0
6
CONTINUOUS
10
3.324698
20
42.687726
30
0.0
11
2.954132
21
42.278837
31
0.0
0
LINE
8
0
6
CONTINUOUS
10
3.456494
20
44.849576
30
0.0
11
3.055075
21
44.538198
31
0.0
0
LINE
8
0
6
CONTINUOUS
10
1.630885
20
43.755689
30
0.0
11
1.364059
21
43.385694
31
0.0
0
LINE
8
0
6
CONTINUOUS
10
2.622427
20
44.159452
30
0.0
11
2.195405
21
43.725347
31
0.0
0
LINE
8
0
6
CONTINUOUS
10
3.055075
20
44.538198
30
0.0
11
2.622427
21
44.159452
31
0.0
0
LINE
8
0
6
CONTINUOUS
10
1.062974
20
42.395780
30
0.0
11
1.626159
21
43.147153
31
0.0
0
LINE
8
0
6
CONTINUOUS
10
-2.302073
20
33.007837
30
0.0
11
-0.514236
21
36.020906
31
0.0
0
LINE
8
0
6
CONTINUOUS
10
1.619445
20
40.493436
30
0.0
11
2.391836
21
41.622518
31
0.0
0
LINE
8
0
6
CONTINUOUS
10
2.251312
20
44.487172
30
0.0
11
2.073031
21
44.281927
31
0.0
0
LINE
8
0
6
CONTINUOUS
10
2.717812
20
44.980733
30
0.0
11
2.251312
21
44.487172
31
0.0
0
LINE
8
0
6
CONTINUOUS
10
3.727453
20
45.889089
30
0.0
11
3.218888
21
45.439008
31
0.0
0
LINE
8
0
6
CONTINUOUS
10
3.218888
20
45.439008
30
0.0
11
2.717812
21
44.980733
31
0.0
0
LINE
8
0
6
CONTINUOUS
10
5.205266
20
47.072927
30
0.0
11
3.727453
21
45.889089
31
0.0
0
LINE
8
0
6
CONTINUOUS
10
6.831325
20
48.192197
30
0.0
11
5.205266
21
47.072927
31
0.0
0
LINE
8
0
6
CONTINUOUS
10
8.467753
20
49.122556
30
0.0
11
6.831325
21
48.192197
31
0.0
0
LINE
8
0
6
CONTINUOUS
10
9.972768
20
49.800634
30
0.0
11
8.467753
21
49.122556
31
0.0
0
LINE
8
0
6
CONTINUOUS
10
10.734324
20
50.104917
30
0.0
11
9.972768
21
49.800634
31
0.0
0
LINE
8
0
6
CONTINUOUS
10
4.137756
20
43.315763
30
0.0
11
4.474950
21
43.586034
31
0.0
0
LINE
8
0
6
CONTINUOUS
10
4.441245
20
43.587186
30
0.0
11
4.110365
21
43.319372
31
0.0
0
LINE
8
0
6
CONTINUOUS
10
4.110365
20
43.319372
30
0.0
11
3.768220
21
43.028638
31
0.0
0
LINE
8
0
6
CONTINUOUS
10
3.795492
20
43.020017
30
0.0
11
4.137756
21
43.315763
31
0.0
0
LINE
8
0
6
CONTINUOUS
10
6.963998
20
45.317174
30
0.0
11
8.090356
21
46.093381
31
0.0
0
LINE
8
0
6
CONTINUOUS
10
8.052110
20
46.092901
30
0.0
11
6.924909
21
45.320615
31
0.0
0
LINE
8
0
6
CONTINUOUS
10
5.861239
20
44.555448
30
0.0
11
6.963998
21
45.317174
31
0.0
0
LINE
8
0
6
CONTINUOUS
10
6.924909
20
45.320615
30
0.0
11
5.824323
21
44.560377
31
0.0
0
LINE
8
0
6
CONTINUOUS
10
5.927877
20
46.694021
30
0.0
11
7.065633
21
47.526471
31
0.0
0
LINE
8
0
6
CONTINUOUS
10
4.835069
20
45.881505
30
0.0
11
5.927877
21
46.694021
31
0.0
0
LINE
8
0
6
CONTINUOUS
10
11.465856
20
49.229833
30
0.0
11
10.992951
21
50.006467
31
0.0
0
LINE
8
0
6
CONTINUOUS
10
11.702813
20
48.804204
30
0.0
11
11.694383
21
48.819356
31
0.0
0
LINE
8
0
6
CONTINUOUS
10
-3.163135
20
31.615491
30
0.0
11
-3.119726
21
31.626630
31
0.0
0
LINE
8
0
6
CONTINUOUS
10
-3.666098
20
31.907155
30
0.0
11
-3.457675
21
31.786291
31
0.0
0
LINE
8
0
6
CONTINUOUS
10
-3.789152
20
31.978513
30
0.0
11
-3.666098
21
31.907155
31
0.0
0
LINE
8
0
6
CONTINUOUS
10
-4.057478
20
32.134115
30
0.0
11
-3.913738
21
32.050760
31
0.0
0
LINE
8
0
6
CONTINUOUS
10
-4.373395
20
32.317315
30
0.0
11
-4.205854
21
32.220159
31
0.0
0
LINE
8
0
6
CONTINUOUS
10
-3.913738
20
32.050760
30
0.0
11
-3.789152
21
31.978513
31
0.0
0
LINE
8
0
6
CONTINUOUS
10
-4.034580
20
32.157121
30
0.0
11
-3.888727
21
32.072534
31
0.0
0
LINE
8
0
6
CONTINUOUS
10
-3.421853
20
31.801805
30
0.0
11
-3.257850
21
31.706716
31
0.0
0
LINE
8
0
6
CONTINUOUS
10
-3.888727
20
32.072534
30
0.0
11
-3.762148
21
31.999128
31
0.0
0
LINE
8
0
6
CONTINUOUS
10
-3.119726
20
31.626630
30
0.0
11
-3.112404
21
31.639001
31
0.0
0
LINE
8
0
6
CONTINUOUS
10
-3.154818
20
31.646978
30
0.0
11
-3.119726
21
31.626630
31
0.0
0
LINE
8
0
6
CONTINUOUS
10
-4.185973
20
32.244913
30
0.0
11
-4.034580
21
32.157121
31
0.0
0
LINE
8
0
6
CONTINUOUS
10
-3.635826
20
31.925878
30
0.0
11
-3.421853
21
31.801805
31
0.0
0
LINE
8
0
6
CONTINUOUS
10
-3.762148
20
31.999128
30
0.0
11
-3.635826
21
31.925878
31
0.0
0
LINE
8
0
6
CONTINUOUS
10
-4.362804
20
32.347455
30
0.0
11
-4.185973
21
32.244913
31
0.0
0
LINE
8
0
6
CONTINUOUS
10
-3.257850
20
31.706716
30
0.0
11
-3.154818
21
31.646978
31
0.0
0
LINE
8
0
6
CONTINUOUS
10
-4.057478
20
32.134115
30
0.0
11
-4.205854
21
32.220159
31
0.0
0
LINE
8
0
6
CONTINUOUS
10
-3.733680
20
30.705790
30
0.0
11
-3.260052
21
31.429170
31
0.0
0
LINE
8
0
6
CONTINUOUS
10
-3.189355
20
31.630693
30
0.0
11
-3.290648
21
31.689435
31
0.0
0
LINE
8
0
6
CONTINUOUS
10
-3.159483
20
31.602594
30
0.0
11
-3.154806
21
31.610658
31
0.0
0
LINE
8
0
6
CONTINUOUS
10
-3.260052
20
31.429170
30
0.0
11
-3.159483
21
31.602594
31
0.0
0
LINE
8
0
6
CONTINUOUS
10
-3.451783
20
31.782873
30
0.0
11
-3.290648
21
31.689435
31
0.0
0
LINE
8
0
6
CONTINUOUS
10
-3.189355
20
31.630693
30
0.0
11
-3.154806
21
31.610658
31
0.0
0
LINE
8
0
6
CONTINUOUS
10
1.961285
20
40.449861
30
0.0
11
1.921159
21
40.593931
31
0.0
0
LINE
8
0
6
CONTINUOUS
10
1.988557
20
40.351953
30
0.0
11
1.961285
21
40.449861
31
0.0
0
LINE
8
0
6
CONTINUOUS
10
1.882690
20
40.122320
30
0.0
11
2.009265
21
40.330839
31
0.0
0
LINE
8
0
6
CONTINUOUS
10
2.009265
20
40.330839
30
0.0
11
1.988557
21
40.351953
31
0.0
0
LINE
8
0
6
CONTINUOUS
10
1.921159
20
40.593931
30
0.0
11
2.460159
21
41.522684
31
0.0
0
LINE
8
0
6
CONTINUOUS
10
2.460159
20
41.522684
30
0.0
11
3.020118
21
42.244626
31
0.0
0
LINE
8
0
6
CONTINUOUS
10
3.427156
20
42.711637
30
0.0
11
3.451900
21
42.701505
31
0.0
0
LINE
8
0
6
CONTINUOUS
10
4.474950
20
43.586034
30
0.0
11
4.895668
21
43.877596
31
0.0
0
LINE
8
0
6
CONTINUOUS
10
4.858499
20
43.879056
30
0.0
11
4.441245
21
43.587186
31
0.0
0
LINE
8
0
6
CONTINUOUS
10
10.498477
20
47.802122
30
0.0
11
9.861203
21
47.364312
31
0.0
0
LINE
8
0
6
CONTINUOUS
10
9.859542
20
47.344419
30
0.0
11
10.463162
21
47.759572
31
0.0
0
LINE
8
0
6
CONTINUOUS
10
11.610499
20
48.591970
30
0.0
11
11.192683
21
48.303884
31
0.0
0
LINE
8
0
6
CONTINUOUS
10
11.152537
20
48.252355
30
0.0
11
11.568744
21
48.536695
31
0.0
0
LINE
8
0
6
CONTINUOUS
10
11.192683
20
48.303884
30
0.0
11
10.498477
21
47.802122
31
0.0
0
LINE
8
0
6
CONTINUOUS
10
10.463162
20
47.759572
30
0.0
11
11.152537
21
48.252355
31
0.0
0
LINE
8
0
6
CONTINUOUS
10
11.750806
20
48.687398
30
0.0
11
11.610499
21
48.591970
31
0.0
0
LINE
8
0
6
CONTINUOUS
10
11.707707
20
48.629957
30
0.0
11
11.750806
21
48.687398
31
0.0
0
LINE
8
0
6
CONTINUOUS
10
11.568744
20
48.536695
30
0.0
11
11.707707
21
48.629957
31
0.0
0
LINE
8
0
6
CONTINUOUS
10
4.897082
20
43.878576
30
0.0
11
5.861239
21
44.555448
31
0.0
0
LINE
8
0
6
CONTINUOUS
10
5.824323
20
44.560377
30
0.0
11
4.858499
21
43.879056
31
0.0
0
LINE
8
0
6
CONTINUOUS
10
9.171557
20
46.869008
30
0.0
11
9.859542
21
47.344419
31
0.0
0
LINE
8
0
6
CONTINUOUS
10
9.859544
20
47.363172
30
0.0
11
9.130393
21
46.859342
31
0.0
0
LINE
8
0
6
CONTINUOUS
10
9.130393
20
46.859342
30
0.0
11
8.052110
21
46.092901
31
0.0
0
LINE
8
0
6
CONTINUOUS
10
8.090356
20
46.093381
30
0.0
11
9.171557
21
46.869008
31
0.0
0
LINE
8
0
6
CONTINUOUS
10
3.324270
20
42.529065
30
0.0
11
3.463190
21
42.701406
31
0.0
0
LINE
8
0
6
CONTINUOUS
10
3.020118
20
42.244626
30
0.0
11
3.324270
21
42.529065
31
0.0
0
LINE
8
0
6
CONTINUOUS
10
3.795492
20
43.020017
30
0.0
11
3.451900
21
42.701505
31
0.0
0
LINE
8
0
6
CONTINUOUS
10
3.463190
20
42.701406
30
0.0
11
3.795492
21
43.020017
31
0.0
0
LINE
8
0
6
CONTINUOUS
10
3.451900
20
42.701505
30
0.0
11
3.463190
21
42.701406
31
0.0
0
LINE
8
0
6
CONTINUOUS
10
5.231946
20
44.113662
30
0.0
11
4.897080
21
43.878574
31
0.0
0
LINE
8
0
6
CONTINUOUS
10
9.065917
20
45.889670
30
0.0
11
9.102102
21
45.920942
31
0.0
0
LINE
8
0
6
CONTINUOUS
10
11.707707
20
48.629955
30
0.0
11
11.568746
21
48.536693
31
0.0
0
LINE
8
0
6
CONTINUOUS
10
11.343427
20
48.172852
30
0.0
11
11.707707
21
48.629955
31
0.0
0
LINE
8
0
6
CONTINUOUS
10
4.783968
20
43.130618
30
0.0
11
4.839980
21
43.157069
31
0.0
0
LINE
8
0
6
CONTINUOUS
10
4.562994
20
43.647049
30
0.0
11
4.474948
21
43.586032
31
0.0
0
LINE
8
0
6
CONTINUOUS
10
6.015786
20
43.796202
30
0.0
11
6.253911
21
43.933655
31
0.0
0
LINE
8
0
6
CONTINUOUS
10
6.620312
20
44.145152
30
0.0
11
6.861251
21
44.284229
31
0.0
0
LINE
8
0
6
CONTINUOUS
10
7.285371
20
44.550616
30
0.0
11
7.700555
21
44.841546
31
0.0
0
LINE
8
0
6
CONTINUOUS
10
8.047916
20
45.084950
30
0.0
11
8.466570
21
45.378312
31
0.0
0
LINE
8
0
6
CONTINUOUS
10
4.178442
20
42.843097
30
0.0
11
4.400391
21
42.949126
31
0.0
0
LINE
8
0
6
CONTINUOUS
10
5.408307
20
43.451435
30
0.0
11
5.650439
21
43.588821
31
0.0
0
LINE
8
0
6
CONTINUOUS
10
6.289998
20
44.851610
30
0.0
11
5.861238
21
44.555446
31
0.0
0
LINE
8
0
6
CONTINUOUS
10
9.859542
20
47.344417
30
0.0
11
9.171556
21
46.869006
31
0.0
0
LINE
8
0
6
CONTINUOUS
10
10.463162
20
47.759570
30
0.0
11
9.859542
21
47.344417
31
0.0
0
LINE
8
0
6
CONTINUOUS
10
3.795491
20
43.020015
30
0.0
11
3.463189
21
42.701404
31
0.0
0
LINE
8
0
6
CONTINUOUS
10
1.987174
20
40.490955
30
0.0
11
2.013248
21
40.391025
31
0.0
0
LINE
8
0
6
CONTINUOUS
10
9.171556
20
46.869006
30
0.0
11
8.090356
21
46.093379
31
0.0
0
LINE
8
0
6
CONTINUOUS
10
3.324270
20
42.529063
30
0.0
11
3.756256
21
42.717334
31
0.0
0
LINE
8
0
6
CONTINUOUS
10
1.952197
20
40.616222
30
0.0
11
1.987174
21
40.490955
31
0.0
0
LINE
8
0
6
CONTINUOUS
10
2.470522
20
41.508022
30
0.0
11
1.952197
21
40.616222
31
0.0
0
LINE
8
0
6
CONTINUOUS
10
11.152539
20
48.252353
30
0.0
11
10.463162
21
47.759570
31
0.0
0
LINE
8
0
6
CONTINUOUS
10
3.756256
20
42.717334
30
0.0
11
3.891913
21
42.696842
31
0.0
0
LINE
8
0
6
CONTINUOUS
10
3.091208
20
41.908107
30
0.0
11
3.887223
21
42.643276
31
0.0
0
LINE
8
0
6
CONTINUOUS
10
3.887223
20
42.643276
30
0.0
11
3.858392
21
42.666415
31
0.0
0
LINE
8
0
6
CONTINUOUS
10
11.568746
20
48.536693
30
0.0
11
11.152539
21
48.252353
31
0.0
0
LINE
8
0
6
CONTINUOUS
10
2.614049
20
41.278415
30
0.0
11
3.091208
21
41.908107
31
0.0
0
LINE
8
0
6
CONTINUOUS
10
3.920521
20
42.674030
30
0.0
11
4.178442
21
42.843097
31
0.0
0
LINE
8
0
6
CONTINUOUS
10
3.891913
20
42.696842
30
0.0
11
3.920521
21
42.674030
31
0.0
0
LINE
8
0
6
CONTINUOUS
10
4.137755
20
43.315761
30
0.0
11
3.795491
21
43.020015
31
0.0
0
LINE
8
0
6
CONTINUOUS
10
4.264968
20
43.417726
30
0.0
11
4.140594
21
43.318037
31
0.0
0
LINE
8
0
6
CONTINUOUS
10
8.090356
20
46.093379
30
0.0
11
6.963996
21
45.317172
31
0.0
0
LINE
8
0
6
CONTINUOUS
10
10.499181
20
47.233800
30
0.0
11
10.513983
21
47.248701
31
0.0
0
LINE
8
0
6
CONTINUOUS
10
10.799092
20
47.535736
30
0.0
11
10.984223
21
47.722118
31
0.0
0
LINE
8
0
6
CONTINUOUS
10
3.858392
20
42.666415
30
0.0
11
3.722612
21
42.685657
31
0.0
0
LINE
8
0
6
CONTINUOUS
10
2.033691
20
40.369106
30
0.0
11
2.614049
21
41.278415
31
0.0
0
LINE
8
0
6
CONTINUOUS
10
2.013248
20
40.391025
30
0.0
11
2.033691
21
40.369106
31
0.0
0
LINE
8
0
6
CONTINUOUS
10
3.026764
20
42.229350
30
0.0
11
2.470522
21
41.508022
31
0.0
0
LINE
8
0
6
CONTINUOUS
10
3.325107
20
42.511577
30
0.0
11
3.026764
21
42.229350
31
0.0
0
LINE
8
0
6
CONTINUOUS
10
3.722612
20
42.685657
30
0.0
11
3.325107
21
42.511577
31
0.0
0
LINE
8
0
6
CONTINUOUS
10
3.912084
20
42.671809
30
0.0
11
3.920521
21
42.674030
31
0.0
0
LINE
8
0
6
CONTINUOUS
10
3.920521
20
42.674030
30
0.0
11
3.891913
21
42.696842
31
0.0
0
LINE
8
0
6
CONTINUOUS
10
2.009265
20
40.330837
30
0.0
11
2.011382
21
40.358936
31
0.0
0
LINE
8
0
6
CONTINUOUS
10
1.988556
20
40.351955
30
0.0
11
2.009265
21
40.330837
31
0.0
0
LINE
8
0
6
CONTINUOUS
10
3.325107
20
42.511577
30
0.0
11
3.722612
21
42.685657
31
0.0
0
LINE
8
0
6
CONTINUOUS
10
3.722612
20
42.685657
30
0.0
11
3.858392
21
42.666415
31
0.0
0
LINE
8
0
6
CONTINUOUS
10
3.877351
20
42.682170
30
0.0
11
3.848630
21
42.705142
31
0.0
0
LINE
8
0
6
CONTINUOUS
10
3.887223
20
42.643276
30
0.0
11
3.877351
21
42.682170
31
0.0
0
LINE
8
0
6
CONTINUOUS
10
3.858392
20
42.666415
30
0.0
11
3.887223
21
42.643276
31
0.0
0
LINE
8
0
6
CONTINUOUS
10
3.026764
20
42.229350
30
0.0
11
3.325107
21
42.511577
31
0.0
0
LINE
8
0
6
CONTINUOUS
10
1.952197
20
40.616222
30
0.0
11
2.470522
21
41.508022
31
0.0
0
LINE
8
0
6
CONTINUOUS
10
2.013248
20
40.391025
30
0.0
11
1.987174
21
40.490955
31
0.0
0
LINE
8
0
6
CONTINUOUS
10
1.995524
20
40.374164
30
0.0
11
2.033691
21
40.369106
31
0.0
0
LINE
8
0
6
CONTINUOUS
10
1.974948
20
40.395679
30
0.0
11
1.995524
21
40.374164
31
0.0
0
LINE
8
0
6
CONTINUOUS
10
2.033691
20
40.369106
30
0.0
11
2.013248
21
40.391025
31
0.0
0
LINE
8
0
6
CONTINUOUS
10
2.470522
20
41.508022
30
0.0
11
3.026764
21
42.229350
31
0.0
0
LINE
8
0
6
CONTINUOUS
10
1.987174
20
40.490955
30
0.0
11
1.952197
21
40.616222
31
0.0
0
LINE
8
0
6
CONTINUOUS
10
6.304433
20
43.867530
30
0.0
11
6.363294
21
43.908988
31
0.0
0
LINE
8
0
6
CONTINUOUS
10
6.256723
20
43.935278
30
0.0
11
6.304433
21
43.867530
31
0.0
0
LINE
8
0
6
CONTINUOUS
10
6.543225
20
44.718344
30
0.0
11
6.655293
21
44.797270
31
0.0
0
LINE
8
0
6
CONTINUOUS
10
6.478483
20
44.810278
30
0.0
11
6.543225
21
44.718344
31
0.0
0
LINE
8
0
6
CONTINUOUS
10
6.655293
20
44.797270
30
0.0
11
6.826219
21
44.917639
31
0.0
0
LINE
8
0
6
CONTINUOUS
10
6.571610
20
44.916097
30
0.0
11
6.655293
21
44.797270
31
0.0
0
LINE
8
0
6
CONTINUOUS
10
9.068864
20
46.467055
30
0.0
11
8.986835
21
46.583535
31
0.0
0
LINE
8
0
6
CONTINUOUS
10
8.990582
20
46.411932
30
0.0
11
9.068864
21
46.467055
31
0.0
0
LINE
8
0
6
CONTINUOUS
10
8.990582
20
46.411932
30
0.0
11
8.908553
21
46.528411
31
0.0
0
LINE
8
0
6
CONTINUOUS
10
8.817189
20
46.289816
30
0.0
11
8.990582
21
46.411932
31
0.0
0
LINE
8
0
6
CONTINUOUS
10
8.817189
20
46.289816
30
0.0
11
8.684458
21
46.478292
31
0.0
0
LINE
8
0
6
CONTINUOUS
10
8.722081
20
46.222838
30
0.0
11
8.817189
21
46.289816
31
0.0
0
LINE
8
0
6
CONTINUOUS
10
8.691126
20
46.266793
30
0.0
11
8.722081
21
46.222838
31
0.0
0
LINE
8
0
6
CONTINUOUS
10
9.999692
20
47.074446
30
0.0
11
10.043572
21
47.105353
31
0.0
0
LINE
8
0
6
CONTINUOUS
10
9.832234
20
46.956518
30
0.0
11
9.999692
21
47.074446
31
0.0
0
LINE
8
0
6
CONTINUOUS
10
9.708657
20
46.869490
30
0.0
11
9.832234
21
46.956518
31
0.0
0
LINE
8
0
6
CONTINUOUS
10
9.675746
20
46.916223
30
0.0
11
9.708657
21
46.869490
31
0.0
0
LINE
8
0
6
CONTINUOUS
10
11.209393
20
47.939757
30
0.0
11
11.375115
21
48.056463
31
0.0
0
LINE
8
0
6
CONTINUOUS
10
11.209393
20
47.939757
30
0.0
11
11.185127
21
47.974215
31
0.0
0
LINE
8
0
6
CONTINUOUS
10
10.753465
20
47.607176
30
0.0
11
10.760972
21
47.612463
31
0.0
0
LINE
8
0
6
CONTINUOUS
10
11.217607
20
47.923872
30
0.0
11
11.183549
21
47.972234
31
0.0
0
LINE
8
0
6
CONTINUOUS
10
11.083951
20
47.829741
30
0.0
11
11.217604
21
47.923869
31
0.0
0
LINE
8
0
6
CONTINUOUS
10
11.083951
20
47.829741
30
0.0
11
11.077402
21
47.839041
31
0.0
0
LINE
8
0
6
CONTINUOUS
10
10.921094
20
47.715056
30
0.0
11
11.083951
21
47.829741
31
0.0
0
LINE
8
0
6
CONTINUOUS
10
10.897879
20
47.698704
30
0.0
11
10.921094
21
47.715056
31
0.0
0
LINE
8
0
6
CONTINUOUS
10
7.865418
20
45.644850
30
0.0
11
7.977487
21
45.723768
31
0.0
0
LINE
8
0
6
CONTINUOUS
10
7.865418
20
45.644850
30
0.0
11
7.799353
21
45.738662
31
0.0
0
LINE
8
0
6
CONTINUOUS
10
7.694493
20
45.524481
30
0.0
11
7.865418
21
45.644850
31
0.0
0
LINE
8
0
6
CONTINUOUS
10
7.694493
20
45.524481
30
0.0
11
7.554102
21
45.723831
31
0.0
0
LINE
8
0
6
CONTINUOUS
10
7.635636
20
45.483023
30
0.0
11
7.694493
21
45.524481
31
0.0
0
LINE
8
0
6
CONTINUOUS
10
7.599158
20
45.534822
30
0.0
11
7.635636
21
45.483023
31
0.0
0
LINE
8
0
6
CONTINUOUS
10
8.068154
20
45.056212
30
0.0
11
8.039198
21
45.097329
31
0.0
0
LINE
8
0
6
CONTINUOUS
10
7.989873
20
45.001082
30
0.0
11
8.068154
21
45.056212
31
0.0
0
LINE
8
0
6
CONTINUOUS
10
7.989873
20
45.001082
30
0.0
11
7.969505
21
45.030005
31
0.0
0
LINE
8
0
6
CONTINUOUS
10
7.816480
20
44.878973
30
0.0
11
7.989873
21
45.001082
31
0.0
0
LINE
8
0
6
CONTINUOUS
10
7.816480
20
44.878973
30
0.0
11
7.742626
21
44.983843
31
0.0
0
LINE
8
0
6
CONTINUOUS
10
7.721372
20
44.811987
30
0.0
11
7.816480
21
44.878973
31
0.0
0
LINE
8
0
6
CONTINUOUS
10
7.672793
20
44.880968
30
0.0
11
7.721372
21
44.811987
31
0.0
0
LINE
8
0
6
CONTINUOUS
10
8.305821
20
45.285094
30
0.0
11
8.260920
21
45.348853
31
0.0
0
LINE
8
0
6
CONTINUOUS
10
8.227540
20
45.229964
30
0.0
11
8.305821
21
45.285094
31
0.0
0
LINE
8
0
6
CONTINUOUS
10
8.227540
20
45.229964
30
0.0
11
8.182638
21
45.293725
31
0.0
0
LINE
8
0
6
CONTINUOUS
10
8.054147
20
45.107855
30
0.0
11
8.227540
21
45.229964
31
0.0
0
LINE
8
0
6
CONTINUOUS
10
8.518594
20
45.549330
30
0.0
11
8.456133
21
45.638024
31
0.0
0
LINE
8
0
6
CONTINUOUS
10
8.440312
20
45.494200
30
0.0
11
8.518594
21
45.549330
31
0.0
0
LINE
8
0
6
CONTINUOUS
10
8.440312
20
45.494200
30
0.0
11
8.343165
21
45.632147
31
0.0
0
LINE
8
0
6
CONTINUOUS
10
8.266919
20
45.372092
30
0.0
11
8.440312
21
45.494200
31
0.0
0
LINE
8
0
6
CONTINUOUS
10
8.266919
20
45.372092
30
0.0
11
8.240512
21
45.409590
31
0.0
0
LINE
8
0
6
CONTINUOUS
10
8.171807
20
45.305105
30
0.0
11
8.266919
21
45.372092
31
0.0
0
LINE
8
0
6
CONTINUOUS
10
8.134763
20
45.357708
30
0.0
11
8.171807
21
45.305105
31
0.0
0
LINE
8
0
6
CONTINUOUS
10
8.715924
20
45.835486
30
0.0
11
8.685019
21
45.879371
31
0.0
0
LINE
8
0
6
CONTINUOUS
10
8.637643
20
45.780363
30
0.0
11
8.715924
21
45.835486
31
0.0
0
LINE
8
0
6
CONTINUOUS
10
8.637643
20
45.780363
30
0.0
11
8.607432
21
45.823262
31
0.0
0
LINE
8
0
6
CONTINUOUS
10
8.464250
20
45.658247
30
0.0
11
8.637643
21
45.780363
31
0.0
0
LINE
8
0
6
CONTINUOUS
10
8.464250
20
45.658247
30
0.0
11
8.435569
21
45.698974
31
0.0
0
LINE
8
0
6
CONTINUOUS
10
8.369138
20
45.591276
30
0.0
11
8.464250
21
45.658247
31
0.0
0
LINE
8
0
6
CONTINUOUS
10
8.330277
20
45.646459
30
0.0
11
8.369138
21
45.591276
31
0.0
0
LINE
8
0
6
CONTINUOUS
10
8.908513
20
46.128378
30
0.0
11
8.890224
21
46.154348
31
0.0
0
LINE
8
0
6
CONTINUOUS
10
8.830232
20
46.073256
30
0.0
11
8.908513
21
46.128378
31
0.0
0
LINE
8
0
6
CONTINUOUS
10
8.830232
20
46.073256
30
0.0
11
8.812640
21
46.098237
31
0.0
0
LINE
8
0
6
CONTINUOUS
10
8.656838
20
45.951147
30
0.0
11
8.830232
21
46.073256
31
0.0
0
LINE
8
0
6
CONTINUOUS
10
8.656838
20
45.951147
30
0.0
11
8.640781
21
45.973949
31
0.0
0
LINE
8
0
6
CONTINUOUS
10
8.561727
20
45.884169
30
0.0
11
8.656838
21
45.951147
31
0.0
0
LINE
8
0
6
CONTINUOUS
10
8.519823
20
45.943672
30
0.0
11
8.561727
21
45.884169
31
0.0
0
LINE
8
0
6
CONTINUOUS
10
8.821862
20
45.585242
30
0.0
11
8.785640
21
45.636676
31
0.0
0
LINE
8
0
6
CONTINUOUS
10
8.777986
20
45.554342
30
0.0
11
8.821862
21
45.585242
31
0.0
0
LINE
8
0
6
CONTINUOUS
10
8.777986
20
45.554342
30
0.0
11
8.740117
21
45.608115
31
0.0
0
LINE
8
0
6
CONTINUOUS
10
8.610528
20
45.436407
30
0.0
11
8.777986
21
45.554342
31
0.0
0
LINE
8
0
6
CONTINUOUS
10
8.610528
20
45.436407
30
0.0
11
8.584384
21
45.473531
31
0.0
0
LINE
8
0
6
CONTINUOUS
10
8.486951
20
45.349379
30
0.0
11
8.610528
21
45.436407
31
0.0
0
LINE
8
0
6
CONTINUOUS
10
8.452611
20
45.398141
30
0.0
11
8.486951
21
45.349379
31
0.0
0
LINE
8
0
6
CONTINUOUS
10
8.757184
20
45.616636
30
0.0
11
8.880761
21
45.703665
31
0.0
0
LINE
8
0
6
CONTINUOUS
10
8.724125
20
45.663580
30
0.0
11
8.757184
21
45.616636
31
0.0
0
LINE
8
0
6
CONTINUOUS
10
9.346063
20
46.142843
30
0.0
11
9.291913
21
46.219736
31
0.0
0
LINE
8
0
6
CONTINUOUS
10
9.302186
20
46.111944
30
0.0
11
9.346063
21
46.142843
31
0.0
0
LINE
8
0
6
CONTINUOUS
10
9.302186
20
46.111944
30
0.0
11
9.202443
21
46.253577
31
0.0
0
LINE
8
0
6
CONTINUOUS
10
9.134728
20
45.994017
30
0.0
11
9.302186
21
46.111944
31
0.0
0
LINE
8
0
6
CONTINUOUS
10
9.134728
20
45.994017
30
0.0
11
9.113399
21
46.024305
31
0.0
0
LINE
8
0
6
CONTINUOUS
10
9.011151
20
45.906996
30
0.0
11
9.134728
21
45.994017
31
0.0
0
LINE
8
0
6
CONTINUOUS
10
8.974251
20
45.959394
30
0.0
11
9.011151
21
45.906996
31
0.0
0
LINE
8
0
6
CONTINUOUS
10
9.598374
20
46.435553
30
0.0
11
9.549680
21
46.504699
31
0.0
0
LINE
8
0
6
CONTINUOUS
10
9.554498
20
46.404654
30
0.0
11
9.598374
21
46.435553
31
0.0
0
LINE
8
0
6
CONTINUOUS
10
9.554498
20
46.404654
30
0.0
11
9.506192
21
46.473248
31
0.0
0
LINE
8
0
6
CONTINUOUS
10
9.387040
20
46.286726
30
0.0
11
9.554498
21
46.404654
31
0.0
0
LINE
8
0
6
CONTINUOUS
10
9.387040
20
46.286726
30
0.0
11
9.340216
21
46.353215
31
0.0
0
LINE
8
0
6
CONTINUOUS
10
9.263459
20
46.199698
30
0.0
11
9.387040
21
46.286726
31
0.0
0
LINE
8
0
6
CONTINUOUS
10
9.228344
20
46.249562
30
0.0
11
9.263459
21
46.199698
31
0.0
0
LINE
8
0
6
CONTINUOUS
10
9.814351
20
46.779860
30
0.0
11
9.737117
21
46.889532
31
0.0
0
LINE
8
0
6
CONTINUOUS
10
9.770471
20
46.748953
30
0.0
11
9.814351
21
46.779860
31
0.0
0
LINE
8
0
6
CONTINUOUS
10
9.770471
20
46.748953
30
0.0
11
9.750881
21
46.776772
31
0.0
0
LINE
8
0
6
CONTINUOUS
10
9.603013
20
46.631026
30
0.0
11
9.770471
21
46.748953
31
0.0
0
LINE
8
0
6
CONTINUOUS
10
9.603013
20
46.631026
30
0.0
11
9.584905
21
46.656740
31
0.0
0
LINE
8
0
6
CONTINUOUS
10
9.479436
20
46.544005
30
0.0
11
9.603013
21
46.631026
31
0.0
0
LINE
8
0
6
CONTINUOUS
10
9.449908
20
46.585934
30
0.0
11
9.479436
21
46.544005
31
0.0
0
LINE
8
0
6
CONTINUOUS
10
9.433908
20
46.088141
30
0.0
11
9.381571
21
46.162458
31
0.0
0
LINE
8
0
6
CONTINUOUS
10
9.279897
20
45.979681
30
0.0
11
9.433908
21
46.088141
31
0.0
0
LINE
8
0
6
CONTINUOUS
10
9.279897
20
45.979681
30
0.0
11
9.238346
21
46.038683
31
0.0
0
LINE
8
0
6
CONTINUOUS
10
9.133393
20
45.876509
30
0.0
11
9.279897
21
45.979681
31
0.0
0
LINE
8
0
6
CONTINUOUS
10
9.098808
20
45.925620
30
0.0
11
9.133393
21
45.876509
31
0.0
0
LINE
8
0
6
CONTINUOUS
10
9.490403
20
46.217756
30
0.0
11
9.636907
21
46.320929
31
0.0
0
LINE
8
0
6
CONTINUOUS
10
9.456542
20
46.265838
30
0.0
11
9.490403
21
46.217756
31
0.0
0
LINE
8
0
6
CONTINUOUS
10
10.137506
20
46.801382
30
0.0
11
10.077578
21
46.886479
31
0.0
0
LINE
8
0
6
CONTINUOUS
10
10.129998
20
46.796095
30
0.0
11
10.137506
21
46.801382
31
0.0
0
LINE
8
0
6
CONTINUOUS
10
10.129998
20
46.796095
30
0.0
11
10.070137
21
46.881097
31
0.0
0
LINE
8
0
6
CONTINUOUS
10
9.975987
20
46.687636
30
0.0
11
10.129998
21
46.796095
31
0.0
0
LINE
8
0
6
CONTINUOUS
10
9.975987
20
46.687636
30
0.0
11
9.917491
21
46.770699
31
0.0
0
LINE
8
0
6
CONTINUOUS
10
9.829488
20
46.584463
30
0.0
11
9.975987
21
46.687636
31
0.0
0
LINE
8
0
6
CONTINUOUS
10
9.807878
20
46.615149
30
0.0
11
9.829488
21
46.584463
31
0.0
0
LINE
8
0
6
CONTINUOUS
10
10.439748
20
47.204451
30
0.0
11
10.447259
21
47.209738
31
0.0
0
LINE
8
0
6
CONTINUOUS
10
10.439748
20
47.204451
30
0.0
11
10.406846
21
47.251171
31
0.0
0
LINE
8
0
6
CONTINUOUS
10
10.285741
20
47.095984
30
0.0
11
10.439748
21
47.204451
31
0.0
0
LINE
8
0
6
CONTINUOUS
10
10.285741
20
47.095984
30
0.0
11
10.254194
21
47.140781
31
0.0
0
LINE
8
0
6
CONTINUOUS
10
10.139237
20
46.992811
30
0.0
11
10.285741
21
47.095984
31
0.0
0
LINE
8
0
6
CONTINUOUS
10
10.111354
20
47.032405
30
0.0
11
10.139237
21
46.992811
31
0.0
0
LINE
8
0
6
CONTINUOUS
10
10.452378
20
47.045653
30
0.0
11
10.394264
21
47.128174
31
0.0
0
LINE
8
0
6
CONTINUOUS
10
10.318723
20
46.951529
30
0.0
11
10.452378
21
47.045653
31
0.0
0
LINE
8
0
6
CONTINUOUS
10
10.318723
20
46.951529
30
0.0
11
10.267701
21
47.023980
31
0.0
0
LINE
8
0
6
CONTINUOUS
10
10.155866
20
46.836844
30
0.0
11
10.318723
21
46.951529
31
0.0
0
LINE
8
0
6
CONTINUOUS
10
10.155866
20
46.836844
30
0.0
11
10.134718
21
46.866875
31
0.0
0
LINE
8
0
6
CONTINUOUS
10
10.126668
20
46.816275
30
0.0
11
10.155866
21
46.836844
31
0.0
0
LINE
8
0
6
CONTINUOUS
10
7.285771
20
44.550047
30
0.0
11
7.233015
21
44.624961
31
0.0
0
LINE
8
0
6
CONTINUOUS
10
7.173703
20
44.471121
30
0.0
11
7.285771
21
44.550047
31
0.0
0
LINE
8
0
6
CONTINUOUS
10
7.173703
20
44.471121
30
0.0
11
7.120945
21
44.546037
31
0.0
0
LINE
8
0
6
CONTINUOUS
10
7.002778
20
44.350752
30
0.0
11
7.173703
21
44.471121
31
0.0
0
LINE
8
0
6
CONTINUOUS
10
7.002778
20
44.350752
30
0.0
11
6.950021
21
44.425665
31
0.0
0
LINE
8
0
6
CONTINUOUS
10
6.943921
20
44.309302
30
0.0
11
7.002778
21
44.350752
31
0.0
0
LINE
8
0
6
CONTINUOUS
10
6.889090
20
44.387162
30
0.0
11
6.943921
21
44.309302
31
0.0
0
LINE
8
0
6
CONTINUOUS
10
7.483460
20
44.808325
30
0.0
11
7.418099
21
44.901135
31
0.0
0
LINE
8
0
6
CONTINUOUS
10
7.371392
20
44.729407
30
0.0
11
7.483460
21
44.808325
31
0.0
0
LINE
8
0
6
CONTINUOUS
10
7.371392
20
44.729407
30
0.0
11
7.339328
21
44.774937
31
0.0
0
LINE
8
0
6
CONTINUOUS
10
7.200467
20
44.609030
30
0.0
11
7.371392
21
44.729407
31
0.0
0
LINE
8
0
6
CONTINUOUS
10
7.200467
20
44.609030
30
0.0
11
7.108685
21
44.739360
31
0.0
0
LINE
8
0
6
CONTINUOUS
10
7.141606
20
44.567579
30
0.0
11
7.200467
21
44.609030
31
0.0
0
LINE
8
0
6
CONTINUOUS
10
7.093733
20
44.635557
30
0.0
11
7.141606
21
44.567579
31
0.0
0
LINE
8
0
6
CONTINUOUS
10
7.671834
20
45.079817
30
0.0
11
7.640655
21
45.124090
31
0.0
0
LINE
8
0
6
CONTINUOUS
10
7.559766
20
45.000906
30
0.0
11
7.671834
21
45.079817
31
0.0
0
LINE
8
0
6
CONTINUOUS
10
7.559766
20
45.000906
30
0.0
11
7.529585
21
45.043763
31
0.0
0
LINE
8
0
6
CONTINUOUS
10
7.388841
20
44.880530
30
0.0
11
7.559766
21
45.000906
31
0.0
0
LINE
8
0
6
CONTINUOUS
10
7.388841
20
44.880530
30
0.0
11
7.360171
21
44.921241
31
0.0
0
LINE
8
0
6
CONTINUOUS
10
7.329984
20
44.839071
30
0.0
11
7.388841
21
44.880530
31
0.0
0
LINE
8
0
6
CONTINUOUS
10
7.281523
20
44.907885
30
0.0
11
7.329984
21
44.839071
31
0.0
0
LINE
8
0
6
CONTINUOUS
10
7.850350
20
45.365317
30
0.0
11
7.833090
21
45.389826
31
0.0
0
LINE
8
0
6
CONTINUOUS
10
7.738282
20
45.286391
30
0.0
11
7.850350
21
45.365317
31
0.0
0
LINE
8
0
6
CONTINUOUS
10
7.738282
20
45.286391
30
0.0
11
7.722014
21
45.309492
31
0.0
0
LINE
8
0
6
CONTINUOUS
10
7.567357
20
45.166022
30
0.0
11
7.738282
21
45.286391
31
0.0
0
LINE
8
0
6
CONTINUOUS
10
7.567357
20
45.166022
30
0.0
11
7.552604
21
45.186972
31
0.0
0
LINE
8
0
6
CONTINUOUS
10
7.508500
20
45.124571
30
0.0
11
7.567357
21
45.166022
31
0.0
0
LINE
8
0
6
CONTINUOUS
10
7.462508
20
45.189880
30
0.0
11
7.508500
21
45.124571
31
0.0
0
LINE
8
0
6
CONTINUOUS
10
4.364491
20
43.038345
30
0.0
11
4.476560
21
43.117271
31
0.0
0
LINE
8
0
6
CONTINUOUS
10
4.193567
20
42.917976
30
0.0
11
4.364491
21
43.038345
31
0.0
0
LINE
8
0
6
CONTINUOUS
10
4.134708
20
42.876525
30
0.0
11
4.193567
21
42.917976
31
0.0
0
LINE
8
0
6
CONTINUOUS
10
4.062951
20
42.978419
30
0.0
11
4.134708
21
42.876525
31
0.0
0
LINE
8
0
6
CONTINUOUS
10
5.215255
20
43.423789
30
0.0
11
5.181282
21
43.472031
31
0.0
0
LINE
8
0
6
CONTINUOUS
10
5.103187
20
43.344863
30
0.0
11
5.215255
21
43.423789
31
0.0
0
LINE
8
0
6
CONTINUOUS
10
5.103187
20
43.344863
30
0.0
11
5.070207
21
43.391694
31
0.0
0
LINE
8
0
6
CONTINUOUS
10
4.932261
20
43.224494
30
0.0
11
5.103187
21
43.344863
31
0.0
0
LINE
8
0
6
CONTINUOUS
10
4.873403
20
43.183044
30
0.0
11
4.932261
21
43.224494
31
0.0
0
LINE
8
0
6
CONTINUOUS
10
4.793581
20
43.296391
30
0.0
11
4.873403
21
43.183044
31
0.0
0
LINE
8
0
6
CONTINUOUS
10
5.914302
20
43.786605
30
0.0
11
5.872782
21
43.845562
31
0.0
0
LINE
8
0
6
CONTINUOUS
10
5.802236
20
43.707679
30
0.0
11
5.914302
21
43.786605
31
0.0
0
LINE
8
0
6
CONTINUOUS
10
5.802236
20
43.707679
30
0.0
11
5.761705
21
43.765233
31
0.0
0
LINE
8
0
6
CONTINUOUS
10
5.631309
20
43.587310
30
0.0
11
5.802236
21
43.707679
31
0.0
0
LINE
8
0
6
CONTINUOUS
10
6.603627
20
44.163229
30
0.0
11
6.559567
21
44.225794
31
0.0
0
LINE
8
0
6
CONTINUOUS
10
6.491559
20
44.084303
30
0.0
11
6.603627
21
44.163229
31
0.0
0
LINE
8
0
6
CONTINUOUS
10
6.491559
20
44.084303
30
0.0
11
6.415431
21
44.192404
31
0.0
0
LINE
8
0
6
CONTINUOUS
10
6.320634
20
43.963934
30
0.0
11
6.491559
21
44.084303
31
0.0
0
LINE
8
0
6
CONTINUOUS
10
6.320634
20
43.963934
30
0.0
11
6.224744
21
44.100095
31
0.0
0
LINE
8
0
6
CONTINUOUS
10
6.261777
20
43.922485
30
0.0
11
6.320634
21
43.963934
31
0.0
0
LINE
8
0
6
CONTINUOUS
10
6.198440
20
44.012422
30
0.0
11
6.261777
21
43.922485
31
0.0
0
LINE
8
0
6
CONTINUOUS
10
6.538117
20
44.450781
30
0.0
11
6.709043
21
44.571150
31
0.0
0
LINE
8
0
6
CONTINUOUS
10
6.767900
20
44.612601
30
0.0
11
6.726239
21
44.671760
31
0.0
0
LINE
8
0
6
CONTINUOUS
10
6.709043
20
44.571150
30
0.0
11
6.767900
21
44.612601
31
0.0
0
LINE
8
0
6
CONTINUOUS
10
6.638560
20
44.671236
30
0.0
11
6.709043
21
44.571150
31
0.0
0
LINE
8
0
6
CONTINUOUS
10
6.294946
20
44.118422
30
0.0
11
6.407010
21
44.197348
31
0.0
0
LINE
8
0
6
CONTINUOUS
10
6.407010
20
44.197348
30
0.0
11
6.577935
21
44.317717
31
0.0
0
LINE
8
0
6
CONTINUOUS
10
6.577935
20
44.317717
30
0.0
11
6.636796
21
44.359167
31
0.0
0
LINE
8
0
6
CONTINUOUS
10
5.623130
20
43.796241
30
0.0
11
5.794055
21
43.916610
31
0.0
0
LINE
8
0
6
CONTINUOUS
10
5.852912
20
43.958060
30
0.0
11
5.815048
21
44.011826
31
0.0
0
LINE
8
0
6
CONTINUOUS
10
5.794055
20
43.916610
30
0.0
11
5.852912
21
43.958060
31
0.0
0
LINE
8
0
6
CONTINUOUS
10
5.731777
20
44.005044
30
0.0
11
5.794055
21
43.916610
31
0.0
0
LINE
8
0
6
CONTINUOUS
10
4.761060
20
43.365798
30
0.0
11
4.873126
21
43.444724
31
0.0
0
LINE
8
0
6
CONTINUOUS
10
4.671597
20
43.492834
30
0.0
11
4.761060
21
43.365798
31
0.0
0
LINE
8
0
6
CONTINUOUS
10
4.873126
20
43.444724
30
0.0
11
5.044051
21
43.565101
31
0.0
0
LINE
8
0
6
CONTINUOUS
10
4.776900
20
43.581364
30
0.0
11
4.873126
21
43.444724
31
0.0
0
LINE
8
0
6
CONTINUOUS
10
5.102910
20
43.606544
30
0.0
11
5.071855
21
43.650642
31
0.0
0
LINE
8
0
6
CONTINUOUS
10
5.044051
20
43.565101
30
0.0
11
5.102910
21
43.606544
31
0.0
0
LINE
8
0
6
CONTINUOUS
10
4.975786
20
43.662035
30
0.0
11
5.044051
21
43.565101
31
0.0
0
LINE
8
0
6
CONTINUOUS
10
5.548881
20
44.005530
30
0.0
11
5.660947
21
44.084448
31
0.0
0
LINE
8
0
6
CONTINUOUS
10
5.471263
20
44.115747
30
0.0
11
5.548881
21
44.005530
31
0.0
0
LINE
8
0
6
CONTINUOUS
10
5.660947
20
44.084448
30
0.0
11
5.831872
21
44.204825
31
0.0
0
LINE
8
0
6
CONTINUOUS
10
5.570802
20
44.212454
30
0.0
11
5.660947
21
44.084448
31
0.0
0
LINE
8
0
6
CONTINUOUS
10
5.890731
20
44.246275
30
0.0
11
5.857810
21
44.293022
31
0.0
0
LINE
8
0
6
CONTINUOUS
10
5.831872
20
44.204825
30
0.0
11
5.890731
21
44.246275
31
0.0
0
LINE
8
0
6
CONTINUOUS
10
5.764078
20
44.301092
30
0.0
11
5.831872
21
44.204825
31
0.0
0
LINE
8
0
6
CONTINUOUS
10
7.251740
20
44.455916
30
0.0
11
7.218197
21
44.503546
31
0.0
0
LINE
8
0
6
CONTINUOUS
10
7.139672
20
44.376990
30
0.0
11
7.251740
21
44.455916
31
0.0
0
LINE
8
0
6
CONTINUOUS
10
7.139672
20
44.376990
30
0.0
11
7.106641
21
44.423894
31
0.0
0
LINE
8
0
6
CONTINUOUS
10
6.968747
20
44.256613
30
0.0
11
7.139672
21
44.376990
31
0.0
0
LINE
8
0
6
CONTINUOUS
10
4.800931
20
43.106536
30
0.0
11
4.783971
21
43.130620
31
0.0
0
LINE
8
0
6
CONTINUOUS
10
4.688865
20
43.027610
30
0.0
11
4.800931
21
43.106536
31
0.0
0
LINE
8
0
6
CONTINUOUS
10
4.688865
20
43.027610
30
0.0
11
4.658162
21
43.071209
31
0.0
0
LINE
8
0
6
CONTINUOUS
10
4.517940
20
42.907241
30
0.0
11
4.688865
21
43.027610
31
0.0
0
LINE
8
0
6
CONTINUOUS
10
4.517940
20
42.907241
30
0.0
11
4.436079
21
43.023481
31
0.0
0
LINE
8
0
6
CONTINUOUS
10
4.459081
20
42.865791
30
0.0
11
4.517940
21
42.907241
31
0.0
0
LINE
8
0
6
CONTINUOUS
10
4.378692
20
42.979943
30
0.0
11
4.459081
21
42.865791
31
0.0
0
LINE
8
0
6
CONTINUOUS
10
5.433673
20
43.415427
30
0.0
11
5.381149
21
43.490010
31
0.0
0
LINE
8
0
6
CONTINUOUS
10
5.321605
20
43.336501
30
0.0
11
5.433673
21
43.415427
31
0.0
0
LINE
8
0
6
CONTINUOUS
10
5.321605
20
43.336501
30
0.0
11
5.270073
21
43.409676
31
0.0
0
LINE
8
0
6
CONTINUOUS
10
5.150678
20
43.216132
30
0.0
11
5.321605
21
43.336501
31
0.0
0
LINE
8
0
6
CONTINUOUS
10
5.150678
20
43.216132
30
0.0
11
5.098426
21
43.290329
31
0.0
0
LINE
8
0
6
CONTINUOUS
10
5.091821
20
43.174682
30
0.0
11
5.150678
21
43.216132
31
0.0
0
LINE
8
0
6
CONTINUOUS
10
5.018460
20
43.278854
30
0.0
11
5.091821
21
43.174682
31
0.0
0
LINE
8
0
6
CONTINUOUS
10
6.042077
20
43.758872
30
0.0
11
6.015787
21
43.796203
31
0.0
0
LINE
8
0
6
CONTINUOUS
10
5.930009
20
43.679946
30
0.0
11
6.042077
21
43.758872
31
0.0
0
LINE
8
0
6
CONTINUOUS
10
5.930009
20
43.679946
30
0.0
11
5.896044
21
43.728177
31
0.0
0
LINE
8
0
6
CONTINUOUS
10
5.759084
20
43.559570
30
0.0
11
5.930009
21
43.679946
31
0.0
0
LINE
8
0
6
CONTINUOUS
10
5.759084
20
43.559570
30
0.0
11
5.703665
21
43.638264
31
0.0
0
LINE
8
0
6
CONTINUOUS
10
5.700227
20
43.518127
30
0.0
11
5.759084
21
43.559570
31
0.0
0
LINE
8
0
6
CONTINUOUS
10
5.636978
20
43.607938
30
0.0
11
5.700227
21
43.518127
31
0.0
0
LINE
8
0
6
CONTINUOUS
10
6.646283
20
44.108275
30
0.0
11
6.597566
21
44.177453
31
0.0
0
LINE
8
0
6
CONTINUOUS
10
6.534215
20
44.029356
30
0.0
11
6.646283
21
44.108275
31
0.0
0
LINE
8
0
6
CONTINUOUS
10
6.534215
20
44.029356
30
0.0
11
6.497771
21
44.081106
31
0.0
0
LINE
8
0
6
CONTINUOUS
10
6.363294
20
43.908988
30
0.0
11
6.534215
21
44.029356
31
0.0
0
LINE
8
0
6
CONTINUOUS
10
6.319329
20
43.971416
30
0.0
11
6.363294
21
43.908988
31
0.0
0
LINE
8
0
6
CONTINUOUS
10
6.588758
20
44.064940
30
0.0
11
6.647614
21
44.106383
31
0.0
0
LINE
8
0
6
CONTINUOUS
10
6.417829
20
43.944563
30
0.0
11
6.588758
21
44.064940
31
0.0
0
LINE
8
0
6
CONTINUOUS
10
5.983790
20
43.716605
30
0.0
11
6.042649
21
43.758056
31
0.0
0
LINE
8
0
6
CONTINUOUS
10
5.812865
20
43.596236
30
0.0
11
5.983790
21
43.716605
31
0.0
0
LINE
8
0
6
CONTINUOUS
10
4.750091
20
43.053703
30
0.0
11
4.808949
21
43.095145
31
0.0
0
LINE
8
0
6
CONTINUOUS
10
4.467099
20
42.854400
30
0.0
11
4.579165
21
42.933326
31
0.0
0
LINE
8
0
6
CONTINUOUS
10
4.579165
20
42.933326
30
0.0
11
4.750091
21
43.053703
31
0.0
0
LINE
8
0
6
CONTINUOUS
10
4.571148
20
42.944711
30
0.0
11
4.579165
21
42.933326
31
0.0
0
LINE
8
0
6
CONTINUOUS
10
7.194150
20
44.412657
30
0.0
11
7.253011
21
44.454107
31
0.0
0
LINE
8
0
6
CONTINUOUS
10
6.911157
20
44.213362
30
0.0
11
7.023225
21
44.292288
31
0.0
0
LINE
8
0
6
CONTINUOUS
10
7.289323
20
44.545004
30
0.0
11
7.285371
21
44.550616
31
0.0
0
LINE
8
0
6
CONTINUOUS
10
7.230466
20
44.503561
30
0.0
11
7.289323
21
44.545004
31
0.0
0
LINE
8
0
6
CONTINUOUS
10
7.230466
20
44.503561
30
0.0
11
7.226420
21
44.509307
31
0.0
0
LINE
8
0
6
CONTINUOUS
10
7.222256
20
44.497779
30
0.0
11
7.230466
21
44.503561
31
0.0
0
LINE
8
0
6
CONTINUOUS
10
9.993260
20
46.695006
30
0.0
11
10.139760
21
46.798178
31
0.0
0
LINE
8
0
6
CONTINUOUS
10
9.839250
20
46.586546
30
0.0
11
9.993260
21
46.695006
31
0.0
0
LINE
8
0
6
CONTINUOUS
10
9.653275
20
46.329581
30
0.0
11
9.799779
21
46.432753
31
0.0
0
LINE
8
0
6
CONTINUOUS
10
9.491757
20
46.215834
30
0.0
11
9.499265
21
46.221121
31
0.0
0
LINE
8
0
6
CONTINUOUS
10
9.499265
20
46.221121
30
0.0
11
9.653275
21
46.329581
31
0.0
0
LINE
8
0
6
CONTINUOUS
10
9.140901
20
45.881804
30
0.0
11
9.294911
21
45.990256
31
0.0
0
LINE
8
0
6
CONTINUOUS
10
9.105389
20
45.932230
30
0.0
11
9.140901
21
45.881804
31
0.0
0
LINE
8
0
6
CONTINUOUS
10
8.970624
20
45.762472
30
0.0
11
9.094205
21
45.849501
31
0.0
0
LINE
8
0
6
CONTINUOUS
10
8.803170
20
45.644545
30
0.0
11
8.970624
21
45.762472
31
0.0
0
LINE
8
0
6
CONTINUOUS
10
8.699521
20
45.496451
30
0.0
11
8.823098
21
45.583479
31
0.0
0
LINE
8
0
6
CONTINUOUS
10
8.488187
20
45.347616
30
0.0
11
8.532067
21
45.378523
31
0.0
0
LINE
8
0
6
CONTINUOUS
10
8.532067
20
45.378523
30
0.0
11
8.699521
21
45.496451
31
0.0
0
LINE
8
0
6
CONTINUOUS
10
7.975179
20
44.986197
30
0.0
11
8.070287
21
45.053183
31
0.0
0
LINE
8
0
6
CONTINUOUS
10
7.801785
20
44.864088
30
0.0
11
7.975179
21
44.986197
31
0.0
0
LINE
8
0
6
CONTINUOUS
10
11.219960
20
47.920523
30
0.0
11
11.217604
21
47.923869
31
0.0
0
LINE
8
0
6
CONTINUOUS
10
11.190759
20
47.899962
30
0.0
11
11.219960
21
47.920523
31
0.0
0
LINE
8
0
6
CONTINUOUS
10
11.190759
20
47.899962
30
0.0
11
11.188405
21
47.903305
31
0.0
0
LINE
8
0
6
CONTINUOUS
10
11.027902
20
47.785269
30
0.0
11
11.190759
21
47.899962
31
0.0
0
LINE
8
0
6
CONTINUOUS
10
6.305764
20
43.865646
30
0.0
11
6.417829
21
43.944563
31
0.0
0
LINE
8
0
6
CONTINUOUS
10
6.885076
20
44.959089
30
0.0
11
6.848087
21
45.011612
31
0.0
0
LINE
8
0
6
CONTINUOUS
10
6.826219
20
44.917639
30
0.0
11
6.885076
21
44.959089
31
0.0
0
LINE
8
0
6
CONTINUOUS
10
6.756659
20
45.016414
30
0.0
11
6.826219
21
44.917639
31
0.0
0
LINE
8
0
6
CONTINUOUS
10
11.413026
20
48.083159
30
0.0
11
11.346843
21
48.177138
31
0.0
0
LINE
8
0
6
CONTINUOUS
10
11.375115
20
48.056463
30
0.0
11
11.413026
21
48.083159
31
0.0
0
LINE
8
0
6
CONTINUOUS
10
11.312517
20
48.145352
30
0.0
11
11.375115
21
48.056463
31
0.0
0
LINE
8
0
6
CONTINUOUS
10
10.599454
20
47.498717
30
0.0
11
10.750334
21
47.604971
31
0.0
0
LINE
8
0
6
CONTINUOUS
10
10.452950
20
47.395544
30
0.0
11
10.599454
21
47.498717
31
0.0
0
LINE
8
0
6
CONTINUOUS
10
10.435020
20
47.421005
30
0.0
11
10.452950
21
47.395544
31
0.0
0
LINE
8
0
6
CONTINUOUS
10
8.054147
20
45.107855
30
0.0
11
8.009245
21
45.171615
31
0.0
0
LINE
8
0
6
CONTINUOUS
10
7.959035
20
45.040869
30
0.0
11
8.054147
21
45.107855
31
0.0
0
LINE
8
0
6
CONTINUOUS
10
7.907993
20
45.113349
30
0.0
11
7.959035
21
45.040869
31
0.0
0
LINE
8
0
6
CONTINUOUS
10
9.092099
20
45.852492
30
0.0
11
9.053636
21
45.907109
31
0.0
0
LINE
8
0
6
CONTINUOUS
10
9.048219
20
45.821593
30
0.0
11
9.092099
21
45.852492
31
0.0
0
LINE
8
0
6
CONTINUOUS
10
9.048219
20
45.821593
30
0.0
11
9.009757
21
45.876209
31
0.0
0
LINE
8
0
6
CONTINUOUS
10
8.880761
20
45.703665
30
0.0
11
9.048219
21
45.821593
31
0.0
0
LINE
8
0
6
CONTINUOUS
10
8.836806
20
45.766080
30
0.0
11
8.880761
21
45.703665
31
0.0
0
LINE
8
0
6
CONTINUOUS
10
9.798425
20
46.434675
30
0.0
11
9.759840
21
46.489465
31
0.0
0
LINE
8
0
6
CONTINUOUS
10
9.790917
20
46.429396
30
0.0
11
9.798425
21
46.434675
31
0.0
0
LINE
8
0
6
CONTINUOUS
10
9.790917
20
46.429396
30
0.0
11
9.752909
21
46.483367
31
0.0
0
LINE
8
0
6
CONTINUOUS
10
9.636907
20
46.320929
30
0.0
11
9.790917
21
46.429396
31
0.0
0
LINE
8
0
6
CONTINUOUS
10
9.591373
20
46.385587
30
0.0
11
9.636907
21
46.320929
31
0.0
0
LINE
8
0
6
CONTINUOUS
10
10.842862
20
47.473585
30
0.0
11
10.799093
21
47.535737
31
0.0
0
LINE
8
0
6
CONTINUOUS
10
10.709207
20
47.379462
30
0.0
11
10.842862
21
47.473584
31
0.0
0
LINE
8
0
6
CONTINUOUS
10
10.709207
20
47.379462
30
0.0
11
10.682100
21
47.417954
31
0.0
0
LINE
8
0
6
CONTINUOUS
10
10.546350
20
47.264769
30
0.0
11
10.709207
21
47.379462
31
0.0
0
LINE
8
0
6
CONTINUOUS
10
10.546350
20
47.264769
30
0.0
11
10.539543
21
47.274435
31
0.0
0
LINE
8
0
6
CONTINUOUS
10
10.517148
20
47.244208
30
0.0
11
10.546350
21
47.264769
31
0.0
0
LINE
8
0
6
CONTINUOUS
10
10.500500
20
47.267849
30
0.0
11
10.517148
21
47.244208
31
0.0
0
LINE
8
0
6
CONTINUOUS
10
5.631309
20
43.587310
30
0.0
11
5.592295
21
43.642710
31
0.0
0
LINE
8
0
6
CONTINUOUS
10
5.572452
20
43.545860
30
0.0
11
5.631309
21
43.587310
31
0.0
0
LINE
8
0
6
CONTINUOUS
10
5.509592
20
43.635120
30
0.0
11
5.572452
21
43.545860
31
0.0
0
LINE
8
0
6
CONTINUOUS
10
6.538117
20
44.450781
30
0.0
11
6.454592
21
44.569386
31
0.0
0
LINE
8
0
6
CONTINUOUS
10
6.426049
20
44.371855
30
0.0
11
6.538117
21
44.450781
31
0.0
0
LINE
8
0
6
CONTINUOUS
10
6.360332
20
44.465172
30
0.0
11
6.426049
21
44.371855
31
0.0
0
LINE
8
0
6
CONTINUOUS
10
5.623130
20
43.796241
30
0.0
11
5.542409
21
43.910863
31
0.0
0
LINE
8
0
6
CONTINUOUS
10
5.511062
20
43.717323
30
0.0
11
5.623130
21
43.796241
31
0.0
0
LINE
8
0
6
CONTINUOUS
10
5.435002
20
43.825328
30
0.0
11
5.511062
21
43.717323
31
0.0
0
LINE
8
0
6
CONTINUOUS
10
6.968747
20
44.256613
30
0.0
11
6.923852
21
44.320364
31
0.0
0
LINE
8
0
6
CONTINUOUS
10
6.909890
20
44.215170
30
0.0
11
6.968747
21
44.256613
31
0.0
0
LINE
8
0
6
CONTINUOUS
10
6.847580
20
44.303648
30
0.0
11
6.909890
21
44.215170
31
0.0
0
LINE
8
0
6
CONTINUOUS
10
7.023225
20
44.292288
30
0.0
11
7.194150
21
44.412657
31
0.0
0
LINE
8
0
6
CONTINUOUS
10
10.814992
20
47.451132
30
0.0
11
10.844193
21
47.471693
31
0.0
0
LINE
8
0
6
CONTINUOUS
10
10.652135
20
47.336439
30
0.0
11
10.814992
21
47.451132
31
0.0
0
LINE
8
0
6
CONTINUOUS
10
10.518479
20
47.242316
30
0.0
11
10.652135
21
47.336439
31
0.0
0
LINE
8
0
6
CONTINUOUS
10
9.441415
20
46.093428
30
0.0
11
9.388553
21
46.168491
31
0.0
0
LINE
8
0
6
CONTINUOUS
10
9.294911
20
45.990256
30
0.0
11
9.441415
21
46.093428
31
0.0
0
LINE
8
0
6
CONTINUOUS
10
9.252310
20
46.050750
30
0.0
11
9.294911
21
45.990256
31
0.0
0
LINE
8
0
6
CONTINUOUS
10
7.723504
20
44.808958
30
0.0
11
7.801785
21
44.864088
31
0.0
0
LINE
8
0
6
CONTINUOUS
10
10.491471
20
47.185805
30
0.0
11
10.499526
21
47.235946
31
0.0
0
LINE
8
0
6
CONTINUOUS
10
10.466176
20
47.167517
30
0.0
11
10.491471
21
47.185805
31
0.0
0
LINE
8
0
6
CONTINUOUS
10
10.392488
20
47.114226
30
0.0
11
10.466176
21
47.167517
31
0.0
0
LINE
8
0
6
CONTINUOUS
10
10.273721
20
47.028334
30
0.0
11
10.392488
21
47.114226
31
0.0
0
LINE
8
0
6
CONTINUOUS
10
10.113172
20
46.912222
30
0.0
11
10.273721
21
47.028334
31
0.0
0
LINE
8
0
6
CONTINUOUS
10
9.914155
20
46.768286
30
0.0
11
10.113172
21
46.912222
31
0.0
0
LINE
8
0
6
CONTINUOUS
10
9.679967
20
46.598921
30
0.0
11
9.914155
21
46.768286
31
0.0
0
LINE
8
0
6
CONTINUOUS
10
9.413915
20
46.406515
30
0.0
11
9.679967
21
46.598921
31
0.0
0
LINE
8
0
6
CONTINUOUS
10
9.119302
20
46.193449
30
0.0
11
9.413915
21
46.406515
31
0.0
0
LINE
8
0
6
CONTINUOUS
10
8.799439
20
45.962118
30
0.0
11
9.119302
21
46.193449
31
0.0
0
LINE
8
0
6
CONTINUOUS
10
8.546514
20
45.905776
30
0.0
11
8.419538
21
45.813948
31
0.0
0
LINE
8
0
6
CONTINUOUS
10
8.457627
20
45.714926
30
0.0
11
8.799439
21
45.962118
31
0.0
0
LINE
8
0
6
CONTINUOUS
10
8.419538
20
45.813948
30
0.0
11
8.048211
21
45.545408
31
0.0
0
LINE
8
0
6
CONTINUOUS
10
8.097173
20
45.454245
30
0.0
11
8.457627
21
45.714926
31
0.0
0
LINE
8
0
6
CONTINUOUS
10
8.048211
20
45.545408
30
0.0
11
7.833169
21
45.389883
31
0.0
0
LINE
8
0
6
CONTINUOUS
10
7.721379
20
45.182471
30
0.0
11
8.097173
21
45.454245
31
0.0
0
LINE
8
0
6
CONTINUOUS
10
7.494268
20
45.144784
30
0.0
11
7.274350
21
44.985739
31
0.0
0
LINE
8
0
6
CONTINUOUS
10
7.345590
20
44.910696
30
0.0
11
7.721379
21
45.182471
31
0.0
0
LINE
8
0
6
CONTINUOUS
10
7.274350
20
44.985739
30
0.0
11
6.903024
21
44.717192
31
0.0
0
LINE
8
0
6
CONTINUOUS
10
6.985135
20
44.650007
30
0.0
11
7.345590
21
44.910696
31
0.0
0
LINE
8
0
6
CONTINUOUS
10
6.903024
20
44.717192
30
0.0
11
6.764695
21
44.617153
31
0.0
0
LINE
8
0
6
CONTINUOUS
10
6.643323
20
44.402823
30
0.0
11
6.985135
21
44.650007
31
0.0
0
LINE
8
0
6
CONTINUOUS
10
6.425868
20
44.372113
30
0.0
11
6.221372
21
44.224219
31
0.0
0
LINE
8
0
6
CONTINUOUS
10
6.323457
20
44.171484
30
0.0
11
6.643323
21
44.402823
31
0.0
0
LINE
8
0
6
CONTINUOUS
10
6.221372
20
44.224219
30
0.0
11
5.917932
21
44.004774
31
0.0
0
LINE
8
0
6
CONTINUOUS
10
6.028848
20
43.958426
30
0.0
11
6.323457
21
44.171484
31
0.0
0
LINE
8
0
6
CONTINUOUS
10
5.917932
20
44.004774
30
0.0
11
5.853060
21
43.957860
31
0.0
0
LINE
8
0
6
CONTINUOUS
10
5.813729
20
43.929417
30
0.0
11
5.643933
21
43.806625
31
0.0
0
LINE
8
0
6
CONTINUOUS
10
5.762794
20
43.766021
30
0.0
11
6.028848
21
43.958426
31
0.0
0
LINE
8
0
6
CONTINUOUS
10
5.643933
20
43.806625
30
0.0
11
5.402751
21
43.632201
31
0.0
0
LINE
8
0
6
CONTINUOUS
10
5.528605
20
43.596648
30
0.0
11
5.762794
21
43.766021
31
0.0
0
LINE
8
0
6
CONTINUOUS
10
5.402751
20
43.632201
30
0.0
11
5.322092
21
43.573867
31
0.0
0
LINE
8
0
6
CONTINUOUS
10
5.329585
20
43.452720
30
0.0
11
5.528605
21
43.596648
31
0.0
0
LINE
8
0
6
CONTINUOUS
10
5.169038
20
43.336601
30
0.0
11
5.329585
21
43.452720
31
0.0
0
LINE
8
0
6
CONTINUOUS
10
5.050269
20
43.250709
30
0.0
11
5.169038
21
43.336601
31
0.0
0
LINE
8
0
6
CONTINUOUS
10
4.976584
20
43.197425
30
0.0
11
5.050269
21
43.250709
31
0.0
0
LINE
8
0
6
CONTINUOUS
10
4.897071
20
43.187839
30
0.0
11
4.951287
21
43.179130
31
0.0
0
LINE
8
0
6
CONTINUOUS
10
4.951287
20
43.179130
30
0.0
11
4.976584
21
43.197425
31
0.0
0
LINE
8
0
6
CONTINUOUS
10
9.473187
20
46.202574
30
0.0
11
9.488420
21
46.213301
31
0.0
0
LINE
8
0
6
CONTINUOUS
10
9.428830
20
46.171332
30
0.0
11
9.473187
21
46.202574
31
0.0
0
LINE
8
0
6
CONTINUOUS
10
9.357331
20
46.120978
30
0.0
11
9.428830
21
46.171332
31
0.0
0
LINE
8
0
6
CONTINUOUS
10
9.260678
20
46.052916
30
0.0
11
9.357331
21
46.120978
31
0.0
0
LINE
8
0
6
CONTINUOUS
10
9.140862
20
45.968535
30
0.0
11
9.260678
21
46.052916
31
0.0
0
LINE
8
0
6
CONTINUOUS
10
8.999879
20
45.869253
30
0.0
11
9.140862
21
45.968535
31
0.0
0
LINE
8
0
6
CONTINUOUS
10
8.839711
20
45.756460
30
0.0
11
8.999879
21
45.869253
31
0.0
0
LINE
8
0
6
CONTINUOUS
10
8.662351
20
45.631560
30
0.0
11
8.839711
21
45.756460
31
0.0
0
LINE
8
0
6
CONTINUOUS
10
8.469789
20
45.495939
30
0.0
11
8.662351
21
45.631560
31
0.0
0
LINE
8
0
6
CONTINUOUS
10
8.264016
20
45.351034
30
0.0
11
8.469789
21
45.495939
31
0.0
0
LINE
8
0
6
CONTINUOUS
10
8.047017
20
45.198218
30
0.0
11
8.260920
21
45.348853
31
0.0
0
LINE
8
0
6
CONTINUOUS
10
7.820786
20
45.038885
30
0.0
11
8.047017
21
45.198218
31
0.0
0
LINE
8
0
6
CONTINUOUS
10
7.785428
20
45.089102
30
0.0
11
7.551660
21
44.924475
31
0.0
0
LINE
8
0
6
CONTINUOUS
10
7.594552
20
44.879568
30
0.0
11
7.820786
21
45.038885
31
0.0
0
LINE
8
0
6
CONTINUOUS
10
7.551660
20
44.924475
30
0.0
11
7.451393
21
44.853860
31
0.0
0
LINE
8
0
6
CONTINUOUS
10
7.377557
20
44.726752
30
0.0
11
7.594552
21
44.879568
31
0.0
0
LINE
8
0
6
CONTINUOUS
10
7.171781
20
44.581839
30
0.0
11
7.377557
21
44.726752
31
0.0
0
LINE
8
0
6
CONTINUOUS
10
6.979218
20
44.446226
30
0.0
11
7.171781
21
44.581839
31
0.0
0
LINE
8
0
6
CONTINUOUS
10
6.801858
20
44.321326
30
0.0
11
6.979218
21
44.446226
31
0.0
0
LINE
8
0
6
CONTINUOUS
10
6.641690
20
44.208525
30
0.0
11
6.801858
21
44.321326
31
0.0
0
LINE
8
0
6
CONTINUOUS
10
6.594922
20
44.175590
30
0.0
11
6.641690
21
44.208525
31
0.0
0
LINE
8
0
6
CONTINUOUS
10
6.212739
20
43.906440
30
0.0
11
6.284242
21
43.956801
31
0.0
0
LINE
8
0
6
CONTINUOUS
10
6.168382
20
43.875205
30
0.0
11
6.212739
21
43.906440
31
0.0
0
LINE
8
0
6
CONTINUOUS
10
6.134931
20
43.866608
30
0.0
11
6.153153
21
43.864486
31
0.0
0
LINE
8
0
6
CONTINUOUS
10
6.153153
20
43.864486
30
0.0
11
6.168382
21
43.875205
31
0.0
0
LINE
8
0
6
CONTINUOUS
10
6.655293
20
44.797270
30
0.0
11
6.543225
21
44.718344
31
0.0
0
LINE
8
0
6
CONTINUOUS
10
6.826219
20
44.917639
30
0.0
11
6.655293
21
44.797270
31
0.0
0
LINE
8
0
6
CONTINUOUS
10
6.885076
20
44.959089
30
0.0
11
6.826219
21
44.917639
31
0.0
0
LINE
8
0
6
CONTINUOUS
10
10.921094
20
47.715056
30
0.0
11
10.897879
21
47.698704
31
0.0
0
LINE
8
0
6
CONTINUOUS
10
11.083951
20
47.829741
30
0.0
11
10.921094
21
47.715056
31
0.0
0
LINE
8
0
6
CONTINUOUS
10
11.217607
20
47.923872
30
0.0
11
11.083951
21
47.829741
31
0.0
0
LINE
8
0
6
CONTINUOUS
10
8.830232
20
46.073256
30
0.0
11
8.656838
21
45.951147
31
0.0
0
LINE
8
0
6
CONTINUOUS
10
8.908513
20
46.128378
30
0.0
11
8.830232
21
46.073256
31
0.0
0
LINE
8
0
6
CONTINUOUS
10
8.656838
20
45.951147
30
0.0
11
8.561727
21
45.884169
31
0.0
0
LINE
8
0
6
CONTINUOUS
10
9.441415
20
46.093428
30
0.0
11
9.294911
21
45.990256
31
0.0
0
LINE
8
0
6
CONTINUOUS
10
9.294911
20
45.990256
30
0.0
11
9.140901
21
45.881804
31
0.0
0
LINE
8
0
6
CONTINUOUS
10
4.808949
20
43.095145
30
0.0
11
4.750091
21
43.053703
31
0.0
0
LINE
8
0
6
CONTINUOUS
10
4.579165
20
42.933326
30
0.0
11
4.467099
21
42.854400
31
0.0
0
LINE
8
0
6
CONTINUOUS
10
4.750091
20
43.053703
30
0.0
11
4.579165
21
42.933326
31
0.0
0
LINE
8
0
6
CONTINUOUS
10
7.671834
20
45.079817
30
0.0
11
7.559766
21
45.000906
31
0.0
0
LINE
8
0
6
CONTINUOUS
10
7.388841
20
44.880530
30
0.0
11
7.329984
21
44.839071
31
0.0
0
LINE
8
0
6
CONTINUOUS
10
7.559766
20
45.000906
30
0.0
11
7.388841
21
44.880530
31
0.0
0
LINE
8
0
6
CONTINUOUS
10
9.799779
20
46.432753
30
0.0
11
9.653275
21
46.329581
31
0.0
0
LINE
8
0
6
CONTINUOUS
10
9.499265
20
46.221121
30
0.0
11
9.491757
21
46.215834
31
0.0
0
LINE
8
0
6
CONTINUOUS
10
9.653275
20
46.329581
30
0.0
11
9.499265
21
46.221121
31
0.0
0
LINE
8
0
6
CONTINUOUS
10
7.289323
20
44.545004
30
0.0
11
7.230466
21
44.503561
31
0.0
0
LINE
8
0
6
CONTINUOUS
10
7.230466
20
44.503561
30
0.0
11
7.222258
21
44.497780
31
0.0
0
LINE
8
0
6
CONTINUOUS
10
9.790917
20
46.429396
30
0.0
11
9.636907
21
46.320929
31
0.0
0
LINE
8
0
6
CONTINUOUS
10
9.798425
20
46.434675
30
0.0
11
9.790917
21
46.429396
31
0.0
0
LINE
8
0
6
CONTINUOUS
10
9.636907
20
46.320929
30
0.0
11
9.490404
21
46.217756
31
0.0
0
LINE
8
0
6
CONTINUOUS
10
10.155866
20
46.836844
30
0.0
11
10.126668
21
46.816275
31
0.0
0
LINE
8
0
6
CONTINUOUS
10
10.318723
20
46.951529
30
0.0
11
10.155866
21
46.836844
31
0.0
0
LINE
8
0
6
CONTINUOUS
10
10.452378
20
47.045653
30
0.0
11
10.318723
21
46.951529
31
0.0
0
LINE
8
0
6
CONTINUOUS
10
8.305821
20
45.285094
30
0.0
11
8.227540
21
45.229964
31
0.0
0
LINE
8
0
6
CONTINUOUS
10
8.054147
20
45.107855
30
0.0
11
7.959035
21
45.040869
31
0.0
0
LINE
8
0
6
CONTINUOUS
10
8.227540
20
45.229964
30
0.0
11
8.054147
21
45.107855
31
0.0
0
LINE
8
0
6
CONTINUOUS
10
10.137506
20
46.801382
30
0.0
11
10.129998
21
46.796095
31
0.0
0
LINE
8
0
6
CONTINUOUS
10
9.975987
20
46.687636
30
0.0
11
9.829488
21
46.584463
31
0.0
0
LINE
8
0
6
CONTINUOUS
10
10.129998
20
46.796095
30
0.0
11
9.975987
21
46.687636
31
0.0
0
LINE
8
0
6
CONTINUOUS
10
7.801785
20
44.864088
30
0.0
11
7.723504
21
44.808958
31
0.0
0
LINE
8
0
6
CONTINUOUS
10
7.975179
20
44.986197
30
0.0
11
7.801785
21
44.864088
31
0.0
0
LINE
8
0
6
CONTINUOUS
10
8.070287
20
45.053183
30
0.0
11
7.975179
21
44.986197
31
0.0
0
LINE
8
0
6
CONTINUOUS
10
4.873126
20
43.444724
30
0.0
11
4.761060
21
43.365798
31
0.0
0
LINE
8
0
6
CONTINUOUS
10
5.044051
20
43.565101
30
0.0
11
4.873126
21
43.444724
31
0.0
0
LINE
8
0
6
CONTINUOUS
10
5.102910
20
43.606544
30
0.0
11
5.044051
21
43.565101
31
0.0
0
LINE
8
0
6
CONTINUOUS
10
4.800931
20
43.106536
30
0.0
11
4.688865
21
43.027610
31
0.0
0
LINE
8
0
6
CONTINUOUS
10
4.517940
20
42.907241
30
0.0
11
4.459081
21
42.865791
31
0.0
0
LINE
8
0
6
CONTINUOUS
10
4.688865
20
43.027610
30
0.0
11
4.517940
21
42.907241
31
0.0
0
LINE
8
0
6
CONTINUOUS
10
8.990582
20
46.411932
30
0.0
11
8.817189
21
46.289816
31
0.0
0
LINE
8
0
6
CONTINUOUS
10
9.068864
20
46.467055
30
0.0
11
8.990582
21
46.411932
31
0.0
0
LINE
8
0
6
CONTINUOUS
10
8.817189
20
46.289816
30
0.0
11
8.722081
21
46.222838
31
0.0
0
LINE
8
0
6
CONTINUOUS
10
9.387040
20
46.286726
30
0.0
11
9.263459
21
46.199698
31
0.0
0
LINE
8
0
6
CONTINUOUS
10
9.554498
20
46.404654
30
0.0
11
9.387040
21
46.286726
31
0.0
0
LINE
8
0
6
CONTINUOUS
10
9.598374
20
46.435553
30
0.0
11
9.554498
21
46.404654
31
0.0
0
LINE
8
0
6
CONTINUOUS
10
7.483460
20
44.808325
30
0.0
11
7.371392
21
44.729407
31
0.0
0
LINE
8
0
6
CONTINUOUS
10
7.200467
20
44.609030
30
0.0
11
7.141606
21
44.567579
31
0.0
0
LINE
8
0
6
CONTINUOUS
10
7.371392
20
44.729407
30
0.0
11
7.200467
21
44.609030
31
0.0
0
LINE
8
0
6
CONTINUOUS
10
8.880761
20
45.703665
30
0.0
11
8.757185
21
45.616636
31
0.0
0
LINE
8
0
6
CONTINUOUS
10
9.048219
20
45.821593
30
0.0
11
8.880761
21
45.703665
31
0.0
0
LINE
8
0
6
CONTINUOUS
10
9.092099
20
45.852492
30
0.0
11
9.048219
21
45.821593
31
0.0
0
LINE
8
0
6
CONTINUOUS
10
6.417829
20
43.944563
30
0.0
11
6.305764
21
43.865646
31
0.0
0
LINE
8
0
6
CONTINUOUS
10
6.588758
20
44.064940
30
0.0
11
6.417829
21
43.944563
31
0.0
0
LINE
8
0
6
CONTINUOUS
10
6.647614
20
44.106383
30
0.0
11
6.588758
21
44.064940
31
0.0
0
LINE
8
0
6
CONTINUOUS
10
6.042649
20
43.758056
30
0.0
11
5.983790
21
43.716605
31
0.0
0
LINE
8
0
6
CONTINUOUS
10
5.983790
20
43.716605
30
0.0
11
5.812865
21
43.596236
31
0.0
0
LINE
8
0
6
CONTINUOUS
10
5.150678
20
43.216132
30
0.0
11
5.091821
21
43.174682
31
0.0
0
LINE
8
0
6
CONTINUOUS
10
5.321605
20
43.336501
30
0.0
11
5.150678
21
43.216132
31
0.0
0
LINE
8
0
6
CONTINUOUS
10
5.433673
20
43.415427
30
0.0
11
5.321605
21
43.336501
31
0.0
0
LINE
8
0
6
CONTINUOUS
10
6.577935
20
44.317717
30
0.0
11
6.407010
21
44.197348
31
0.0
0
LINE
8
0
6
CONTINUOUS
10
6.636796
20
44.359167
30
0.0
11
6.577935
21
44.317717
31
0.0
0
LINE
8
0
6
CONTINUOUS
10
6.407010
20
44.197348
30
0.0
11
6.294946
21
44.118422
31
0.0
0
LINE
8
0
6
CONTINUOUS
10
10.760972
20
47.612463
30
0.0
11
10.753465
21
47.607176
31
0.0
0
LINE
8
0
6
CONTINUOUS
10
10.599454
20
47.498717
30
0.0
11
10.452954
21
47.395546
31
0.0
0
LINE
8
0
6
CONTINUOUS
10
10.753465
20
47.607176
30
0.0
11
10.599454
21
47.498717
31
0.0
0
LINE
8
0
6
CONTINUOUS
10
6.363294
20
43.908988
30
0.0
11
6.304433
21
43.867530
31
0.0
0
LINE
8
0
6
CONTINUOUS
10
6.534215
20
44.029356
30
0.0
11
6.363294
21
43.908988
31
0.0
0
LINE
8
0
6
CONTINUOUS
10
6.646283
20
44.108275
30
0.0
11
6.534215
21
44.029356
31
0.0
0
LINE
8
0
6
CONTINUOUS
10
7.253011
20
44.454107
30
0.0
11
7.194150
21
44.412657
31
0.0
0
LINE
8
0
6
CONTINUOUS
10
7.023225
20
44.292288
30
0.0
11
6.911157
21
44.213362
31
0.0
0
LINE
8
0
6
CONTINUOUS
10
7.194150
20
44.412657
30
0.0
11
7.023225
21
44.292288
31
0.0
0
LINE
8
0
6
CONTINUOUS
10
7.694493
20
45.524481
30
0.0
11
7.635636
21
45.483023
31
0.0
0
LINE
8
0
6
CONTINUOUS
10
7.865418
20
45.644850
30
0.0
11
7.694493
21
45.524481
31
0.0
0
LINE
8
0
6
CONTINUOUS
10
7.977487
20
45.723768
30
0.0
11
7.865418
21
45.644850
31
0.0
0
LINE
8
0
6
CONTINUOUS
10
-3.753720
20
30.767666
30
0.0
11
-3.749195
21
30.752095
31
0.0
0
LINE
8
0
6
CONTINUOUS
10
-3.759265
20
30.786303
30
0.0
11
-3.753720
21
30.767666
31
0.0
0
LINE
8
0
6
CONTINUOUS
10
-3.749195
20
30.752095
30
0.0
11
-3.733680
21
30.705790
31
0.0
0
LINE
8
0
6
CONTINUOUS
10
5.570802
20
44.212454
30
0.0
11
5.471263
21
44.115747
31
0.0
0
LINE
8
0
6
CONTINUOUS
10
6.404092
20
44.507889
30
0.0
11
6.362938
21
44.467908
31
0.0
0
LINE
8
0
6
CONTINUOUS
10
9.591373
20
46.385587
30
0.0
11
9.456543
21
46.265839
31
0.0
0
LINE
8
0
6
CONTINUOUS
10
6.756659
20
45.016414
30
0.0
11
6.571610
21
44.916097
31
0.0
0
LINE
8
0
6
CONTINUOUS
10
6.491694
20
44.826367
30
0.0
11
6.478483
21
44.810278
31
0.0
0
LINE
8
0
6
CONTINUOUS
10
6.454592
20
44.569386
30
0.0
11
6.404092
21
44.507889
31
0.0
0
LINE
8
0
6
CONTINUOUS
10
6.949052
20
44.466896
30
0.0
11
6.943431
21
44.463201
31
0.0
0
LINE
8
0
6
CONTINUOUS
10
6.943431
20
44.463201
30
0.0
11
6.761054
21
44.336562
31
0.0
0
LINE
8
0
6
CONTINUOUS
10
6.761054
20
44.336562
30
0.0
11
6.694232
21
44.287039
31
0.0
0
LINE
8
0
6
CONTINUOUS
10
8.156088
20
45.327432
30
0.0
11
8.023935
21
45.244276
31
0.0
0
LINE
8
0
6
CONTINUOUS
10
8.023935
20
45.244276
30
0.0
11
7.786139
21
45.088093
31
0.0
0
LINE
8
0
6
CONTINUOUS
10
7.116797
20
44.602808
30
0.0
11
6.949052
21
44.466896
31
0.0
0
LINE
8
0
6
CONTINUOUS
10
5.731777
20
44.005044
30
0.0
11
5.632349
21
43.953452
31
0.0
0
ENDSEC
0
EOF
