999
unknown String-ID: 20550
0
SECTION
2
HEADER
9
$ACADVER
1
AC1009
9
$DWGCODEPAGE
3
unknown String-ID: 20561
0
ENDSEC
0
SECTION
2
TABLES
0
TABLE
2
LAYER
70
1
0
LAYER
2
0
70
0
62
7
6
CONTINUOUS
0
ENDTAB
0
ENDSEC
0
SECTION
2
ENTITIES
0
LINE
8
0
6
CONTINUOUS
10
-16.545627
20
28.068033
30
0.0
11
-16.545627
21
28.212606
31
0.0
0
LINE
8
0
6
CONTINUOUS
10
-18.145626
20
28.068033
30
0.0
11
-18.145626
21
28.212602
31
0.0
0
LINE
8
0
6
CONTINUOUS
10
-16.545627
20
26.207273
30
0.0
11
-16.545627
21
28.068033
31
0.0
0
LINE
8
0
6
CONTINUOUS
10
-18.145626
20
26.207273
30
0.0
11
-18.145626
21
28.068033
31
0.0
0
LINE
8
0
6
CONTINUOUS
10
-16.545626
20
24.474782
30
0.0
11
-16.545627
21
26.207273
31
0.0
0
LINE
8
0
6
CONTINUOUS
10
-18.145626
20
24.474782
30
0.0
11
-18.145626
21
26.207273
31
0.0
0
LINE
8
0
6
CONTINUOUS
10
-16.545626
20
22.828821
30
0.0
11
-16.545626
21
24.474782
31
0.0
0
LINE
8
0
6
CONTINUOUS
10
-18.145626
20
22.828821
30
0.0
11
-18.145626
21
24.474782
31
0.0
0
LINE
8
0
6
CONTINUOUS
10
-16.545626
20
21.227651
30
0.0
11
-16.545626
21
22.828821
31
0.0
0
LINE
8
0
6
CONTINUOUS
10
-18.145626
20
21.227651
30
0.0
11
-18.145626
21
22.828821
31
0.0
0
LINE
8
0
6
CONTINUOUS
10
-16.545626
20
19.629533
30
0.0
11
-16.545626
21
21.227651
31
0.0
0
LINE
8
0
6
CONTINUOUS
10
-18.145626
20
19.629533
30
0.0
11
-18.145626
21
21.227651
31
0.0
0
LINE
8
0
6
CONTINUOUS
10
-16.545626
20
17.992731
30
0.0
11
-16.545626
21
19.629533
31
0.0
0
LINE
8
0
6
CONTINUOUS
10
-18.145626
20
17.992731
30
0.0
11
-18.145626
21
19.629533
31
0.0
0
LINE
8
0
6
CONTINUOUS
10
-16.545627
20
16.275503
30
0.0
11
-16.545626
21
17.992731
31
0.0
0
LINE
8
0
6
CONTINUOUS
10
-18.145626
20
16.275503
30
0.0
11
-18.145626
21
17.992731
31
0.0
0
LINE
8
0
6
CONTINUOUS
10
-16.545627
20
14.436117
30
0.0
11
-16.545627
21
16.275503
31
0.0
0
LINE
8
0
6
CONTINUOUS
10
-18.145626
20
14.436117
30
0.0
11
-18.145626
21
16.275503
31
0.0
0
LINE
8
0
6
CONTINUOUS
10
-16.545627
20
12.432828
30
0.0
11
-16.545627
21
14.436117
31
0.0
0
LINE
8
0
6
CONTINUOUS
10
-18.145626
20
12.432828
30
0.0
11
-18.145626
21
14.436117
31
0.0
0
LINE
8
0
6
CONTINUOUS
10
-16.545627
20
8.257369
30
0.0
11
-16.545627
21
12.432828
31
0.0
0
LINE
8
0
6
CONTINUOUS
10
-18.145626
20
8.257371
30
0.0
11
-18.145626
21
12.432828
31
0.0
0
LINE
8
0
6
CONTINUOUS
10
-16.545627
20
3.974220
30
0.0
11
-16.545627
21
8.257369
31
0.0
0
LINE
8
0
6
CONTINUOUS
10
-18.145626
20
3.974220
30
0.0
11
-18.145626
21
8.257371
31
0.0
0
LINE
8
0
6
CONTINUOUS
10
-16.545626
20
-0.319195
30
0.0
11
-16.545627
21
3.974220
31
0.0
0
LINE
8
0
6
CONTINUOUS
10
-18.145626
20
-0.319195
30
0.0
11
-18.145626
21
3.974220
31
0.0
0
LINE
8
0
6
CONTINUOUS
10
-16.545626
20
-4.525447
30
0.0
11
-16.545626
21
-0.319195
31
0.0
0
LINE
8
0
6
CONTINUOUS
10
-18.145626
20
-4.525447
30
0.0
11
-18.145626
21
-0.319195
31
0.0
0
LINE
8
0
6
CONTINUOUS
10
-16.545627
20
-8.547107
30
0.0
11
-16.545626
21
-4.525447
31
0.0
0
LINE
8
0
6
CONTINUOUS
10
-18.145626
20
-8.547107
30
0.0
11
-18.145626
21
-4.525447
31
0.0
0
LINE
8
0
6
CONTINUOUS
10
-16.545627
20
-12.286749
30
0.0
11
-16.545627
21
-8.547107
31
0.0
0
LINE
8
0
6
CONTINUOUS
10
-18.145626
20
-12.286749
30
0.0
11
-18.145626
21
-8.547107
31
0.0
0
LINE
8
0
6
CONTINUOUS
10
-16.545627
20
-15.646944
30
0.0
11
-16.545627
21
-12.286749
31
0.0
0
LINE
8
0
6
CONTINUOUS
10
-18.145626
20
-15.646944
30
0.0
11
-18.145626
21
-12.286749
31
0.0
0
LINE
8
0
6
CONTINUOUS
10
-16.545626
20
-18.530263
30
0.0
11
-16.545627
21
-15.646944
31
0.0
0
LINE
8
0
6
CONTINUOUS
10
-18.145626
20
-18.530264
30
0.0
11
-18.145626
21
-15.646944
31
0.0
0
LINE
8
0
6
CONTINUOUS
10
-16.545626
20
-20.839280
30
0.0
11
-16.545626
21
-18.530263
31
0.0
0
LINE
8
0
6
CONTINUOUS
10
-18.145626
20
-20.839281
30
0.0
11
-18.145626
21
-18.530264
31
0.0
0
LINE
8
0
6
CONTINUOUS
10
-16.545627
20
-22.476565
30
0.0
11
-16.545626
21
-20.839280
31
0.0
0
LINE
8
0
6
CONTINUOUS
10
-16.652805
20
-22.476565
30
0.0
11
-16.545627
21
-22.476565
31
0.0
0
LINE
8
0
6
CONTINUOUS
10
-16.945626
20
-22.476566
30
0.0
11
-16.652805
21
-22.476565
31
0.0
0
LINE
8
0
6
CONTINUOUS
10
-17.345626
20
-22.476566
30
0.0
11
-16.945626
21
-22.476566
31
0.0
0
LINE
8
0
6
CONTINUOUS
10
-17.745625
20
-22.476566
30
0.0
11
-17.345626
21
-22.476566
31
0.0
0
LINE
8
0
6
CONTINUOUS
10
-18.038447
20
-22.476567
30
0.0
11
-17.745625
21
-22.476566
31
0.0
0
LINE
8
0
6
CONTINUOUS
10
-18.145626
20
-22.476567
30
0.0
11
-18.038447
21
-22.476567
31
0.0
0
LINE
8
0
6
CONTINUOUS
10
-18.145626
20
-22.476567
30
0.0
11
-18.145626
21
-20.839281
31
0.0
0
LINE
8
0
6
CONTINUOUS
10
-18.455976
20
31.658063
30
0.0
11
-18.423208
21
31.587852
31
0.0
0
LINE
8
0
6
CONTINUOUS
10
-16.453695
20
30.134160
30
0.0
11
-16.453696
21
30.503244
31
0.0
0
LINE
8
0
6
CONTINUOUS
10
-16.453695
20
29.764039
30
0.0
11
-16.453695
21
30.134160
31
0.0
0
LINE
8
0
6
CONTINUOUS
10
-18.376638
20
31.465867
30
0.0
11
-18.484681
21
31.697374
31
0.0
0
LINE
8
0
6
CONTINUOUS
10
-16.453695
20
29.077066
30
0.0
11
-16.453695
21
29.407102
31
0.0
0
LINE
8
0
6
CONTINUOUS
10
-16.453695
20
29.407102
30
0.0
11
-16.453695
21
29.764039
31
0.0
0
LINE
8
0
6
CONTINUOUS
10
-16.453696
20
30.503244
30
0.0
11
-16.453696
21
30.857099
31
0.0
0
LINE
8
0
6
CONTINUOUS
10
-16.453696
20
30.857099
30
0.0
11
-16.453695
21
31.066450
31
0.0
0
LINE
8
0
6
CONTINUOUS
10
-22.502513
20
32.001634
30
0.0
11
-22.534488
21
32.001634
31
0.0
0
LINE
8
0
6
CONTINUOUS
10
-18.484681
20
31.697374
30
0.0
11
-18.434991
21
31.775741
31
0.0
0
LINE
8
0
6
CONTINUOUS
10
-18.449157
20
32.001634
30
0.0
11
-19.396675
21
32.001634
31
0.0
0
LINE
8
0
6
CONTINUOUS
10
-21.596675
20
32.001634
30
0.0
11
-22.502513
21
32.001634
31
0.0
0
LINE
8
0
6
CONTINUOUS
10
-22.502513
20
28.212602
30
0.0
11
-22.534488
21
28.212602
31
0.0
0
LINE
8
0
6
CONTINUOUS
10
-16.809900
20
28.212606
30
0.0
11
-17.271467
21
28.145276
31
0.0
0
LINE
8
0
6
CONTINUOUS
10
-17.762370
20
28.146005
30
0.0
11
-17.271460
21
28.143602
31
0.0
0
LINE
8
0
6
CONTINUOUS
10
-17.762370
20
28.146005
30
0.0
11
-18.118520
21
28.212602
31
0.0
0
LINE
8
0
6
CONTINUOUS
10
-16.453695
20
28.254281
30
0.0
11
-16.453695
21
28.367162
31
0.0
0
LINE
8
0
6
CONTINUOUS
10
-16.453695
20
28.367162
30
0.0
11
-16.453695
21
28.546911
31
0.0
0
LINE
8
0
6
CONTINUOUS
10
-16.453695
20
28.786611
30
0.0
11
-16.453695
21
29.077066
31
0.0
0
LINE
8
0
6
CONTINUOUS
10
-16.453695
20
28.546911
30
0.0
11
-16.453695
21
28.786611
31
0.0
0
LINE
8
0
6
CONTINUOUS
10
-16.453695
20
28.212606
30
0.0
11
-16.453695
21
28.254281
31
0.0
0
LINE
8
0
6
CONTINUOUS
10
-16.453695
20
28.212606
30
0.0
11
-16.493752
21
28.212606
31
0.0
0
LINE
8
0
6
CONTINUOUS
10
-18.118520
20
28.212602
30
0.0
11
-19.396675
21
28.212602
31
0.0
0
LINE
8
0
6
CONTINUOUS
10
-21.596675
20
28.212602
30
0.0
11
-22.502513
21
28.212602
31
0.0
0
LINE
8
0
6
CONTINUOUS
10
-16.493752
20
28.212606
30
0.0
11
-16.809900
21
28.212606
31
0.0
0
LINE
8
0
6
CONTINUOUS
10
-22.534488
20
30.134157
30
0.0
11
-22.534488
21
30.503244
31
0.0
0
LINE
8
0
6
CONTINUOUS
10
-22.534488
20
30.503244
30
0.0
11
-22.534488
21
30.857099
31
0.0
0
LINE
8
0
6
CONTINUOUS
10
-22.534488
20
29.077066
30
0.0
11
-22.534488
21
29.407102
31
0.0
0
LINE
8
0
6
CONTINUOUS
10
-22.534488
20
29.764039
30
0.0
11
-22.534488
21
30.134157
31
0.0
0
LINE
8
0
6
CONTINUOUS
10
-22.534488
20
31.465867
30
0.0
11
-22.534488
21
31.697374
31
0.0
0
LINE
8
0
6
CONTINUOUS
10
-22.534488
20
28.254285
30
0.0
11
-22.534488
21
28.367162
31
0.0
0
LINE
8
0
6
CONTINUOUS
10
-22.534488
20
30.857099
30
0.0
11
-22.534488
21
31.182138
31
0.0
0
LINE
8
0
6
CONTINUOUS
10
-22.534488
20
29.407102
30
0.0
11
-22.534488
21
29.764039
31
0.0
0
LINE
8
0
6
CONTINUOUS
10
-22.534488
20
28.786615
30
0.0
11
-22.534488
21
29.077066
31
0.0
0
LINE
8
0
6
CONTINUOUS
10
-22.534488
20
31.697374
30
0.0
11
-22.534488
21
31.867776
31
0.0
0
LINE
8
0
6
CONTINUOUS
10
-22.534488
20
31.970506
30
0.0
11
-22.534488
21
32.001634
31
0.0
0
LINE
8
0
6
CONTINUOUS
10
-22.534488
20
31.182138
30
0.0
11
-22.534488
21
31.465867
31
0.0
0
LINE
8
0
6
CONTINUOUS
10
-22.534488
20
28.212602
30
0.0
11
-22.534488
21
28.254285
31
0.0
0
LINE
8
0
6
CONTINUOUS
10
-22.534488
20
28.546911
30
0.0
11
-22.534488
21
28.786615
31
0.0
0
LINE
8
0
6
CONTINUOUS
10
-22.534488
20
28.367162
30
0.0
11
-22.534488
21
28.546911
31
0.0
0
LINE
8
0
6
CONTINUOUS
10
-22.534488
20
31.867776
30
0.0
11
-22.534488
21
31.970506
31
0.0
0
LINE
8
0
6
CONTINUOUS
10
-24.647752
20
28.219892
30
0.0
11
-24.719017
21
28.219892
31
0.0
0
LINE
8
0
6
CONTINUOUS
10
-24.647752
20
28.219892
30
0.0
11
-22.621679
21
28.219888
31
0.0
0
LINE
8
0
6
CONTINUOUS
10
-23.072351
20
31.994364
30
0.0
11
-22.621675
21
31.994363
31
0.0
0
LINE
8
0
6
CONTINUOUS
10
-22.621679
20
28.219888
30
0.0
11
-22.592617
21
28.219888
31
0.0
0
LINE
8
0
6
CONTINUOUS
10
-22.621675
20
31.994363
30
0.0
11
-22.592612
21
31.994363
31
0.0
0
LINE
8
0
6
CONTINUOUS
10
-24.719017
20
28.219892
30
0.0
11
-24.719017
21
28.284200
31
0.0
0
LINE
8
0
6
CONTINUOUS
10
-24.719017
20
28.284200
30
0.0
11
-24.719017
21
28.472734
31
0.0
0
LINE
8
0
6
CONTINUOUS
10
-24.719017
20
28.472734
30
0.0
11
-24.719017
21
28.772653
31
0.0
0
LINE
8
0
6
CONTINUOUS
10
-24.719017
20
28.772653
30
0.0
11
-24.719017
21
29.163507
31
0.0
0
LINE
8
0
6
CONTINUOUS
10
-24.719017
20
29.163507
30
0.0
11
-24.719016
21
29.618673
31
0.0
0
LINE
8
0
6
CONTINUOUS
10
-24.719016
20
29.618673
30
0.0
11
-24.719016
21
30.107129
31
0.0
0
LINE
8
0
6
CONTINUOUS
10
-24.719016
20
30.107129
30
0.0
11
-24.719016
21
30.595579
31
0.0
0
LINE
8
0
6
CONTINUOUS
10
-24.719016
20
30.595579
30
0.0
11
-24.719015
21
31.050744
31
0.0
0
LINE
8
0
6
CONTINUOUS
10
-24.719015
20
31.050744
30
0.0
11
-24.719015
21
31.441602
31
0.0
0
LINE
8
0
6
CONTINUOUS
10
-24.719015
20
31.441602
30
0.0
11
-24.719014
21
31.741521
31
0.0
0
LINE
8
0
6
CONTINUOUS
10
-24.719014
20
31.741521
30
0.0
11
-24.719014
21
31.930059
31
0.0
0
LINE
8
0
6
CONTINUOUS
10
-24.719014
20
31.930059
30
0.0
11
-24.719014
21
31.994367
31
0.0
0
LINE
8
0
6
CONTINUOUS
10
-24.627623
20
32.823888
30
0.0
11
-24.638943
21
32.824510
31
0.0
0
LINE
8
0
6
CONTINUOUS
10
-24.627623
20
32.823888
30
0.0
11
-23.083593
21
32.825258
31
0.0
0
LINE
8
0
6
CONTINUOUS
10
-23.072351
20
31.637514
30
0.0
11
-23.072351
21
32.425859
31
0.0
0
LINE
8
0
6
CONTINUOUS
10
-23.083593
20
32.825258
30
0.0
11
-23.072351
21
32.825277
31
0.0
0
LINE
8
0
6
CONTINUOUS
10
-24.654060
20
32.425805
30
0.0
11
-24.649369
21
32.502408
31
0.0
0
LINE
8
0
6
CONTINUOUS
10
-24.649369
20
32.502408
30
0.0
11
-24.645144
21
32.580587
31
0.0
0
LINE
8
0
6
CONTINUOUS
10
-24.645144
20
32.580587
30
0.0
11
-24.641670
21
32.655004
31
0.0
0
LINE
8
0
6
CONTINUOUS
10
-24.641670
20
32.655004
30
0.0
11
-24.639182
21
32.720605
31
0.0
0
LINE
8
0
6
CONTINUOUS
10
-24.639182
20
32.720605
30
0.0
11
-24.637853
21
32.772912
31
0.0
0
LINE
8
0
6
CONTINUOUS
10
-24.637853
20
32.772912
30
0.0
11
-24.637772
21
32.808347
31
0.0
0
LINE
8
0
6
CONTINUOUS
10
-24.637772
20
32.808347
30
0.0
11
-24.638943
21
32.824510
31
0.0
0
LINE
8
0
6
CONTINUOUS
10
-24.638943
20
32.824510
30
0.0
11
-24.641291
21
32.820295
31
0.0
0
LINE
8
0
6
CONTINUOUS
10
-24.641291
20
32.820295
30
0.0
11
-24.644649
21
32.796003
31
0.0
0
LINE
8
0
6
CONTINUOUS
10
-24.644649
20
32.796003
30
0.0
11
-24.648794
21
32.753259
31
0.0
0
LINE
8
0
6
CONTINUOUS
10
-24.648794
20
32.753259
30
0.0
11
-24.653440
21
32.695009
31
0.0
0
LINE
8
0
6
CONTINUOUS
10
-24.653440
20
32.695009
30
0.0
11
-24.658272
21
32.625207
31
0.0
0
LINE
8
0
6
CONTINUOUS
10
-24.712965
20
31.838167
30
0.0
11
-24.658272
21
32.625207
31
0.0
0
LINE
8
0
6
CONTINUOUS
10
-23.072351
20
32.502569
30
0.0
11
-23.072351
21
32.425859
31
0.0
0
LINE
8
0
6
CONTINUOUS
10
-23.072351
20
32.580873
30
0.0
11
-23.072351
21
32.502569
31
0.0
0
LINE
8
0
6
CONTINUOUS
10
-23.072351
20
32.655408
30
0.0
11
-23.072351
21
32.580873
31
0.0
0
LINE
8
0
6
CONTINUOUS
10
-23.072351
20
32.721128
30
0.0
11
-23.072351
21
32.655408
31
0.0
0
LINE
8
0
6
CONTINUOUS
10
-23.072351
20
32.773534
30
0.0
11
-23.072351
21
32.721128
31
0.0
0
LINE
8
0
6
CONTINUOUS
10
-23.072351
20
32.809060
30
0.0
11
-23.072351
21
32.773534
31
0.0
0
LINE
8
0
6
CONTINUOUS
10
-23.072351
20
32.825277
30
0.0
11
-23.072351
21
32.809060
31
0.0
0
LINE
8
0
6
CONTINUOUS
10
-24.696032
20
31.821839
30
0.0
11
-24.654060
21
32.425805
31
0.0
0
LINE
8
0
6
CONTINUOUS
10
-22.592617
20
28.284192
30
0.0
11
-22.592617
21
28.219888
31
0.0
0
LINE
8
0
6
CONTINUOUS
10
-22.592617
20
28.472734
30
0.0
11
-22.592617
21
28.284192
31
0.0
0
LINE
8
0
6
CONTINUOUS
10
-22.592616
20
28.772653
30
0.0
11
-22.592617
21
28.472734
31
0.0
0
LINE
8
0
6
CONTINUOUS
10
-22.592615
20
29.163507
30
0.0
11
-22.592616
21
28.772653
31
0.0
0
LINE
8
0
6
CONTINUOUS
10
-22.592614
20
29.618669
30
0.0
11
-22.592615
21
29.163507
31
0.0
0
LINE
8
0
6
CONTINUOUS
10
-22.592614
20
30.107129
30
0.0
11
-22.592614
21
29.618669
31
0.0
0
LINE
8
0
6
CONTINUOUS
10
-22.592614
20
30.595579
30
0.0
11
-22.592614
21
30.107129
31
0.0
0
LINE
8
0
6
CONTINUOUS
10
-22.592613
20
31.050741
30
0.0
11
-22.592614
21
30.595579
31
0.0
0
LINE
8
0
6
CONTINUOUS
10
-22.592613
20
31.441602
30
0.0
11
-22.592613
21
31.050741
31
0.0
0
LINE
8
0
6
CONTINUOUS
10
-22.592612
20
31.741521
30
0.0
11
-22.592613
21
31.441602
31
0.0
0
LINE
8
0
6
CONTINUOUS
10
-22.592612
20
31.930055
30
0.0
11
-22.592612
21
31.741521
31
0.0
0
LINE
8
0
6
CONTINUOUS
10
-22.592612
20
31.994363
30
0.0
11
-22.592612
21
31.930055
31
0.0
0
LINE
8
0
6
CONTINUOUS
10
-20.776675
20
-17.276560
30
0.0
11
-20.496675
21
-17.276560
31
0.0
0
LINE
8
0
6
CONTINUOUS
10
-21.596675
20
-22.421149
30
0.0
11
-21.596675
21
-22.476565
31
0.0
0
LINE
8
0
6
CONTINUOUS
10
-21.556675
20
-22.476565
30
0.0
11
-21.596675
21
-22.476565
31
0.0
0
LINE
8
0
6
CONTINUOUS
10
-21.446675
20
-22.476565
30
0.0
11
-21.556675
21
-22.476565
31
0.0
0
LINE
8
0
6
CONTINUOUS
10
-21.276675
20
-22.476565
30
0.0
11
-21.446675
21
-22.476565
31
0.0
0
LINE
8
0
6
CONTINUOUS
10
-21.046675
20
-22.476565
30
0.0
11
-21.276675
21
-22.476565
31
0.0
0
LINE
8
0
6
CONTINUOUS
10
-20.776675
20
-22.476565
30
0.0
11
-21.046675
21
-22.476565
31
0.0
0
LINE
8
0
6
CONTINUOUS
10
-20.496675
20
-22.476565
30
0.0
11
-20.776675
21
-22.476565
31
0.0
0
LINE
8
0
6
CONTINUOUS
10
-20.776675
20
-17.276560
30
0.0
11
-21.046675
21
-17.276560
31
0.0
0
LINE
8
0
6
CONTINUOUS
10
-21.046675
20
-17.276560
30
0.0
11
-21.276675
21
-17.276560
31
0.0
0
LINE
8
0
6
CONTINUOUS
10
-21.446675
20
-17.276560
30
0.0
11
-21.556675
21
-17.276560
31
0.0
0
LINE
8
0
6
CONTINUOUS
10
-19.396675
20
-22.476565
30
0.0
11
-19.436675
21
-22.476565
31
0.0
0
LINE
8
0
6
CONTINUOUS
10
-19.436675
20
-22.476565
30
0.0
11
-19.546675
21
-22.476565
31
0.0
0
LINE
8
0
6
CONTINUOUS
10
-19.546675
20
-22.476565
30
0.0
11
-19.716675
21
-22.476565
31
0.0
0
LINE
8
0
6
CONTINUOUS
10
-19.716675
20
-22.476565
30
0.0
11
-19.946675
21
-22.476565
31
0.0
0
LINE
8
0
6
CONTINUOUS
10
-19.946675
20
-22.476565
30
0.0
11
-20.216675
21
-22.476565
31
0.0
0
LINE
8
0
6
CONTINUOUS
10
-20.216675
20
-22.476565
30
0.0
11
-20.496675
21
-22.476565
31
0.0
0
LINE
8
0
6
CONTINUOUS
10
-21.556675
20
-17.276560
30
0.0
11
-21.596675
21
-17.276560
31
0.0
0
LINE
8
0
6
CONTINUOUS
10
-21.596675
20
-17.331977
30
0.0
11
-21.596675
21
-17.276560
31
0.0
0
LINE
8
0
6
CONTINUOUS
10
-21.596675
20
-22.421149
30
0.0
11
-21.596675
21
-17.331977
31
0.0
0
LINE
8
0
6
CONTINUOUS
10
-21.276675
20
-17.276560
30
0.0
11
-21.446675
21
-17.276560
31
0.0
0
LINE
8
0
6
CONTINUOUS
10
-21.596675
20
39.173437
30
0.0
11
-21.556675
21
39.173437
31
0.0
0
LINE
8
0
6
CONTINUOUS
10
-21.556675
20
39.173437
30
0.0
11
-21.446675
21
39.173437
31
0.0
0
LINE
8
0
6
CONTINUOUS
10
-21.446675
20
39.173437
30
0.0
11
-21.276675
21
39.173437
31
0.0
0
LINE
8
0
6
CONTINUOUS
10
-21.276675
20
39.173437
30
0.0
11
-21.046675
21
39.173437
31
0.0
0
LINE
8
0
6
CONTINUOUS
10
-21.046675
20
39.173437
30
0.0
11
-20.776675
21
39.173437
31
0.0
0
LINE
8
0
6
CONTINUOUS
10
-20.776675
20
39.173437
30
0.0
11
-20.496675
21
39.173437
31
0.0
0
LINE
8
0
6
CONTINUOUS
10
-19.436675
20
39.173437
30
0.0
11
-19.396675
21
39.173437
31
0.0
0
LINE
8
0
6
CONTINUOUS
10
-19.546675
20
39.173437
30
0.0
11
-19.436675
21
39.173437
31
0.0
0
LINE
8
0
6
CONTINUOUS
10
-19.716675
20
39.173437
30
0.0
11
-19.546675
21
39.173437
31
0.0
0
LINE
8
0
6
CONTINUOUS
10
-19.946675
20
39.173437
30
0.0
11
-19.716675
21
39.173437
31
0.0
0
LINE
8
0
6
CONTINUOUS
10
-20.216675
20
39.173437
30
0.0
11
-19.946675
21
39.173437
31
0.0
0
LINE
8
0
6
CONTINUOUS
10
-20.496675
20
39.173437
30
0.0
11
-20.216675
21
39.173437
31
0.0
0
LINE
8
0
6
CONTINUOUS
10
-19.396675
20
-17.226565
30
0.0
11
-19.446675
21
-17.276560
31
0.0
0
LINE
8
0
6
CONTINUOUS
10
-19.396675
20
39.173437
30
0.0
11
-19.396675
21
39.142125
31
0.0
0
LINE
8
0
6
CONTINUOUS
10
-19.446675
20
39.223440
30
0.0
11
-19.396675
21
39.173437
31
0.0
0
LINE
8
0
6
CONTINUOUS
10
-19.946675
20
39.173437
30
0.0
11
-20.216675
21
39.173437
31
0.0
0
LINE
8
0
6
CONTINUOUS
10
-21.546675
20
-17.276560
30
0.0
11
-21.596675
21
-17.226565
31
0.0
0
LINE
8
0
6
CONTINUOUS
10
-21.596675
20
39.142125
30
0.0
11
-21.596675
21
39.173437
31
0.0
0
LINE
8
0
6
CONTINUOUS
10
-20.776675
20
39.173437
30
0.0
11
-20.496675
21
39.173437
31
0.0
0
LINE
8
0
6
CONTINUOUS
10
-21.596675
20
39.173437
30
0.0
11
-21.546675
21
39.223440
31
0.0
0
LINE
8
0
6
CONTINUOUS
10
-19.436675
20
39.223440
30
0.0
11
-19.396675
21
39.223440
31
0.0
0
LINE
8
0
6
CONTINUOUS
10
-19.546675
20
39.223440
30
0.0
11
-19.436675
21
39.223440
31
0.0
0
LINE
8
0
6
CONTINUOUS
10
-19.716675
20
39.223440
30
0.0
11
-19.546675
21
39.223440
31
0.0
0
LINE
8
0
6
CONTINUOUS
10
-19.946675
20
39.223440
30
0.0
11
-19.716675
21
39.223440
31
0.0
0
LINE
8
0
6
CONTINUOUS
10
-20.216675
20
39.223440
30
0.0
11
-19.946675
21
39.223440
31
0.0
0
LINE
8
0
6
CONTINUOUS
10
-20.496675
20
39.223440
30
0.0
11
-20.216675
21
39.223440
31
0.0
0
LINE
8
0
6
CONTINUOUS
10
-21.596675
20
39.294210
30
0.0
11
-21.596675
21
39.223440
31
0.0
0
LINE
8
0
6
CONTINUOUS
10
-21.596675
20
39.223440
30
0.0
11
-21.556675
21
39.223440
31
0.0
0
LINE
8
0
6
CONTINUOUS
10
-21.596675
20
43.933373
30
0.0
11
-21.596675
21
39.294210
31
0.0
0
LINE
8
0
6
CONTINUOUS
10
-21.556675
20
39.223440
30
0.0
11
-21.446675
21
39.223440
31
0.0
0
LINE
8
0
6
CONTINUOUS
10
-21.446675
20
39.223440
30
0.0
11
-21.276675
21
39.223440
31
0.0
0
LINE
8
0
6
CONTINUOUS
10
-21.276675
20
39.223440
30
0.0
11
-21.046675
21
39.223440
31
0.0
0
LINE
8
0
6
CONTINUOUS
10
-21.046675
20
39.223440
30
0.0
11
-20.776675
21
39.223440
31
0.0
0
LINE
8
0
6
CONTINUOUS
10
-20.776675
20
39.223440
30
0.0
11
-20.496675
21
39.223440
31
0.0
0
LINE
8
0
6
CONTINUOUS
10
-19.396675
20
39.294210
30
0.0
11
-19.396675
21
39.223440
31
0.0
0
LINE
8
0
6
CONTINUOUS
10
-19.396675
20
42.394869
30
0.0
11
-19.396675
21
39.294210
31
0.0
0
LINE
8
0
6
CONTINUOUS
10
-19.396675
20
39.142125
30
0.0
11
-19.396675
21
39.087942
31
0.0
0
LINE
8
0
6
CONTINUOUS
10
-21.596675
20
39.087942
30
0.0
11
-21.596675
21
39.142125
31
0.0
0
LINE
8
0
6
CONTINUOUS
10
-19.396675
20
-17.276560
30
0.0
11
-19.436675
21
-17.276560
31
0.0
0
LINE
8
0
6
CONTINUOUS
10
-19.436675
20
-17.276560
30
0.0
11
-19.546675
21
-17.276560
31
0.0
0
LINE
8
0
6
CONTINUOUS
10
-19.546675
20
-17.276560
30
0.0
11
-19.716675
21
-17.276560
31
0.0
0
LINE
8
0
6
CONTINUOUS
10
-19.716675
20
-17.276560
30
0.0
11
-19.946675
21
-17.276560
31
0.0
0
LINE
8
0
6
CONTINUOUS
10
-19.946675
20
-17.276560
30
0.0
11
-20.216675
21
-17.276560
31
0.0
0
LINE
8
0
6
CONTINUOUS
10
-20.216675
20
-17.276560
30
0.0
11
-20.496675
21
-17.276560
31
0.0
0
LINE
8
0
6
CONTINUOUS
10
-19.396675
20
-17.276560
30
0.0
11
-19.396675
21
-17.331977
31
0.0
0
LINE
8
0
6
CONTINUOUS
10
-19.396675
20
-17.331977
30
0.0
11
-19.396675
21
-22.421149
31
0.0
0
LINE
8
0
6
CONTINUOUS
10
-19.396675
20
-22.421149
30
0.0
11
-19.396675
21
-22.476565
31
0.0
0
LINE
8
0
6
CONTINUOUS
10
-19.716675
20
-17.226565
30
0.0
11
-19.546675
21
-17.226565
31
0.0
0
LINE
8
0
6
CONTINUOUS
10
-19.436675
20
-17.226565
30
0.0
11
-19.396675
21
-17.226565
31
0.0
0
LINE
8
0
6
CONTINUOUS
10
-21.046675
20
-17.226565
30
0.0
11
-20.776675
21
-17.226565
31
0.0
0
LINE
8
0
6
CONTINUOUS
10
-21.596675
20
-17.226565
30
0.0
11
-21.556675
21
-17.226565
31
0.0
0
LINE
8
0
6
CONTINUOUS
10
-21.596675
20
-17.205134
30
0.0
11
-21.596675
21
-17.226565
31
0.0
0
LINE
8
0
6
CONTINUOUS
10
-20.496675
20
-17.226565
30
0.0
11
-20.216675
21
-17.226565
31
0.0
0
LINE
8
0
6
CONTINUOUS
10
-19.396675
20
-17.205134
30
0.0
11
-19.396675
21
-17.226565
31
0.0
0
LINE
8
0
6
CONTINUOUS
10
-20.216675
20
-17.226565
30
0.0
11
-19.946675
21
-17.226565
31
0.0
0
LINE
8
0
6
CONTINUOUS
10
-19.546675
20
-17.226565
30
0.0
11
-19.436675
21
-17.226565
31
0.0
0
LINE
8
0
6
CONTINUOUS
10
-20.776675
20
-17.226565
30
0.0
11
-20.496675
21
-17.226565
31
0.0
0
LINE
8
0
6
CONTINUOUS
10
-21.276675
20
-17.226565
30
0.0
11
-21.046675
21
-17.226565
31
0.0
0
LINE
8
0
6
CONTINUOUS
10
-21.556675
20
-17.226565
30
0.0
11
-21.446675
21
-17.226565
31
0.0
0
LINE
8
0
6
CONTINUOUS
10
-21.446675
20
-17.226565
30
0.0
11
-21.276675
21
-17.226565
31
0.0
0
LINE
8
0
6
CONTINUOUS
10
-19.946675
20
-17.226565
30
0.0
11
-19.716675
21
-17.226565
31
0.0
0
LINE
8
0
6
CONTINUOUS
10
-19.396675
20
39.087942
30
0.0
11
-19.396675
21
32.001634
31
0.0
0
LINE
8
0
6
CONTINUOUS
10
-19.396675
20
28.212602
30
0.0
11
-19.396675
21
-17.147139
31
0.0
0
LINE
8
0
6
CONTINUOUS
10
-21.596675
20
-17.147139
30
0.0
11
-21.596675
21
28.212602
31
0.0
0
LINE
8
0
6
CONTINUOUS
10
-21.596675
20
32.001634
30
0.0
11
-21.596675
21
39.087942
31
0.0
0
LINE
8
0
6
CONTINUOUS
10
-19.396675
20
-17.147139
30
0.0
11
-19.396675
21
-17.205134
31
0.0
0
LINE
8
0
6
CONTINUOUS
10
-21.596675
20
-17.205134
30
0.0
11
-21.596675
21
-17.147139
31
0.0
0
LINE
8
0
6
CONTINUOUS
10
10.518259
20
-47.859633
30
0.0
11
10.518259
21
-47.779295
31
0.0
0
LINE
8
0
6
CONTINUOUS
10
8.488397
20
-47.779295
30
0.0
11
8.488397
21
-47.859633
31
0.0
0
LINE
8
0
6
CONTINUOUS
10
9.263792
20
-47.859633
30
0.0
11
8.826138
21
-47.859633
31
0.0
0
LINE
8
0
6
CONTINUOUS
10
10.501077
20
-47.859633
30
0.0
11
10.180516
21
-47.859633
31
0.0
0
LINE
8
0
6
CONTINUOUS
10
8.505577
20
-47.859633
30
0.0
11
8.357536
21
-47.859633
31
0.0
0
LINE
8
0
6
CONTINUOUS
10
9.742862
20
-47.859633
30
0.0
11
9.263792
21
-47.859633
31
0.0
0
LINE
8
0
6
CONTINUOUS
10
10.649119
20
-47.859633
30
0.0
11
10.501077
21
-47.859633
31
0.0
0
LINE
8
0
6
CONTINUOUS
10
10.649119
20
-47.997678
30
0.0
11
10.649119
21
-47.859633
31
0.0
0
LINE
8
0
6
CONTINUOUS
10
8.826138
20
-47.859633
30
0.0
11
8.505577
21
-47.859633
31
0.0
0
LINE
8
0
6
CONTINUOUS
10
10.180516
20
-47.859633
30
0.0
11
9.742862
21
-47.859633
31
0.0
0
LINE
8
0
6
CONTINUOUS
10
8.357536
20
-47.997678
30
0.0
11
8.357536
21
-47.859633
31
0.0
0
LINE
8
0
6
CONTINUOUS
10
8.477680
20
-50.124425
30
0.0
11
8.610197
21
-50.124425
31
0.0
0
LINE
8
0
6
CONTINUOUS
10
8.473484
20
-50.050150
30
0.0
11
8.477680
21
-50.124425
31
0.0
0
LINE
8
0
6
CONTINUOUS
10
8.610197
20
-50.124425
30
0.0
11
8.897145
21
-50.124425
31
0.0
0
LINE
8
0
6
CONTINUOUS
10
8.897145
20
-50.124425
30
0.0
11
9.288907
21
-50.124425
31
0.0
0
LINE
8
0
6
CONTINUOUS
10
9.288907
20
-50.124425
30
0.0
11
9.717745
21
-50.124425
31
0.0
0
LINE
8
0
6
CONTINUOUS
10
9.717745
20
-50.124425
30
0.0
11
10.109509
21
-50.124425
31
0.0
0
LINE
8
0
6
CONTINUOUS
10
10.109509
20
-50.124425
30
0.0
11
10.396457
21
-50.124425
31
0.0
0
LINE
8
0
6
CONTINUOUS
10
10.396457
20
-50.124425
30
0.0
11
10.528975
21
-50.124425
31
0.0
0
LINE
8
0
6
CONTINUOUS
10
10.533172
20
-50.050150
30
0.0
11
10.528975
21
-50.124425
31
0.0
0
LINE
8
0
6
CONTINUOUS
10
8.357536
20
-47.997678
30
0.0
11
8.473484
21
-50.050150
31
0.0
0
LINE
8
0
6
CONTINUOUS
10
10.649119
20
-47.997678
30
0.0
11
10.533172
21
-50.050150
31
0.0
0
LINE
8
0
6
CONTINUOUS
10
1.975710
20
-49.553322
30
0.0
11
2.643225
21
-49.492758
31
0.0
0
LINE
8
0
6
CONTINUOUS
10
2.643832
20
-42.828295
30
0.0
11
1.979760
21
-42.762850
31
0.0
0
LINE
8
0
6
CONTINUOUS
10
3.284031
20
-43.018424
30
0.0
11
2.643832
21
-42.828295
31
0.0
0
LINE
8
0
6
CONTINUOUS
10
3.877879
20
-43.339351
30
0.0
11
3.284031
21
-43.018424
31
0.0
0
LINE
8
0
6
CONTINUOUS
10
4.390974
20
-43.765502
30
0.0
11
3.877879
21
-43.339351
31
0.0
0
LINE
8
0
6
CONTINUOUS
10
4.509293
20
-43.909551
30
0.0
11
4.390974
21
-43.765502
31
0.0
0
LINE
8
0
6
CONTINUOUS
10
4.796357
20
-48.058728
30
0.0
11
4.953691
21
-47.768022
31
0.0
0
LINE
8
0
6
CONTINUOUS
10
4.374180
20
-48.575314
30
0.0
11
4.796357
21
-48.058728
31
0.0
0
LINE
8
0
6
CONTINUOUS
10
3.854936
20
-48.990465
30
0.0
11
4.374180
21
-48.575314
31
0.0
0
LINE
8
0
6
CONTINUOUS
10
3.272608
20
-49.298267
30
0.0
11
3.854936
21
-48.990465
31
0.0
0
LINE
8
0
6
CONTINUOUS
10
2.643225
20
-49.492758
30
0.0
11
3.272608
21
-49.298267
31
0.0
0
LINE
8
0
6
CONTINUOUS
10
1.975710
20
-49.553322
30
0.0
11
2.643225
21
-49.492758
31
0.0
0
LINE
8
0
6
CONTINUOUS
10
1.321512
20
-49.487371
30
0.0
11
1.975710
21
-49.553322
31
0.0
0
LINE
8
0
6
CONTINUOUS
10
0.690357
20
-49.301220
30
0.0
11
1.321512
21
-49.487371
31
0.0
0
LINE
8
0
6
CONTINUOUS
10
0.100104
20
-48.983732
30
0.0
11
0.690357
21
-49.301220
31
0.0
0
LINE
8
0
6
CONTINUOUS
10
-0.408617
20
-48.566449
30
0.0
11
0.100104
21
-48.983732
31
0.0
0
LINE
8
0
6
CONTINUOUS
10
-0.831722
20
-48.061305
30
0.0
11
-0.408617
21
-48.566449
31
0.0
0
LINE
8
0
6
CONTINUOUS
10
-1.013337
20
-47.723173
30
0.0
11
-0.831722
21
-48.061305
31
0.0
0
LINE
8
0
6
CONTINUOUS
10
-0.429910
20
-43.765302
30
0.0
11
-0.577360
21
-43.948099
31
0.0
0
LINE
8
0
6
CONTINUOUS
10
0.085272
20
-43.343645
30
0.0
11
-0.429910
21
-43.765302
31
0.0
0
LINE
8
0
6
CONTINUOUS
10
0.671050
20
-43.026569
30
0.0
11
0.085272
21
-43.343645
31
0.0
0
LINE
8
0
6
CONTINUOUS
10
1.314040
20
-42.824453
30
0.0
11
0.671050
21
-43.026569
31
0.0
0
LINE
8
0
6
CONTINUOUS
10
1.979760
20
-42.762850
30
0.0
11
1.314040
21
-42.824453
31
0.0
0
LINE
8
0
6
CONTINUOUS
10
2.028414
20
-43.923793
30
0.0
11
1.071311
21
-43.932361
31
0.0
0
LINE
8
0
6
CONTINUOUS
10
2.632498
20
-42.890023
30
0.0
11
1.978049
21
-42.825591
31
0.0
0
LINE
8
0
6
CONTINUOUS
10
3.261950
20
-43.080612
30
0.0
11
2.632498
21
-42.890023
31
0.0
0
LINE
8
0
6
CONTINUOUS
10
3.841010
20
-43.390552
30
0.0
11
3.261950
21
-43.080612
31
0.0
0
LINE
8
0
6
CONTINUOUS
10
4.349045
20
-43.808049
30
0.0
11
3.841010
21
-43.390552
31
0.0
0
LINE
8
0
6
CONTINUOUS
10
4.432601
20
-43.909882
30
0.0
11
4.349045
21
-43.808049
31
0.0
0
LINE
8
0
6
CONTINUOUS
10
4.764324
20
-48.040597
30
0.0
11
4.911225
21
-47.767887
31
0.0
0
LINE
8
0
6
CONTINUOUS
10
4.347838
20
-48.548937
30
0.0
11
4.764324
21
-48.040597
31
0.0
0
LINE
8
0
6
CONTINUOUS
10
3.837655
20
-48.961631
30
0.0
11
4.347838
21
-48.548937
31
0.0
0
LINE
8
0
6
CONTINUOUS
10
3.258373
20
-49.269336
30
0.0
11
3.837655
21
-48.961631
31
0.0
0
LINE
8
0
6
CONTINUOUS
10
2.631045
20
-49.460921
30
0.0
11
3.258373
21
-49.269336
31
0.0
0
LINE
8
0
6
CONTINUOUS
10
1.978163
20
-49.522349
30
0.0
11
2.631045
21
-49.460921
31
0.0
0
LINE
8
0
6
CONTINUOUS
10
1.326125
20
-49.457339
30
0.0
11
1.978163
21
-49.522349
31
0.0
0
LINE
8
0
6
CONTINUOUS
10
0.698150
20
-49.269292
30
0.0
11
1.326125
21
-49.457339
31
0.0
0
LINE
8
0
6
CONTINUOUS
10
0.120299
20
-48.959295
30
0.0
11
0.698150
21
-49.269292
31
0.0
0
LINE
8
0
6
CONTINUOUS
10
-0.386648
20
-48.543699
30
0.0
11
0.120299
21
-48.959295
31
0.0
0
LINE
8
0
6
CONTINUOUS
10
-0.805404
20
-48.038682
30
0.0
11
-0.386648
21
-48.543699
31
0.0
0
LINE
8
0
6
CONTINUOUS
10
-0.974294
20
-47.723602
30
0.0
11
-0.805404
21
-48.038682
31
0.0
0
LINE
8
0
6
CONTINUOUS
10
-0.392503
20
-43.808569
30
0.0
11
-0.506206
21
-43.947420
31
0.0
0
LINE
8
0
6
CONTINUOUS
10
0.115658
20
-43.391475
30
0.0
11
-0.392503
21
-43.808569
31
0.0
0
LINE
8
0
6
CONTINUOUS
10
0.695288
20
-43.081172
30
0.0
11
0.115658
21
-43.391475
31
0.0
0
LINE
8
0
6
CONTINUOUS
10
1.323519
20
-42.889743
30
0.0
11
0.695288
21
-43.081172
31
0.0
0
LINE
8
0
6
CONTINUOUS
10
1.978049
20
-42.825591
30
0.0
11
1.323519
21
-42.889743
31
0.0
0
LINE
8
0
6
CONTINUOUS
10
2.787911
20
-47.761115
30
0.0
11
8.488397
21
-47.779295
31
0.0
0
LINE
8
0
6
CONTINUOUS
10
2.787783
20
-43.916995
30
0.0
11
9.503325
21
-43.887955
31
0.0
0
LINE
8
0
6
CONTINUOUS
10
-1.069833
20
-47.722553
30
0.0
11
1.071249
21
-47.746051
31
0.0
0
LINE
8
0
6
CONTINUOUS
10
-1.069833
20
-43.952800
30
0.0
11
1.071311
21
-43.932361
31
0.0
0
LINE
8
0
6
CONTINUOUS
10
2.028006
20
-47.756100
30
0.0
11
2.787911
21
-47.761115
31
0.0
0
LINE
8
0
6
CONTINUOUS
10
2.028414
20
-43.923793
30
0.0
11
2.787783
21
-43.916995
31
0.0
0
LINE
8
0
6
CONTINUOUS
10
2.028006
20
-47.756100
30
0.0
11
1.071249
21
-47.746051
31
0.0
0
LINE
8
0
6
CONTINUOUS
10
-1.095760
20
-47.722402
30
0.0
11
-1.069833
21
-47.722553
31
0.0
0
LINE
8
0
6
CONTINUOUS
10
-1.095725
20
-43.952931
30
0.0
11
-1.069833
21
-43.952800
31
0.0
0
LINE
8
0
6
CONTINUOUS
10
-5.601354
20
-47.676667
30
0.0
11
-1.173534
21
-47.721951
31
0.0
0
LINE
8
0
6
CONTINUOUS
10
-3.628652
20
-43.975164
30
0.0
11
-1.173399
21
-43.953323
31
0.0
0
LINE
8
0
6
CONTINUOUS
10
-1.173534
20
-47.721951
30
0.0
11
-1.147607
21
-47.722102
31
0.0
0
LINE
8
0
6
CONTINUOUS
10
-1.147668
20
-47.663129
30
0.0
11
-1.147607
21
-47.722102
31
0.0
0
LINE
8
0
6
CONTINUOUS
10
-1.147607
20
-47.722102
30
0.0
11
-1.121685
21
-47.618557
31
0.0
0
LINE
8
0
6
CONTINUOUS
10
-1.121725
20
-47.562823
30
0.0
11
-1.121685
21
-47.618557
31
0.0
0
LINE
8
0
6
CONTINUOUS
10
-1.095760
20
-47.722402
30
0.0
11
-1.095781
21
-47.663433
31
0.0
0
LINE
8
0
6
CONTINUOUS
10
-1.121685
20
-47.618557
30
0.0
11
-1.095760
21
-47.722402
31
0.0
0
LINE
8
0
6
CONTINUOUS
10
-1.147729
20
-47.477362
30
0.0
11
-1.147668
21
-47.663129
31
0.0
0
LINE
8
0
6
CONTINUOUS
10
-1.121763
20
-47.387242
30
0.0
11
-1.121725
21
-47.562823
31
0.0
0
LINE
8
0
6
CONTINUOUS
10
-1.095781
20
-47.663433
30
0.0
11
-1.095799
21
-47.477639
31
0.0
0
LINE
8
0
6
CONTINUOUS
10
-1.147787
20
-47.177967
30
0.0
11
-1.147729
21
-47.477362
31
0.0
0
LINE
8
0
6
CONTINUOUS
10
-1.121796
20
-47.104262
30
0.0
11
-1.121763
21
-47.387242
31
0.0
0
LINE
8
0
6
CONTINUOUS
10
-1.095799
20
-47.477639
30
0.0
11
-1.095817
21
-47.178197
31
0.0
0
LINE
8
0
6
CONTINUOUS
10
-1.147813
20
-46.784457
30
0.0
11
-1.147787
21
-47.177967
31
0.0
0
LINE
8
0
6
CONTINUOUS
10
-1.121814
20
-46.732321
30
0.0
11
-1.121796
21
-47.104262
31
0.0
0
LINE
8
0
6
CONTINUOUS
10
-1.095817
20
-47.178197
30
0.0
11
-1.095827
21
-46.784613
31
0.0
0
LINE
8
0
6
CONTINUOUS
10
-1.147811
20
-46.328652
30
0.0
11
-1.147813
21
-46.784457
31
0.0
0
LINE
8
0
6
CONTINUOUS
10
-1.121812
20
-46.301516
30
0.0
11
-1.121814
21
-46.732321
31
0.0
0
LINE
8
0
6
CONTINUOUS
10
-1.095827
20
-46.784613
30
0.0
11
-1.095827
21
-46.328757
31
0.0
0
LINE
8
0
6
CONTINUOUS
10
-1.147802
20
-45.832402
30
0.0
11
-1.147811
21
-46.328652
31
0.0
0
LINE
8
0
6
CONTINUOUS
10
-1.121805
20
-45.832462
30
0.0
11
-1.121812
21
-46.301516
31
0.0
0
LINE
8
0
6
CONTINUOUS
10
-1.095827
20
-46.328757
30
0.0
11
-1.095825
21
-45.832406
31
0.0
0
LINE
8
0
6
CONTINUOUS
10
-1.147781
20
-45.337838
30
0.0
11
-1.147802
21
-45.832402
31
0.0
0
LINE
8
0
6
CONTINUOUS
10
-1.121793
20
-45.365007
30
0.0
11
-1.121805
21
-45.832462
31
0.0
0
LINE
8
0
6
CONTINUOUS
10
-1.095825
20
-45.832406
30
0.0
11
-1.095817
21
-45.337749
31
0.0
0
LINE
8
0
6
CONTINUOUS
10
-1.148330
20
-44.875927
30
0.0
11
-1.147781
21
-45.337838
31
0.0
0
LINE
8
0
6
CONTINUOUS
10
-1.122140
20
-44.928432
30
0.0
11
-1.121793
21
-45.365007
31
0.0
0
LINE
8
0
6
CONTINUOUS
10
-1.095817
20
-45.337749
30
0.0
11
-1.096000
21
-44.875790
31
0.0
0
LINE
8
0
6
CONTINUOUS
10
-1.147817
20
-44.489364
30
0.0
11
-1.148330
21
-44.875927
31
0.0
0
LINE
8
0
6
CONTINUOUS
10
-1.121816
20
-44.563057
30
0.0
11
-1.122140
21
-44.928432
31
0.0
0
LINE
8
0
6
CONTINUOUS
10
-1.096000
20
-44.875790
30
0.0
11
-1.095827
21
-44.489154
31
0.0
0
LINE
8
0
6
CONTINUOUS
10
-1.147640
20
-44.194475
30
0.0
11
-1.147817
21
-44.489364
31
0.0
0
LINE
8
0
6
CONTINUOUS
10
-1.121706
20
-44.284338
30
0.0
11
-1.121816
21
-44.563057
31
0.0
0
LINE
8
0
6
CONTINUOUS
10
-1.095827
20
-44.489154
30
0.0
11
-1.095768
21
-44.194223
31
0.0
0
LINE
8
0
6
CONTINUOUS
10
-1.147567
20
-44.013352
30
0.0
11
-1.147640
21
-44.194475
31
0.0
0
LINE
8
0
6
CONTINUOUS
10
-1.121658
20
-44.113157
30
0.0
11
-1.121706
21
-44.284338
31
0.0
0
LINE
8
0
6
CONTINUOUS
10
-1.095768
20
-44.194223
30
0.0
11
-1.095747
21
-44.013096
31
0.0
0
LINE
8
0
6
CONTINUOUS
10
-1.147508
20
-43.953193
30
0.0
11
-1.147567
21
-44.013352
31
0.0
0
LINE
8
0
6
CONTINUOUS
10
-1.121622
20
-44.056298
30
0.0
11
-1.121658
21
-44.113157
31
0.0
0
LINE
8
0
6
CONTINUOUS
10
-1.095747
20
-44.013096
30
0.0
11
-1.095725
21
-43.952931
31
0.0
0
LINE
8
0
6
CONTINUOUS
10
-1.173399
20
-43.953323
30
0.0
11
-1.147508
21
-43.953193
31
0.0
0
LINE
8
0
6
CONTINUOUS
10
-1.147508
20
-43.953193
30
0.0
11
-1.121622
21
-44.056298
31
0.0
0
LINE
8
0
6
CONTINUOUS
10
-1.121622
20
-44.056298
30
0.0
11
-1.095725
21
-43.952931
31
0.0
0
LINE
8
0
6
CONTINUOUS
10
-5.601354
20
-47.676667
30
0.0
11
-5.682281
21
-47.675839
31
0.0
0
LINE
8
0
6
CONTINUOUS
10
1.975710
20
-49.553322
30
0.0
11
2.643225
21
-49.492758
31
0.0
0
LINE
8
0
6
CONTINUOUS
10
-5.682281
20
-47.675839
30
0.0
11
-5.682281
21
-47.616367
31
0.0
0
LINE
8
0
6
CONTINUOUS
10
-5.682281
20
-47.616367
30
0.0
11
-5.682281
21
-47.434610
31
0.0
0
LINE
8
0
6
CONTINUOUS
10
-5.682281
20
-47.434610
30
0.0
11
-5.682281
21
-47.142518
31
0.0
0
LINE
8
0
6
CONTINUOUS
10
-5.682281
20
-47.142518
30
0.0
11
-5.682281
21
-46.760336
31
0.0
0
LINE
8
0
6
CONTINUOUS
10
-5.682281
20
-46.760336
30
0.0
11
-5.682281
21
-46.312430
31
0.0
0
LINE
8
0
6
CONTINUOUS
10
-5.682281
20
-46.312430
30
0.0
11
-5.682281
21
-45.831787
31
0.0
0
LINE
8
0
6
CONTINUOUS
10
-5.682281
20
-45.831787
30
0.0
11
-5.682281
21
-45.351577
31
0.0
0
LINE
8
0
6
CONTINUOUS
10
-5.682281
20
-45.351577
30
0.0
11
-5.682281
21
-44.896924
31
0.0
0
LINE
8
0
6
CONTINUOUS
10
-3.685686
20
-43.925008
30
0.0
11
-3.629487
21
-43.924185
31
0.0
0
LINE
8
0
6
CONTINUOUS
10
-5.711584
20
-43.954667
30
0.0
11
-5.657057
21
-43.953384
31
0.0
0
LINE
8
0
6
CONTINUOUS
10
-5.657057
20
-43.953384
30
0.0
11
-3.685686
21
-43.925008
31
0.0
0
LINE
8
0
6
CONTINUOUS
10
-3.630015
20
-44.325515
30
0.0
11
-3.629243
21
-44.437174
31
0.0
0
LINE
8
0
6
CONTINUOUS
10
-3.630501
20
-44.184173
30
0.0
11
-3.630015
21
-44.325515
31
0.0
0
LINE
8
0
6
CONTINUOUS
10
-3.630574
20
-44.051022
30
0.0
11
-3.630501
21
-44.184173
31
0.0
0
LINE
8
0
6
CONTINUOUS
10
-3.629487
20
-43.924185
30
0.0
11
-3.630189
21
-43.945676
31
0.0
0
LINE
8
0
6
CONTINUOUS
10
-3.628634
20
-43.976245
30
0.0
11
-3.629487
21
-43.924185
31
0.0
0
LINE
8
0
6
CONTINUOUS
10
-3.629243
20
-44.437174
30
0.0
11
-3.623956
21
-45.003304
31
0.0
0
LINE
8
0
6
CONTINUOUS
10
-3.623350
20
-44.542372
30
0.0
11
-3.628634
21
-43.976245
31
0.0
0
LINE
8
0
6
CONTINUOUS
10
-3.630189
20
-43.945676
30
0.0
11
-3.630574
21
-44.051022
31
0.0
0
LINE
8
0
6
CONTINUOUS
10
-5.710710
20
-44.456499
30
0.0
11
-5.711526
21
-44.344983
31
0.0
0
LINE
8
0
6
CONTINUOUS
10
-5.711526
20
-44.344983
30
0.0
11
-5.712133
21
-44.204033
31
0.0
0
LINE
8
0
6
CONTINUOUS
10
-5.712133
20
-44.204033
30
0.0
11
-5.712367
21
-44.071418
31
0.0
0
LINE
8
0
6
CONTINUOUS
10
-5.712165
20
-43.975765
30
0.0
11
-5.711584
21
-43.954667
31
0.0
0
LINE
8
0
6
CONTINUOUS
10
-5.705424
20
-45.022629
30
0.0
11
-5.710710
21
-44.456499
31
0.0
0
LINE
8
0
6
CONTINUOUS
10
-5.712367
20
-44.071418
30
0.0
11
-5.712165
21
-43.975765
31
0.0
0
LINE
8
0
6
CONTINUOUS
10
16.363426
20
-49.492758
30
0.0
11
17.030940
21
-49.553322
31
0.0
0
LINE
8
0
6
CONTINUOUS
10
17.026893
20
-42.762850
30
0.0
11
16.362818
21
-42.828295
31
0.0
0
LINE
8
0
6
CONTINUOUS
10
16.362818
20
-42.828295
30
0.0
11
15.722622
21
-43.018424
31
0.0
0
LINE
8
0
6
CONTINUOUS
10
15.722622
20
-43.018424
30
0.0
11
15.128771
21
-43.339351
31
0.0
0
LINE
8
0
6
CONTINUOUS
10
15.128771
20
-43.339351
30
0.0
11
14.615675
21
-43.765502
31
0.0
0
LINE
8
0
6
CONTINUOUS
10
14.615675
20
-43.765502
30
0.0
11
14.497357
21
-43.909551
31
0.0
0
LINE
8
0
6
CONTINUOUS
10
14.052960
20
-47.768022
30
0.0
11
14.210295
21
-48.058728
31
0.0
0
LINE
8
0
6
CONTINUOUS
10
14.210295
20
-48.058728
30
0.0
11
14.632469
21
-48.575314
31
0.0
0
LINE
8
0
6
CONTINUOUS
10
14.632469
20
-48.575314
30
0.0
11
15.151718
21
-48.990465
31
0.0
0
LINE
8
0
6
CONTINUOUS
10
15.151718
20
-48.990465
30
0.0
11
15.734043
21
-49.298267
31
0.0
0
LINE
8
0
6
CONTINUOUS
10
15.734043
20
-49.298267
30
0.0
11
16.363426
21
-49.492758
31
0.0
0
LINE
8
0
6
CONTINUOUS
10
16.363426
20
-49.492758
30
0.0
11
17.030940
21
-49.553322
31
0.0
0
LINE
8
0
6
CONTINUOUS
10
17.030940
20
-49.553322
30
0.0
11
17.685142
21
-49.487371
31
0.0
0
LINE
8
0
6
CONTINUOUS
10
17.685142
20
-49.487371
30
0.0
11
18.316295
21
-49.301220
31
0.0
0
LINE
8
0
6
CONTINUOUS
10
18.316295
20
-49.301220
30
0.0
11
18.906546
21
-48.983732
31
0.0
0
LINE
8
0
6
CONTINUOUS
10
18.906546
20
-48.983732
30
0.0
11
19.415267
21
-48.566449
31
0.0
0
LINE
8
0
6
CONTINUOUS
10
19.415267
20
-48.566449
30
0.0
11
19.838371
21
-48.061305
31
0.0
0
LINE
8
0
6
CONTINUOUS
10
19.838371
20
-48.061305
30
0.0
11
20.019987
21
-47.723173
31
0.0
0
LINE
8
0
6
CONTINUOUS
10
19.584011
20
-43.948099
30
0.0
11
19.436560
21
-43.765302
31
0.0
0
LINE
8
0
6
CONTINUOUS
10
19.436560
20
-43.765302
30
0.0
11
18.921378
21
-43.343645
31
0.0
0
LINE
8
0
6
CONTINUOUS
10
18.921378
20
-43.343645
30
0.0
11
18.335600
21
-43.026569
31
0.0
0
LINE
8
0
6
CONTINUOUS
10
18.335600
20
-43.026569
30
0.0
11
17.692611
21
-42.824453
31
0.0
0
LINE
8
0
6
CONTINUOUS
10
17.692611
20
-42.824453
30
0.0
11
17.026893
21
-42.762850
31
0.0
0
LINE
8
0
6
CONTINUOUS
10
17.935339
20
-43.932361
30
0.0
11
16.978236
21
-43.923793
31
0.0
0
LINE
8
0
6
CONTINUOUS
10
17.028602
20
-42.825591
30
0.0
11
16.374153
21
-42.890023
31
0.0
0
LINE
8
0
6
CONTINUOUS
10
16.374153
20
-42.890023
30
0.0
11
15.744700
21
-43.080612
31
0.0
0
LINE
8
0
6
CONTINUOUS
10
15.744700
20
-43.080612
30
0.0
11
15.165640
21
-43.390552
31
0.0
0
LINE
8
0
6
CONTINUOUS
10
15.165640
20
-43.390552
30
0.0
11
14.657607
21
-43.808049
31
0.0
0
LINE
8
0
6
CONTINUOUS
10
14.657607
20
-43.808049
30
0.0
11
14.574052
21
-43.909882
31
0.0
0
LINE
8
0
6
CONTINUOUS
10
14.095426
20
-47.767887
30
0.0
11
14.242328
21
-48.040597
31
0.0
0
LINE
8
0
6
CONTINUOUS
10
14.242328
20
-48.040597
30
0.0
11
14.658813
21
-48.548937
31
0.0
0
LINE
8
0
6
CONTINUOUS
10
14.658813
20
-48.548937
30
0.0
11
15.168993
21
-48.961631
31
0.0
0
LINE
8
0
6
CONTINUOUS
10
15.168993
20
-48.961631
30
0.0
11
15.748279
21
-49.269336
31
0.0
0
LINE
8
0
6
CONTINUOUS
10
15.748279
20
-49.269336
30
0.0
11
16.375606
21
-49.460921
31
0.0
0
LINE
8
0
6
CONTINUOUS
10
16.375606
20
-49.460921
30
0.0
11
17.028488
21
-49.522349
31
0.0
0
LINE
8
0
6
CONTINUOUS
10
17.028488
20
-49.522349
30
0.0
11
17.680525
21
-49.457339
31
0.0
0
LINE
8
0
6
CONTINUOUS
10
17.680525
20
-49.457339
30
0.0
11
18.308502
21
-49.269292
31
0.0
0
LINE
8
0
6
CONTINUOUS
10
18.308502
20
-49.269292
30
0.0
11
18.886351
21
-48.959295
31
0.0
0
LINE
8
0
6
CONTINUOUS
10
18.886351
20
-48.959295
30
0.0
11
19.393299
21
-48.543699
31
0.0
0
LINE
8
0
6
CONTINUOUS
10
19.393299
20
-48.543699
30
0.0
11
19.812056
21
-48.038682
31
0.0
0
LINE
8
0
6
CONTINUOUS
10
19.812056
20
-48.038682
30
0.0
11
19.980946
21
-47.723602
31
0.0
0
LINE
8
0
6
CONTINUOUS
10
19.512856
20
-43.947420
30
0.0
11
19.399154
21
-43.808569
31
0.0
0
LINE
8
0
6
CONTINUOUS
10
19.399154
20
-43.808569
30
0.0
11
18.890990
21
-43.391475
31
0.0
0
LINE
8
0
6
CONTINUOUS
10
18.890990
20
-43.391475
30
0.0
11
18.311363
21
-43.081172
31
0.0
0
LINE
8
0
6
CONTINUOUS
10
18.311363
20
-43.081172
30
0.0
11
17.683131
21
-42.889743
31
0.0
0
LINE
8
0
6
CONTINUOUS
10
17.683131
20
-42.889743
30
0.0
11
17.028602
21
-42.825591
31
0.0
0
LINE
8
0
6
CONTINUOUS
10
10.518259
20
-47.779295
30
0.0
11
16.218737
21
-47.761115
31
0.0
0
LINE
8
0
6
CONTINUOUS
10
9.503325
20
-43.887955
30
0.0
11
16.218868
21
-43.916995
31
0.0
0
LINE
8
0
6
CONTINUOUS
10
17.935401
20
-47.746051
30
0.0
11
20.076483
21
-47.722553
31
0.0
0
LINE
8
0
6
CONTINUOUS
10
17.935339
20
-43.932361
30
0.0
11
20.076483
21
-43.952800
31
0.0
0
LINE
8
0
6
CONTINUOUS
10
16.218737
20
-47.761115
30
0.0
11
16.978645
21
-47.756100
31
0.0
0
LINE
8
0
6
CONTINUOUS
10
16.218868
20
-43.916995
30
0.0
11
16.978236
21
-43.923793
31
0.0
0
LINE
8
0
6
CONTINUOUS
10
17.935401
20
-47.746051
30
0.0
11
16.978645
21
-47.756100
31
0.0
0
LINE
8
0
6
CONTINUOUS
10
20.076483
20
-47.722553
30
0.0
11
20.102409
21
-47.722402
31
0.0
0
LINE
8
0
6
CONTINUOUS
10
20.076483
20
-43.952800
30
0.0
11
20.102378
21
-43.952931
31
0.0
0
LINE
8
0
6
CONTINUOUS
10
20.180183
20
-47.721951
30
0.0
11
24.608004
21
-47.676667
31
0.0
0
LINE
8
0
6
CONTINUOUS
10
20.180053
20
-43.953323
30
0.0
11
22.635301
21
-43.975164
31
0.0
0
LINE
8
0
6
CONTINUOUS
10
20.154258
20
-47.722102
30
0.0
11
20.180183
21
-47.721951
31
0.0
0
LINE
8
0
6
CONTINUOUS
10
20.128334
20
-47.618557
30
0.0
11
20.154258
21
-47.722102
31
0.0
0
LINE
8
0
6
CONTINUOUS
10
20.154258
20
-47.722102
30
0.0
11
20.154319
21
-47.663129
31
0.0
0
LINE
8
0
6
CONTINUOUS
10
20.102409
20
-47.722402
30
0.0
11
20.128334
21
-47.618557
31
0.0
0
LINE
8
0
6
CONTINUOUS
10
20.102432
20
-47.663433
30
0.0
11
20.102409
21
-47.722402
31
0.0
0
LINE
8
0
6
CONTINUOUS
10
20.128334
20
-47.618557
30
0.0
11
20.128376
21
-47.562823
31
0.0
0
LINE
8
0
6
CONTINUOUS
10
20.154319
20
-47.663129
30
0.0
11
20.154379
21
-47.477362
31
0.0
0
LINE
8
0
6
CONTINUOUS
10
20.102451
20
-47.477639
30
0.0
11
20.102432
21
-47.663433
31
0.0
0
LINE
8
0
6
CONTINUOUS
10
20.128376
20
-47.562823
30
0.0
11
20.128413
21
-47.387242
31
0.0
0
LINE
8
0
6
CONTINUOUS
10
20.154379
20
-47.477362
30
0.0
11
20.154438
21
-47.177967
31
0.0
0
LINE
8
0
6
CONTINUOUS
10
20.102469
20
-47.178197
30
0.0
11
20.102451
21
-47.477639
31
0.0
0
LINE
8
0
6
CONTINUOUS
10
20.128413
20
-47.387242
30
0.0
11
20.128448
21
-47.104262
31
0.0
0
LINE
8
0
6
CONTINUOUS
10
20.154438
20
-47.177967
30
0.0
11
20.154463
21
-46.784457
31
0.0
0
LINE
8
0
6
CONTINUOUS
10
20.102477
20
-46.784613
30
0.0
11
20.102469
21
-47.178197
31
0.0
0
LINE
8
0
6
CONTINUOUS
10
20.128448
20
-47.104262
30
0.0
11
20.128462
21
-46.732321
31
0.0
0
LINE
8
0
6
CONTINUOUS
10
20.154463
20
-46.784457
30
0.0
11
20.154463
21
-46.328652
31
0.0
0
LINE
8
0
6
CONTINUOUS
10
20.102477
20
-46.328757
30
0.0
11
20.102477
21
-46.784613
31
0.0
0
LINE
8
0
6
CONTINUOUS
10
20.128462
20
-46.732321
30
0.0
11
20.128462
21
-46.301516
31
0.0
0
LINE
8
0
6
CONTINUOUS
10
20.154463
20
-46.328652
30
0.0
11
20.154452
21
-45.832402
31
0.0
0
LINE
8
0
6
CONTINUOUS
10
20.102477
20
-45.832406
30
0.0
11
20.102477
21
-46.328757
31
0.0
0
LINE
8
0
6
CONTINUOUS
10
20.128462
20
-46.301516
30
0.0
11
20.128455
21
-45.832462
31
0.0
0
LINE
8
0
6
CONTINUOUS
10
20.154452
20
-45.832402
30
0.0
11
20.154434
21
-45.337838
31
0.0
0
LINE
8
0
6
CONTINUOUS
10
20.102469
20
-45.337749
30
0.0
11
20.102477
21
-45.832406
31
0.0
0
LINE
8
0
6
CONTINUOUS
10
20.128455
20
-45.832462
30
0.0
11
20.128443
21
-45.365007
31
0.0
0
LINE
8
0
6
CONTINUOUS
10
20.154434
20
-45.337838
30
0.0
11
20.154983
21
-44.875927
31
0.0
0
LINE
8
0
6
CONTINUOUS
10
20.102653
20
-44.875790
30
0.0
11
20.102469
21
-45.337749
31
0.0
0
LINE
8
0
6
CONTINUOUS
10
20.128443
20
-45.365007
30
0.0
11
20.128790
21
-44.928432
31
0.0
0
LINE
8
0
6
CONTINUOUS
10
20.154983
20
-44.875927
30
0.0
11
20.154467
21
-44.489364
31
0.0
0
LINE
8
0
6
CONTINUOUS
10
20.102477
20
-44.489154
30
0.0
11
20.102653
21
-44.875790
31
0.0
0
LINE
8
0
6
CONTINUOUS
10
20.128790
20
-44.928432
30
0.0
11
20.128466
21
-44.563057
31
0.0
0
LINE
8
0
6
CONTINUOUS
10
20.154467
20
-44.489364
30
0.0
11
20.154289
21
-44.194475
31
0.0
0
LINE
8
0
6
CONTINUOUS
10
20.102420
20
-44.194223
30
0.0
11
20.102477
21
-44.489154
31
0.0
0
LINE
8
0
6
CONTINUOUS
10
20.128466
20
-44.563057
30
0.0
11
20.128356
21
-44.284338
31
0.0
0
LINE
8
0
6
CONTINUOUS
10
20.154289
20
-44.194475
30
0.0
11
20.154219
21
-44.013352
31
0.0
0
LINE
8
0
6
CONTINUOUS
10
20.102398
20
-44.013096
30
0.0
11
20.102420
21
-44.194223
31
0.0
0
LINE
8
0
6
CONTINUOUS
10
20.128356
20
-44.284338
30
0.0
11
20.128311
21
-44.113157
31
0.0
0
LINE
8
0
6
CONTINUOUS
10
20.154219
20
-44.013352
30
0.0
11
20.154158
21
-43.953193
31
0.0
0
LINE
8
0
6
CONTINUOUS
10
20.102378
20
-43.952931
30
0.0
11
20.102398
21
-44.013096
31
0.0
0
LINE
8
0
6
CONTINUOUS
10
20.128311
20
-44.113157
30
0.0
11
20.128273
21
-44.056298
31
0.0
0
LINE
8
0
6
CONTINUOUS
10
20.154158
20
-43.953193
30
0.0
11
20.180053
21
-43.953323
31
0.0
0
LINE
8
0
6
CONTINUOUS
10
20.128273
20
-44.056298
30
0.0
11
20.154158
21
-43.953193
31
0.0
0
LINE
8
0
6
CONTINUOUS
10
20.102378
20
-43.952931
30
0.0
11
20.128273
21
-44.056298
31
0.0
0
LINE
8
0
6
CONTINUOUS
10
24.688933
20
-47.675839
30
0.0
11
24.608004
21
-47.676667
31
0.0
0
LINE
8
0
6
CONTINUOUS
10
16.363426
20
-49.492758
30
0.0
11
17.030940
21
-49.553322
31
0.0
0
LINE
8
0
6
CONTINUOUS
10
24.688933
20
-47.616367
30
0.0
11
24.688933
21
-47.675839
31
0.0
0
LINE
8
0
6
CONTINUOUS
10
24.688933
20
-47.434610
30
0.0
11
24.688933
21
-47.616367
31
0.0
0
LINE
8
0
6
CONTINUOUS
10
24.688933
20
-47.142518
30
0.0
11
24.688933
21
-47.434610
31
0.0
0
LINE
8
0
6
CONTINUOUS
10
24.688933
20
-46.760336
30
0.0
11
24.688933
21
-47.142518
31
0.0
0
LINE
8
0
6
CONTINUOUS
10
24.688933
20
-46.312430
30
0.0
11
24.688933
21
-46.760336
31
0.0
0
LINE
8
0
6
CONTINUOUS
10
24.688933
20
-45.831787
30
0.0
11
24.688933
21
-46.312430
31
0.0
0
LINE
8
0
6
CONTINUOUS
10
24.688933
20
-45.351577
30
0.0
11
24.688933
21
-45.831787
31
0.0
0
LINE
8
0
6
CONTINUOUS
10
24.688933
20
-44.988116
30
0.0
11
24.688933
21
-45.351577
31
0.0
0
LINE
8
0
6
CONTINUOUS
10
22.636137
20
-43.924185
30
0.0
11
22.692337
21
-43.925008
31
0.0
0
LINE
8
0
6
CONTINUOUS
10
24.688933
20
-45.022283
30
0.0
11
24.712073
21
-45.022629
31
0.0
0
LINE
8
0
6
CONTINUOUS
10
24.663707
20
-43.953384
30
0.0
11
24.718234
21
-43.954667
31
0.0
0
LINE
8
0
6
CONTINUOUS
10
22.692337
20
-43.925008
30
0.0
11
24.663707
21
-43.953384
31
0.0
0
LINE
8
0
6
CONTINUOUS
10
22.635893
20
-44.437174
30
0.0
11
22.636664
21
-44.325515
31
0.0
0
LINE
8
0
6
CONTINUOUS
10
22.636664
20
-44.325515
30
0.0
11
22.637153
21
-44.184173
31
0.0
0
LINE
8
0
6
CONTINUOUS
10
22.637153
20
-44.184173
30
0.0
11
22.637225
21
-44.051022
31
0.0
0
LINE
8
0
6
CONTINUOUS
10
22.636840
20
-43.945676
30
0.0
11
22.636137
21
-43.924185
31
0.0
0
LINE
8
0
6
CONTINUOUS
10
22.636137
20
-43.924185
30
0.0
11
22.635301
21
-43.975164
31
0.0
0
LINE
8
0
6
CONTINUOUS
10
22.630606
20
-45.003304
30
0.0
11
22.635893
21
-44.437174
31
0.0
0
LINE
8
0
6
CONTINUOUS
10
22.635283
20
-43.976245
30
0.0
11
22.630000
21
-44.542372
31
0.0
0
LINE
8
0
6
CONTINUOUS
10
22.637225
20
-44.051022
30
0.0
11
22.636840
21
-43.945676
31
0.0
0
LINE
8
0
6
CONTINUOUS
10
24.718176
20
-44.344983
30
0.0
11
24.717361
21
-44.456499
31
0.0
0
LINE
8
0
6
CONTINUOUS
10
24.718783
20
-44.204033
30
0.0
11
24.718176
21
-44.344983
31
0.0
0
LINE
8
0
6
CONTINUOUS
10
24.719017
20
-44.071418
30
0.0
11
24.718783
21
-44.204033
31
0.0
0
LINE
8
0
6
CONTINUOUS
10
24.718234
20
-43.954667
30
0.0
11
24.718818
21
-43.975765
31
0.0
0
LINE
8
0
6
CONTINUOUS
10
24.717361
20
-44.456499
30
0.0
11
24.712073
21
-45.022629
31
0.0
0
LINE
8
0
6
CONTINUOUS
10
24.718818
20
-43.975765
30
0.0
11
24.719017
21
-44.071418
31
0.0
0
LINE
8
0
6
CONTINUOUS
10
-12.034229
20
45.320638
30
0.0
11
-11.997709
21
45.437589
31
0.0
0
LINE
8
0
6
CONTINUOUS
10
-15.931292
20
33.885484
30
0.0
11
-15.770141
21
36.908464
31
0.0
0
LINE
8
0
6
CONTINUOUS
10
-15.770141
20
36.908464
30
0.0
11
-15.644708
21
39.248353
31
0.0
0
LINE
8
0
6
CONTINUOUS
10
-15.644708
20
39.248353
30
0.0
11
-15.543522
21
41.142961
31
0.0
0
LINE
8
0
6
CONTINUOUS
10
-15.559304
20
41.727918
30
0.0
11
-15.288941
21
42.278844
31
0.0
0
LINE
8
0
6
CONTINUOUS
10
-11.995337
20
45.456602
30
0.0
11
-11.931059
21
45.971845
31
0.0
0
LINE
8
0
6
CONTINUOUS
10
-11.897706
20
46.565359
30
0.0
11
-11.906016
21
47.390325
31
0.0
0
LINE
8
0
6
CONTINUOUS
10
-11.900510
20
46.515462
30
0.0
11
-11.897706
21
46.565359
31
0.0
0
LINE
8
0
6
CONTINUOUS
10
-15.978748
20
50.040311
30
0.0
11
-17.284995
21
50.124425
31
0.0
0
LINE
8
0
6
CONTINUOUS
10
-14.741843
20
49.772672
30
0.0
11
-15.978748
21
50.040311
31
0.0
0
LINE
8
0
6
CONTINUOUS
10
-13.618610
20
49.311223
30
0.0
11
-14.741843
21
49.772672
31
0.0
0
LINE
8
0
6
CONTINUOUS
10
-12.375263
20
48.288541
30
0.0
11
-12.784254
21
48.712369
31
0.0
0
LINE
8
0
6
CONTINUOUS
10
-12.283541
20
48.179792
30
0.0
11
-12.375263
21
48.288541
31
0.0
0
LINE
8
0
6
CONTINUOUS
10
-12.891545
20
48.821592
30
0.0
11
-13.618610
21
49.311223
31
0.0
0
LINE
8
0
6
CONTINUOUS
10
-12.784254
20
48.712369
30
0.0
11
-12.891545
21
48.821592
31
0.0
0
LINE
8
0
6
CONTINUOUS
10
-15.617016
20
41.622518
30
0.0
11
-15.288941
21
42.278844
31
0.0
0
LINE
8
0
6
CONTINUOUS
10
-15.288941
20
42.278844
30
0.0
11
-14.881365
21
42.687734
31
0.0
0
LINE
8
0
6
CONTINUOUS
10
-13.447538
20
43.587201
30
0.0
11
-13.026262
21
43.879072
31
0.0
0
LINE
8
0
6
CONTINUOUS
10
-13.085912
20
43.878583
30
0.0
11
-13.497679
21
43.586049
31
0.0
0
LINE
8
0
6
CONTINUOUS
10
-13.912346
20
43.319387
30
0.0
11
-13.447538
21
43.587201
31
0.0
0
LINE
8
0
6
CONTINUOUS
10
-13.497679
20
43.586049
30
0.0
11
-13.956523
21
43.315778
31
0.0
0
LINE
8
0
6
CONTINUOUS
10
-15.964322
20
48.536703
30
0.0
11
-14.691377
21
48.252363
31
0.0
0
LINE
8
0
6
CONTINUOUS
10
-14.689297
20
48.303892
30
0.0
11
-15.964251
21
48.591977
31
0.0
0
LINE
8
0
6
CONTINUOUS
10
-13.956523
20
43.315778
30
0.0
11
-14.463849
21
43.020025
31
0.0
0
LINE
8
0
6
CONTINUOUS
10
-14.428582
20
43.028646
30
0.0
11
-13.912346
21
43.319387
31
0.0
0
LINE
8
0
6
CONTINUOUS
10
-13.026262
20
43.879072
30
0.0
11
-12.361798
21
44.560399
31
0.0
0
LINE
8
0
6
CONTINUOUS
10
-12.438505
20
44.555463
30
0.0
11
-13.085912
21
43.878583
31
0.0
0
LINE
8
0
6
CONTINUOUS
10
-14.881365
20
42.687734
30
0.0
11
-14.428582
21
43.028646
31
0.0
0
LINE
8
0
6
CONTINUOUS
10
-15.556512
20
40.923864
30
0.0
11
-15.475252
21
41.890524
31
0.0
0
LINE
8
0
6
CONTINUOUS
10
-11.931059
20
45.971845
30
0.0
11
-11.900510
21
46.515462
31
0.0
0
LINE
8
0
6
CONTINUOUS
10
-11.906016
20
47.390325
30
0.0
11
-12.283541
21
48.179792
31
0.0
0
LINE
8
0
6
CONTINUOUS
10
-16.004397
20
32.476774
30
0.0
11
-15.931292
21
33.885484
31
0.0
0
LINE
8
0
6
CONTINUOUS
10
-15.501473
20
41.833532
30
0.0
11
-15.475252
21
41.890524
31
0.0
0
LINE
8
0
6
CONTINUOUS
10
-11.997709
20
45.437589
30
0.0
11
-11.995337
21
45.456602
31
0.0
0
LINE
8
0
6
CONTINUOUS
10
-17.284957
20
31.615491
30
0.0
11
-16.978618
21
31.635373
31
0.0
0
LINE
8
0
6
CONTINUOUS
10
-16.978618
20
31.635373
30
0.0
11
-16.696794
21
31.693632
31
0.0
0
LINE
8
0
6
CONTINUOUS
10
-16.696794
20
31.693632
30
0.0
11
-16.456066
21
31.786294
31
0.0
0
LINE
8
0
6
CONTINUOUS
10
-16.116577
20
32.072538
30
0.0
11
-16.071725
21
32.157125
31
0.0
0
LINE
8
0
6
CONTINUOUS
10
-16.680349
20
31.706720
30
0.0
11
-16.432577
21
31.801805
31
0.0
0
LINE
8
0
6
CONTINUOUS
10
-16.179610
20
31.999132
30
0.0
11
-16.116577
21
32.072538
31
0.0
0
LINE
8
0
6
CONTINUOUS
10
-17.284957
20
31.626630
30
0.0
11
-16.970207
21
31.646982
31
0.0
0
LINE
8
0
6
CONTINUOUS
10
-16.071725
20
32.157125
30
0.0
11
-16.025173
21
32.244916
31
0.0
0
LINE
8
0
6
CONTINUOUS
10
-16.432577
20
31.801805
30
0.0
11
-16.242515
21
31.925878
31
0.0
0
LINE
8
0
6
CONTINUOUS
10
-16.242515
20
31.925878
30
0.0
11
-16.179610
21
31.999132
31
0.0
0
LINE
8
0
6
CONTINUOUS
10
-16.025173
20
32.244916
30
0.0
11
-16.005057
21
32.464040
31
0.0
0
LINE
8
0
6
CONTINUOUS
10
-16.005057
20
32.464040
30
0.0
11
-16.004397
21
32.476774
31
0.0
0
LINE
8
0
6
CONTINUOUS
10
-16.970207
20
31.646982
30
0.0
11
-16.680349
21
31.706720
31
0.0
0
LINE
8
0
6
CONTINUOUS
10
-22.572262
20
45.437574
30
0.0
11
-22.535742
21
45.320615
31
0.0
0
LINE
8
0
6
CONTINUOUS
10
-18.799793
20
36.908460
30
0.0
11
-18.638630
21
33.885480
31
0.0
0
LINE
8
0
6
CONTINUOUS
10
-18.925235
20
39.248350
30
0.0
11
-18.799793
21
36.908460
31
0.0
0
LINE
8
0
6
CONTINUOUS
10
-19.026428
20
41.142957
30
0.0
11
-18.925235
21
39.248350
31
0.0
0
LINE
8
0
6
CONTINUOUS
10
-18.812338
20
40.493436
30
0.0
11
-18.685108
21
38.623014
31
0.0
0
LINE
8
0
6
CONTINUOUS
10
-19.281015
20
42.278837
30
0.0
11
-19.010649
21
41.727910
31
0.0
0
LINE
8
0
6
CONTINUOUS
10
-22.638913
20
45.971822
30
0.0
11
-22.574634
21
45.456586
31
0.0
0
LINE
8
0
6
CONTINUOUS
10
-22.672267
20
46.565343
30
0.0
11
-22.669463
21
46.515447
31
0.0
0
LINE
8
0
6
CONTINUOUS
10
-22.663962
20
47.390310
30
0.0
11
-22.672267
21
46.565343
31
0.0
0
LINE
8
0
6
CONTINUOUS
10
-17.284995
20
50.124425
30
0.0
11
-18.591240
21
50.040311
31
0.0
0
LINE
8
0
6
CONTINUOUS
10
-18.591240
20
50.040311
30
0.0
11
-19.828143
21
49.772664
31
0.0
0
LINE
8
0
6
CONTINUOUS
10
-19.828143
20
49.772664
30
0.0
11
-20.951376
21
49.311216
31
0.0
0
LINE
8
0
6
CONTINUOUS
10
-21.785730
20
48.712354
30
0.0
11
-22.194719
21
48.288526
31
0.0
0
LINE
8
0
6
CONTINUOUS
10
-22.194719
20
48.288526
30
0.0
11
-22.286440
21
48.179777
31
0.0
0
LINE
8
0
6
CONTINUOUS
10
-21.678439
20
48.821576
30
0.0
11
-21.785730
21
48.712354
31
0.0
0
LINE
8
0
6
CONTINUOUS
10
-20.951376
20
49.311216
30
0.0
11
-21.678439
21
48.821576
31
0.0
0
LINE
8
0
6
CONTINUOUS
10
-19.281015
20
42.278837
30
0.0
11
-18.952937
21
41.622518
31
0.0
0
LINE
8
0
6
CONTINUOUS
10
-19.688592
20
42.687726
30
0.0
11
-19.281015
21
42.278837
31
0.0
0
LINE
8
0
6
CONTINUOUS
10
-18.812338
20
40.493436
30
0.0
11
-18.952937
21
41.622518
31
0.0
0
LINE
8
0
6
CONTINUOUS
10
-20.613437
20
43.315763
30
0.0
11
-21.072282
21
43.586034
31
0.0
0
LINE
8
0
6
CONTINUOUS
10
-21.122423
20
43.587186
30
0.0
11
-20.657615
21
43.319372
31
0.0
0
LINE
8
0
6
CONTINUOUS
10
-20.657615
20
43.319372
30
0.0
11
-20.141377
21
43.028638
31
0.0
0
LINE
8
0
6
CONTINUOUS
10
-20.106110
20
43.020017
30
0.0
11
-20.613437
21
43.315763
31
0.0
0
LINE
8
0
6
CONTINUOUS
10
-22.454080
20
45.317174
30
0.0
11
-22.427651
21
46.093381
31
0.0
0
LINE
8
0
6
CONTINUOUS
10
-22.508134
20
46.092901
30
0.0
11
-22.535742
21
45.320615
31
0.0
0
LINE
8
0
6
CONTINUOUS
10
-22.131461
20
44.555448
30
0.0
11
-22.454080
21
45.317174
31
0.0
0
LINE
8
0
6
CONTINUOUS
10
-22.535742
20
45.320615
30
0.0
11
-22.208168
21
44.560377
31
0.0
0
LINE
8
0
6
CONTINUOUS
10
-20.141377
20
43.028638
30
0.0
11
-19.688592
21
42.687726
31
0.0
0
LINE
8
0
6
CONTINUOUS
10
-19.094700
20
41.890515
30
0.0
11
-19.013437
21
40.923856
31
0.0
0
LINE
8
0
6
CONTINUOUS
10
-22.669463
20
46.515447
30
0.0
11
-22.638913
21
45.971822
31
0.0
0
LINE
8
0
6
CONTINUOUS
10
-22.286440
20
48.179777
30
0.0
11
-22.663962
21
47.390310
31
0.0
0
LINE
8
0
6
CONTINUOUS
10
-18.638630
20
33.885480
30
0.0
11
-18.565519
21
32.476770
31
0.0
0
LINE
8
0
6
CONTINUOUS
10
-19.094700
20
41.890515
30
0.0
11
-19.068480
21
41.833524
31
0.0
0
LINE
8
0
6
CONTINUOUS
10
-22.574634
20
45.456586
30
0.0
11
-22.572262
21
45.437574
31
0.0
0
LINE
8
0
6
CONTINUOUS
10
-17.591297
20
31.635373
30
0.0
11
-17.284957
21
31.615491
31
0.0
0
LINE
8
0
6
CONTINUOUS
10
-17.873120
20
31.693628
30
0.0
11
-17.591297
21
31.635373
31
0.0
0
LINE
8
0
6
CONTINUOUS
10
-18.498189
20
32.157121
30
0.0
11
-18.453339
21
32.072534
31
0.0
0
LINE
8
0
6
CONTINUOUS
10
-18.137338
20
31.801805
30
0.0
11
-17.889565
21
31.706716
31
0.0
0
LINE
8
0
6
CONTINUOUS
10
-18.453339
20
32.072534
30
0.0
11
-18.392456
21
32.001634
31
0.0
0
LINE
8
0
6
CONTINUOUS
10
-17.599707
20
31.646978
30
0.0
11
-17.284957
21
31.626630
31
0.0
0
LINE
8
0
6
CONTINUOUS
10
-18.544743
20
32.244913
30
0.0
11
-18.498189
21
32.157121
31
0.0
0
LINE
8
0
6
CONTINUOUS
10
-18.327399
20
31.925878
30
0.0
11
-18.137338
21
31.801805
31
0.0
0
LINE
8
0
6
CONTINUOUS
10
-18.390305
20
31.999128
30
0.0
11
-18.327399
21
31.925878
31
0.0
0
LINE
8
0
6
CONTINUOUS
10
-18.565519
20
32.476770
30
0.0
11
-18.564858
21
32.464036
31
0.0
0
LINE
8
0
6
CONTINUOUS
10
-18.564858
20
32.464036
30
0.0
11
-18.544743
21
32.244913
31
0.0
0
LINE
8
0
6
CONTINUOUS
10
-17.889565
20
31.706716
30
0.0
11
-17.599707
21
31.646978
31
0.0
0
LINE
8
0
6
CONTINUOUS
10
-16.257902
20
29.594064
30
0.0
11
-16.105956
21
32.017152
31
0.0
0
LINE
8
0
6
CONTINUOUS
10
-18.450130
20
32.017145
30
0.0
11
-18.423208
21
31.587852
31
0.0
0
LINE
8
0
6
CONTINUOUS
10
-16.396878
20
29.296430
30
0.0
11
-16.295231
21
29.419534
31
0.0
0
LINE
8
0
6
CONTINUOUS
10
-16.260561
20
29.551641
30
0.0
11
-16.257902
21
29.594064
31
0.0
0
LINE
8
0
6
CONTINUOUS
10
-16.295231
20
29.419534
30
0.0
11
-16.260561
21
29.551641
31
0.0
0
LINE
8
0
6
CONTINUOUS
10
-16.498368
20
29.230078
30
0.0
11
-16.396878
21
29.296430
31
0.0
0
LINE
8
0
6
CONTINUOUS
10
-18.106834
20
31.782873
30
0.0
11
-17.864086
21
31.689435
31
0.0
0
LINE
8
0
6
CONTINUOUS
10
-17.864086
20
31.689435
30
0.0
11
-17.581402
21
31.630693
31
0.0
0
LINE
8
0
6
CONTINUOUS
10
-17.581402
20
31.630693
30
0.0
11
-17.278043
21
31.610658
31
0.0
0
LINE
8
0
6
CONTINUOUS
10
-17.278043
20
31.610658
30
0.0
11
-16.974685
21
31.630697
31
0.0
0
LINE
8
0
6
CONTINUOUS
10
-16.974685
20
31.630697
30
0.0
11
-16.691999
21
31.689435
31
0.0
0
LINE
8
0
6
CONTINUOUS
10
-16.691999
20
31.689435
30
0.0
11
-16.449253
21
31.782876
31
0.0
0
LINE
8
0
6
CONTINUOUS
10
-16.449253
20
31.782876
30
0.0
11
-16.262986
21
31.904653
31
0.0
0
LINE
8
0
6
CONTINUOUS
10
-16.113967
20
40.669126
30
0.0
11
-16.427282
21
40.457082
31
0.0
0
LINE
8
0
6
CONTINUOUS
10
-16.427282
20
40.457082
30
0.0
11
-16.856050
21
40.358938
31
0.0
0
LINE
8
0
6
CONTINUOUS
10
-16.856050
20
40.358938
30
0.0
11
-17.280188
21
40.330839
31
0.0
0
LINE
8
0
6
CONTINUOUS
10
-15.888436
20
41.494886
30
0.0
11
-16.113967
21
40.669126
31
0.0
0
LINE
8
0
6
CONTINUOUS
10
-15.516875
20
42.234701
30
0.0
11
-15.888436
21
41.494886
31
0.0
0
LINE
8
0
6
CONTINUOUS
10
-18.127597
20
40.449861
30
0.0
11
-18.438265
21
40.593931
31
0.0
0
LINE
8
0
6
CONTINUOUS
10
-17.705588
20
40.351953
30
0.0
11
-18.127597
21
40.449861
31
0.0
0
LINE
8
0
6
CONTINUOUS
10
-17.280188
20
40.330839
30
0.0
11
-17.705588
21
40.351953
31
0.0
0
LINE
8
0
6
CONTINUOUS
10
-18.438265
20
40.593931
30
0.0
11
-18.648494
21
41.522684
31
0.0
0
LINE
8
0
6
CONTINUOUS
10
-18.648494
20
41.522684
30
0.0
11
-18.997660
21
42.244626
31
0.0
0
LINE
8
0
6
CONTINUOUS
10
-14.918361
20
42.701513
30
0.0
11
-14.896905
21
42.711645
31
0.0
0
LINE
8
0
6
CONTINUOUS
10
-13.572871
20
47.759588
30
0.0
11
-12.958279
21
47.344434
31
0.0
0
LINE
8
0
6
CONTINUOUS
10
-12.916332
20
47.363187
30
0.0
11
-13.567480
21
47.802137
31
0.0
0
LINE
8
0
6
CONTINUOUS
10
-14.691377
20
48.252363
30
0.0
11
-13.572871
21
47.759588
31
0.0
0
LINE
8
0
6
CONTINUOUS
10
-13.567480
20
47.802137
30
0.0
11
-14.689297
21
48.303892
31
0.0
0
LINE
8
0
6
CONTINUOUS
10
-17.284992
20
48.629957
30
0.0
11
-15.964322
21
48.536703
31
0.0
0
LINE
8
0
6
CONTINUOUS
10
-15.964251
20
48.591977
30
0.0
11
-17.284993
21
48.687398
31
0.0
0
LINE
8
0
6
CONTINUOUS
10
-12.034229
20
45.320638
30
0.0
11
-12.061840
21
46.092916
31
0.0
0
LINE
8
0
6
CONTINUOUS
10
-12.142323
20
46.093397
30
0.0
11
-12.115890
21
45.317190
31
0.0
0
LINE
8
0
6
CONTINUOUS
10
-12.426239
20
46.859357
30
0.0
11
-12.916332
21
47.363187
31
0.0
0
LINE
8
0
6
CONTINUOUS
10
-12.958279
20
47.344434
30
0.0
11
-12.495711
21
46.869024
31
0.0
0
LINE
8
0
6
CONTINUOUS
10
-14.463849
20
43.020025
30
0.0
11
-14.973865
21
42.700773
31
0.0
0
LINE
8
0
6
CONTINUOUS
10
-14.973865
20
42.700773
30
0.0
11
-14.918361
21
42.701513
31
0.0
0
LINE
8
0
6
CONTINUOUS
10
-12.495711
20
46.869024
30
0.0
11
-12.142323
21
46.093397
31
0.0
0
LINE
8
0
6
CONTINUOUS
10
-12.061840
20
46.092916
30
0.0
11
-12.426239
21
46.859357
31
0.0
0
LINE
8
0
6
CONTINUOUS
10
-12.361798
20
44.560399
30
0.0
11
-12.034229
21
45.320638
31
0.0
0
LINE
8
0
6
CONTINUOUS
10
-12.115890
20
45.317190
30
0.0
11
-12.438505
21
44.555463
31
0.0
0
LINE
8
0
6
CONTINUOUS
10
-19.673053
20
42.711637
30
0.0
11
-19.651596
21
42.701505
31
0.0
0
LINE
8
0
6
CONTINUOUS
10
-21.072282
20
43.586034
30
0.0
11
-21.484052
21
43.878576
31
0.0
0
LINE
8
0
6
CONTINUOUS
10
-21.543702
20
43.879056
30
0.0
11
-21.122423
21
43.587186
31
0.0
0
LINE
8
0
6
CONTINUOUS
10
-21.002501
20
47.802122
30
0.0
11
-21.653648
21
47.363172
31
0.0
0
LINE
8
0
6
CONTINUOUS
10
-21.611700
20
47.344419
30
0.0
11
-20.997112
21
47.759570
31
0.0
0
LINE
8
0
6
CONTINUOUS
10
-18.605734
20
48.591970
30
0.0
11
-19.880686
21
48.303884
31
0.0
0
LINE
8
0
6
CONTINUOUS
10
-19.878606
20
48.252355
30
0.0
11
-18.605663
21
48.536695
31
0.0
0
LINE
8
0
6
CONTINUOUS
10
-19.880686
20
48.303884
30
0.0
11
-21.002501
21
47.802122
31
0.0
0
LINE
8
0
6
CONTINUOUS
10
-20.997110
20
47.759572
30
0.0
11
-19.878606
21
48.252355
31
0.0
0
LINE
8
0
6
CONTINUOUS
10
-17.284993
20
48.687398
30
0.0
11
-18.605734
21
48.591970
31
0.0
0
LINE
8
0
6
CONTINUOUS
10
-18.605663
20
48.536695
30
0.0
11
-17.284992
21
48.629957
31
0.0
0
LINE
8
0
6
CONTINUOUS
10
-21.484052
20
43.878576
30
0.0
11
-22.131461
21
44.555448
31
0.0
0
LINE
8
0
6
CONTINUOUS
10
-22.208168
20
44.560377
30
0.0
11
-21.543702
21
43.879056
31
0.0
0
LINE
8
0
6
CONTINUOUS
10
-22.074267
20
46.869008
30
0.0
11
-21.611700
21
47.344419
31
0.0
0
LINE
8
0
6
CONTINUOUS
10
-21.653648
20
47.363172
30
0.0
11
-22.143739
21
46.859342
31
0.0
0
LINE
8
0
6
CONTINUOUS
10
-22.143739
20
46.859342
30
0.0
11
-22.508134
21
46.092901
31
0.0
0
LINE
8
0
6
CONTINUOUS
10
-22.427651
20
46.093381
30
0.0
11
-22.074267
21
46.869008
31
0.0
0
LINE
8
0
6
CONTINUOUS
10
-14.973865
20
42.700773
30
0.0
11
-15.241708
21
42.549779
31
0.0
0
LINE
8
0
6
CONTINUOUS
10
-15.241708
20
42.549779
30
0.0
11
-15.516875
21
42.234701
31
0.0
0
LINE
8
0
6
CONTINUOUS
10
-19.295785
20
42.529065
30
0.0
11
-19.588146
21
42.701406
31
0.0
0
LINE
8
0
6
CONTINUOUS
10
-18.997660
20
42.244626
30
0.0
11
-19.295783
21
42.529064
31
0.0
0
LINE
8
0
6
CONTINUOUS
10
-20.106110
20
43.020017
30
0.0
11
-19.651596
21
42.701505
31
0.0
0
LINE
8
0
6
CONTINUOUS
10
-19.588146
20
42.701406
30
0.0
11
-20.106110
21
43.020017
31
0.0
0
LINE
8
0
6
CONTINUOUS
10
-19.651596
20
42.701505
30
0.0
11
-19.588146
21
42.701406
31
0.0
0
LINE
8
0
6
CONTINUOUS
10
-14.973866
20
42.700771
30
0.0
11
-14.463850
21
43.020023
31
0.0
0
LINE
8
0
6
CONTINUOUS
10
-21.596675
20
43.996321
30
0.0
11
-21.484053
21
43.878574
31
0.0
0
LINE
8
0
6
CONTINUOUS
10
-12.115893
20
45.317188
30
0.0
11
-12.142326
21
46.093395
31
0.0
0
LINE
8
0
6
CONTINUOUS
10
-17.284996
20
48.629955
30
0.0
11
-18.605667
21
48.536693
31
0.0
0
LINE
8
0
6
CONTINUOUS
10
-15.964326
20
48.536701
30
0.0
11
-17.284996
21
48.629955
31
0.0
0
LINE
8
0
6
CONTINUOUS
10
-15.304207
20
42.528552
30
0.0
11
-15.874135
21
42.631534
31
0.0
0
LINE
8
0
6
CONTINUOUS
10
-15.578640
20
42.215091
30
0.0
11
-15.304207
21
42.528552
31
0.0
0
LINE
8
0
6
CONTINUOUS
10
-17.278830
20
42.674030
30
0.0
11
-16.540854
21
42.671809
31
0.0
0
LINE
8
0
6
CONTINUOUS
10
-15.874135
20
42.631534
30
0.0
11
-16.547736
21
42.641368
31
0.0
0
LINE
8
0
6
CONTINUOUS
10
-21.484053
20
43.878574
30
0.0
11
-21.072283
21
43.586032
31
0.0
0
LINE
8
0
6
CONTINUOUS
10
-22.454082
20
45.317172
30
0.0
11
-22.131464
21
44.555446
31
0.0
0
LINE
8
0
6
CONTINUOUS
10
-21.611703
20
47.344417
30
0.0
11
-22.074270
21
46.869006
31
0.0
0
LINE
8
0
6
CONTINUOUS
10
-20.997113
20
47.759570
30
0.0
11
-21.611703
21
47.344417
31
0.0
0
LINE
8
0
6
CONTINUOUS
10
-20.106111
20
43.020015
30
0.0
11
-19.588147
21
42.701404
31
0.0
0
LINE
8
0
6
CONTINUOUS
10
-18.131814
20
40.490955
30
0.0
11
-17.707608
21
40.391025
31
0.0
0
LINE
8
0
6
CONTINUOUS
10
-16.421978
20
40.503795
30
0.0
11
-16.151448
21
40.686710
31
0.0
0
LINE
8
0
6
CONTINUOUS
10
-16.151448
20
40.686710
30
0.0
11
-15.935942
21
41.480754
31
0.0
0
LINE
8
0
6
CONTINUOUS
10
-22.074270
20
46.869006
30
0.0
11
-22.427653
21
46.093379
31
0.0
0
LINE
8
0
6
CONTINUOUS
10
-19.295786
20
42.529063
30
0.0
11
-18.679961
21
42.717334
31
0.0
0
LINE
8
0
6
CONTINUOUS
10
-19.588147
20
42.701404
30
0.0
11
-19.295786
21
42.529063
31
0.0
0
LINE
8
0
6
CONTINUOUS
10
-16.540854
20
42.671809
30
0.0
11
-15.861197
21
42.661884
31
0.0
0
LINE
8
0
6
CONTINUOUS
10
-18.401733
20
40.616222
30
0.0
11
-18.131814
21
40.490955
31
0.0
0
LINE
8
0
6
CONTINUOUS
10
-18.601500
20
41.508022
30
0.0
11
-18.401733
21
40.616222
31
0.0
0
LINE
8
0
6
CONTINUOUS
10
-14.691381
20
48.252361
30
0.0
11
-15.964326
21
48.536701
31
0.0
0
LINE
8
0
6
CONTINUOUS
10
-19.878610
20
48.252353
30
0.0
11
-20.997112
21
47.759570
31
0.0
0
LINE
8
0
6
CONTINUOUS
10
-16.853691
20
40.398105
30
0.0
11
-16.421978
21
40.503795
31
0.0
0
LINE
8
0
6
CONTINUOUS
10
-18.679961
20
42.717334
30
0.0
11
-18.015318
21
42.696842
31
0.0
0
LINE
8
0
6
CONTINUOUS
10
-12.958283
20
47.344432
30
0.0
11
-13.572875
21
47.759586
31
0.0
0
LINE
8
0
6
CONTINUOUS
10
-12.495715
20
46.869022
30
0.0
11
-12.958283
21
47.344432
31
0.0
0
LINE
8
0
6
CONTINUOUS
10
-17.278834
20
42.643276
30
0.0
11
-18.008269
21
42.666415
31
0.0
0
LINE
8
0
6
CONTINUOUS
10
-18.605667
20
48.536693
30
0.0
11
-19.878610
21
48.252353
31
0.0
0
LINE
8
0
6
CONTINUOUS
10
-17.280184
20
40.369106
30
0.0
11
-16.853691
21
40.398105
31
0.0
0
LINE
8
0
6
CONTINUOUS
10
-13.497680
20
43.586047
30
0.0
11
-13.085913
21
43.878581
31
0.0
0
LINE
8
0
6
CONTINUOUS
10
-13.085913
20
43.878581
30
0.0
11
-12.438508
21
44.555461
31
0.0
0
LINE
8
0
6
CONTINUOUS
10
-18.015318
20
42.696842
30
0.0
11
-17.278830
21
42.674030
31
0.0
0
LINE
8
0
6
CONTINUOUS
10
-13.956524
20
43.315776
30
0.0
11
-13.497680
21
43.586047
31
0.0
0
LINE
8
0
6
CONTINUOUS
10
-20.613438
20
43.315761
30
0.0
11
-20.106111
21
43.020015
31
0.0
0
LINE
8
0
6
CONTINUOUS
10
-15.935942
20
41.480754
30
0.0
11
-15.578640
21
42.215091
31
0.0
0
LINE
8
0
6
CONTINUOUS
10
-21.072283
20
43.586032
30
0.0
11
-20.613438
21
43.315761
31
0.0
0
LINE
8
0
6
CONTINUOUS
10
-12.142326
20
46.093395
30
0.0
11
-12.495715
21
46.869022
31
0.0
0
LINE
8
0
6
CONTINUOUS
10
-14.463850
20
43.020023
30
0.0
11
-13.956524
21
43.315776
31
0.0
0
LINE
8
0
6
CONTINUOUS
10
-22.427653
20
46.093379
30
0.0
11
-22.454082
21
45.317172
31
0.0
0
LINE
8
0
6
CONTINUOUS
10
-13.572875
20
47.759586
30
0.0
11
-14.691381
21
48.252361
31
0.0
0
LINE
8
0
6
CONTINUOUS
10
-12.438508
20
44.555461
30
0.0
11
-12.115893
21
45.317188
31
0.0
0
LINE
8
0
6
CONTINUOUS
10
-18.008269
20
42.666415
30
0.0
11
-18.666763
21
42.685657
31
0.0
0
LINE
8
0
6
CONTINUOUS
10
-17.707608
20
40.391025
30
0.0
11
-17.280184
21
40.369106
31
0.0
0
LINE
8
0
6
CONTINUOUS
10
-16.547736
20
42.641368
30
0.0
11
-17.278834
21
42.643276
31
0.0
0
LINE
8
0
6
CONTINUOUS
10
-18.941019
20
42.229350
30
0.0
11
-18.601500
21
41.508022
31
0.0
0
LINE
8
0
6
CONTINUOUS
10
-19.234309
20
42.511577
30
0.0
11
-18.941019
21
42.229350
31
0.0
0
LINE
8
0
6
CONTINUOUS
10
-18.666763
20
42.685657
30
0.0
11
-19.231118
21
42.512556
31
0.0
0
LINE
8
0
6
CONTINUOUS
10
-15.861197
20
42.661884
30
0.0
11
-15.241709
21
42.549777
31
0.0
0
LINE
8
0
6
CONTINUOUS
10
-15.241709
20
42.549777
30
0.0
11
-14.973866
21
42.700771
31
0.0
0
LINE
8
0
6
CONTINUOUS
10
-19.295786
20
42.529063
30
0.0
11
-18.997661
21
42.244624
31
0.0
0
LINE
8
0
6
CONTINUOUS
10
-16.113967
20
40.669124
30
0.0
11
-15.888437
21
41.494884
31
0.0
0
LINE
8
0
6
CONTINUOUS
10
-17.280188
20
40.330837
30
0.0
11
-16.856050
21
40.358936
31
0.0
0
LINE
8
0
6
CONTINUOUS
10
-16.856050
20
40.358936
30
0.0
11
-16.427282
21
40.457080
31
0.0
0
LINE
8
0
6
CONTINUOUS
10
-18.648494
20
41.522678
30
0.0
11
-18.438265
21
40.593929
31
0.0
0
LINE
8
0
6
CONTINUOUS
10
-18.127597
20
40.449855
30
0.0
11
-17.705588
21
40.351955
31
0.0
0
LINE
8
0
6
CONTINUOUS
10
-15.888437
20
41.494884
30
0.0
11
-15.516876
21
42.234699
31
0.0
0
LINE
8
0
6
CONTINUOUS
10
-16.113967
20
40.669124
30
0.0
11
-16.132521
21
40.701907
31
0.0
0
LINE
8
0
6
CONTINUOUS
10
-16.427282
20
40.457080
30
0.0
11
-16.113967
21
40.669124
31
0.0
0
LINE
8
0
6
CONTINUOUS
10
-17.705588
20
40.351955
30
0.0
11
-17.280188
21
40.330837
31
0.0
0
LINE
8
0
6
CONTINUOUS
10
-18.997661
20
42.244624
30
0.0
11
-18.648494
21
41.522678
31
0.0
0
LINE
8
0
6
CONTINUOUS
10
-15.516876
20
42.234699
30
0.0
11
-15.241709
21
42.549777
31
0.0
0
LINE
8
0
6
CONTINUOUS
10
-18.438265
20
40.593929
30
0.0
11
-18.127597
21
40.449855
31
0.0
0
LINE
8
0
6
CONTINUOUS
10
-18.419099
20
40.629115
30
0.0
11
-18.438265
21
40.593929
31
0.0
0
LINE
8
0
6
CONTINUOUS
10
-19.263896
20
42.543964
30
0.0
11
-19.234309
21
42.511577
31
0.0
0
LINE
8
0
6
CONTINUOUS
10
-19.234309
20
42.511577
30
0.0
11
-18.666763
21
42.685657
31
0.0
0
LINE
8
0
6
CONTINUOUS
10
-18.666763
20
42.685657
30
0.0
11
-18.008269
21
42.666415
31
0.0
0
LINE
8
0
6
CONTINUOUS
10
-17.278834
20
42.643276
30
0.0
11
-16.547736
21
42.641368
31
0.0
0
LINE
8
0
6
CONTINUOUS
10
-16.547736
20
42.641368
30
0.0
11
-15.874135
21
42.631534
31
0.0
0
LINE
8
0
6
CONTINUOUS
10
-18.008269
20
42.666415
30
0.0
11
-17.278834
21
42.643276
31
0.0
0
LINE
8
0
6
CONTINUOUS
10
-15.874135
20
42.631534
30
0.0
11
-15.304207
21
42.528552
31
0.0
0
LINE
8
0
6
CONTINUOUS
10
-16.132521
20
40.701907
30
0.0
11
-15.912130
21
41.511485
31
0.0
0
LINE
8
0
6
CONTINUOUS
10
-16.151448
20
40.686710
30
0.0
11
-16.132521
21
40.701907
31
0.0
0
LINE
8
0
6
CONTINUOUS
10
-15.935942
20
41.480754
30
0.0
11
-16.150652
21
40.689642
31
0.0
0
LINE
8
0
6
CONTINUOUS
10
-18.419099
20
40.629115
30
0.0
11
-18.401733
21
40.616222
31
0.0
0
LINE
8
0
6
CONTINUOUS
10
-18.623967
20
41.539020
30
0.0
11
-18.419099
21
40.629115
31
0.0
0
LINE
8
0
6
CONTINUOUS
10
-18.401733
20
40.616222
30
0.0
11
-18.601500
21
41.508022
31
0.0
0
LINE
8
0
6
CONTINUOUS
10
-15.912130
20
41.511485
30
0.0
11
-15.547816
21
42.248515
31
0.0
0
LINE
8
0
6
CONTINUOUS
10
-15.578640
20
42.215091
30
0.0
11
-15.935942
21
41.480754
31
0.0
0
LINE
8
0
6
CONTINUOUS
10
-18.963726
20
42.251201
30
0.0
11
-18.623967
21
41.539020
31
0.0
0
LINE
8
0
6
CONTINUOUS
10
-18.601500
20
41.508022
30
0.0
11
-18.941019
21
42.229350
31
0.0
0
LINE
8
0
6
CONTINUOUS
10
-15.273023
20
42.562770
30
0.0
11
-15.304207
21
42.528552
31
0.0
0
LINE
8
0
6
CONTINUOUS
10
-15.547816
20
42.248515
30
0.0
11
-15.278553
21
42.556445
31
0.0
0
LINE
8
0
6
CONTINUOUS
10
-15.304207
20
42.528552
30
0.0
11
-15.578640
21
42.215091
31
0.0
0
LINE
8
0
6
CONTINUOUS
10
-21.905709
20
44.797270
30
0.0
11
-21.868136
21
44.917639
31
0.0
0
LINE
8
0
6
CONTINUOUS
10
-21.905709
20
44.916097
30
0.0
11
-21.905709
21
44.797270
31
0.0
0
LINE
8
0
6
CONTINUOUS
10
-21.506038
20
44.880163
30
0.0
11
-21.506038
21
44.904075
31
0.0
0
LINE
8
0
6
CONTINUOUS
10
-21.668301
20
44.959089
30
0.0
11
-21.506038
21
44.880163
31
0.0
0
LINE
8
0
6
CONTINUOUS
10
-21.669210
20
46.411932
30
0.0
11
-21.479608
21
46.467055
31
0.0
0
LINE
8
0
6
CONTINUOUS
10
-21.479608
20
46.467055
30
0.0
11
-21.301888
21
46.400068
31
0.0
0
LINE
8
0
6
CONTINUOUS
10
-21.479608
20
46.543866
30
0.0
11
-21.479608
21
46.467055
31
0.0
0
LINE
8
0
6
CONTINUOUS
10
-21.681096
20
46.289816
30
0.0
11
-21.669210
21
46.411932
31
0.0
0
LINE
8
0
6
CONTINUOUS
10
-21.681096
20
46.386753
30
0.0
11
-21.681096
21
46.289816
31
0.0
0
LINE
8
0
6
CONTINUOUS
10
-20.980198
20
47.074446
30
0.0
11
-20.774683
21
47.105353
31
0.0
0
LINE
8
0
6
CONTINUOUS
10
-21.036480
20
46.956518
30
0.0
11
-20.980198
21
47.074446
31
0.0
0
LINE
8
0
6
CONTINUOUS
10
-21.036480
20
47.040436
30
0.0
11
-21.036480
21
46.956518
31
0.0
0
LINE
8
0
6
CONTINUOUS
10
-17.261474
20
48.083159
30
0.0
11
-17.117677
21
47.993155
31
0.0
0
LINE
8
0
6
CONTINUOUS
10
-17.532245
20
47.939757
30
0.0
11
-17.468759
21
48.056463
31
0.0
0
LINE
8
0
6
CONTINUOUS
10
-17.532245
20
47.982276
30
0.0
11
-17.532245
21
47.939757
31
0.0
0
LINE
8
0
6
CONTINUOUS
10
-19.968743
20
47.607176
30
0.0
11
-19.756535
21
47.612463
31
0.0
0
LINE
8
0
6
CONTINUOUS
10
-19.756535
20
47.612463
30
0.0
11
-19.642479
21
47.509283
31
0.0
0
LINE
8
0
6
CONTINUOUS
10
-19.756535
20
47.691842
30
0.0
11
-19.756535
21
47.612463
31
0.0
0
LINE
8
0
6
CONTINUOUS
10
-18.668431
20
47.923872
30
0.0
11
-18.459049
21
47.903303
31
0.0
0
LINE
8
0
6
CONTINUOUS
10
-18.459049
20
47.903303
30
0.0
11
-18.385288
21
47.788611
31
0.0
0
LINE
8
0
6
CONTINUOUS
10
-18.459049
20
47.983345
30
0.0
11
-18.459049
21
47.903303
31
0.0
0
LINE
8
0
6
CONTINUOUS
10
-18.804053
20
47.829741
30
0.0
11
-18.668431
21
47.923872
31
0.0
0
LINE
8
0
6
CONTINUOUS
10
-18.804053
20
47.903965
30
0.0
11
-18.804053
21
47.829741
31
0.0
0
LINE
8
0
6
CONTINUOUS
10
-21.990081
20
45.644850
30
0.0
11
-21.827819
21
45.723768
31
0.0
0
LINE
8
0
6
CONTINUOUS
10
-21.990081
20
45.753223
30
0.0
11
-21.990081
21
45.644850
31
0.0
0
LINE
8
0
6
CONTINUOUS
10
-21.627984
20
45.682318
30
0.0
11
-21.590411
21
45.561949
31
0.0
0
LINE
8
0
6
CONTINUOUS
10
-18.591143
20
45.001082
30
0.0
11
-18.401540
21
45.056212
31
0.0
0
LINE
8
0
6
CONTINUOUS
10
-18.401540
20
45.056212
30
0.0
11
-18.223820
21
44.989226
31
0.0
0
LINE
8
0
6
CONTINUOUS
10
-18.401540
20
45.122158
30
0.0
11
-18.401540
21
45.056212
31
0.0
0
LINE
8
0
6
CONTINUOUS
10
-18.603028
20
44.878973
30
0.0
11
-18.591143
21
45.001082
31
0.0
0
LINE
8
0
6
CONTINUOUS
10
-18.603028
20
44.952939
30
0.0
11
-18.603028
21
44.878973
31
0.0
0
LINE
8
0
6
CONTINUOUS
10
-19.206756
20
45.229964
30
0.0
11
-19.017154
21
45.285094
31
0.0
0
LINE
8
0
6
CONTINUOUS
10
-19.218642
20
45.107855
30
0.0
11
-19.206756
21
45.229964
31
0.0
0
LINE
8
0
6
CONTINUOUS
10
-19.218642
20
45.196627
30
0.0
11
-19.218642
21
45.107855
31
0.0
0
LINE
8
0
6
CONTINUOUS
10
-19.822369
20
45.494200
30
0.0
11
-19.632767
21
45.549330
31
0.0
0
LINE
8
0
6
CONTINUOUS
10
-19.834255
20
45.372092
30
0.0
11
-19.822369
21
45.494200
31
0.0
0
LINE
8
0
6
CONTINUOUS
10
-19.834255
20
45.450278
30
0.0
11
-19.834255
21
45.372092
31
0.0
0
LINE
8
0
6
CONTINUOUS
10
-20.437983
20
45.780363
30
0.0
11
-20.248381
21
45.835486
31
0.0
0
LINE
8
0
6
CONTINUOUS
10
-20.248381
20
45.835486
30
0.0
11
-20.070661
21
45.768507
31
0.0
0
LINE
8
0
6
CONTINUOUS
10
-20.248381
20
45.908269
30
0.0
11
-20.248381
21
45.835486
31
0.0
0
LINE
8
0
6
CONTINUOUS
10
-20.449869
20
45.658247
30
0.0
11
-20.437983
21
45.780363
31
0.0
0
LINE
8
0
6
CONTINUOUS
10
-20.449869
20
45.751954
30
0.0
11
-20.449869
21
45.658247
31
0.0
0
LINE
8
0
6
CONTINUOUS
10
-21.053597
20
46.073256
30
0.0
11
-20.863994
21
46.128378
31
0.0
0
LINE
8
0
6
CONTINUOUS
10
-20.863994
20
46.128378
30
0.0
11
-20.686274
21
46.061407
31
0.0
0
LINE
8
0
6
CONTINUOUS
10
-20.863994
20
46.197499
30
0.0
11
-20.863994
21
46.128378
31
0.0
0
LINE
8
0
6
CONTINUOUS
10
-21.065483
20
45.951147
30
0.0
11
-21.053597
21
46.073256
31
0.0
0
LINE
8
0
6
CONTINUOUS
10
-21.065483
20
46.037175
30
0.0
11
-21.065483
21
45.951147
31
0.0
0
LINE
8
0
6
CONTINUOUS
10
-18.000174
20
45.554342
30
0.0
11
-17.794659
21
45.585242
31
0.0
0
LINE
8
0
6
CONTINUOUS
10
-18.056456
20
45.436407
30
0.0
11
-18.000174
21
45.554342
31
0.0
0
LINE
8
0
6
CONTINUOUS
10
-18.056456
20
45.501349
30
0.0
11
-18.056456
21
45.436407
31
0.0
0
LINE
8
0
6
CONTINUOUS
10
-18.390664
20
45.852492
30
0.0
11
-18.241429
21
45.765463
31
0.0
0
LINE
8
0
6
CONTINUOUS
10
-19.192183
20
46.111944
30
0.0
11
-18.986668
21
46.142843
31
0.0
0
LINE
8
0
6
CONTINUOUS
10
-18.986668
20
46.142843
30
0.0
11
-18.837434
21
46.055823
31
0.0
0
LINE
8
0
6
CONTINUOUS
10
-18.986668
20
46.212968
30
0.0
11
-18.986668
21
46.142843
31
0.0
0
LINE
8
0
6
CONTINUOUS
10
-19.248465
20
45.994017
30
0.0
11
-19.192183
21
46.111944
31
0.0
0
LINE
8
0
6
CONTINUOUS
10
-19.248465
20
46.073335
30
0.0
11
-19.248465
21
45.994017
31
0.0
0
LINE
8
0
6
CONTINUOUS
10
-19.788189
20
46.404654
30
0.0
11
-19.582674
21
46.435553
31
0.0
0
LINE
8
0
6
CONTINUOUS
10
-19.582674
20
46.435553
30
0.0
11
-19.433439
21
46.348524
31
0.0
0
LINE
8
0
6
CONTINUOUS
10
-19.582674
20
46.514816
30
0.0
11
-19.582674
21
46.435553
31
0.0
0
LINE
8
0
6
CONTINUOUS
10
-19.788189
20
46.404654
30
0.0
11
-19.788189
21
46.562707
31
0.0
0
LINE
8
0
6
CONTINUOUS
10
-19.844470
20
46.286726
30
0.0
11
-19.788189
21
46.404654
31
0.0
0
LINE
8
0
6
CONTINUOUS
10
-19.844470
20
46.357483
30
0.0
11
-19.844470
21
46.286726
31
0.0
0
LINE
8
0
6
CONTINUOUS
10
-20.384194
20
46.748953
30
0.0
11
-20.178679
21
46.779860
31
0.0
0
LINE
8
0
6
CONTINUOUS
10
-20.178679
20
46.779860
30
0.0
11
-20.029444
21
46.692831
31
0.0
0
LINE
8
0
6
CONTINUOUS
10
-20.178679
20
46.852419
30
0.0
11
-20.178679
21
46.779860
31
0.0
0
LINE
8
0
6
CONTINUOUS
10
-20.440475
20
46.631026
30
0.0
11
-20.384194
21
46.748953
31
0.0
0
LINE
8
0
6
CONTINUOUS
10
-20.440475
20
46.719982
30
0.0
11
-20.440475
21
46.631026
31
0.0
0
LINE
8
0
6
CONTINUOUS
10
-17.430636
20
46.088141
30
0.0
11
-17.218428
21
46.093428
31
0.0
0
LINE
8
0
6
CONTINUOUS
10
-17.218428
20
46.093428
30
0.0
11
-17.104372
21
45.990256
31
0.0
0
LINE
8
0
6
CONTINUOUS
10
-17.218428
20
46.170891
30
0.0
11
-17.218428
21
46.093428
31
0.0
0
LINE
8
0
6
CONTINUOUS
10
-17.430636
20
46.088141
30
0.0
11
-17.430636
21
46.208883
31
0.0
0
LINE
8
0
6
CONTINUOUS
10
-17.528789
20
45.979681
30
0.0
11
-17.476038
21
46.037972
31
0.0
0
LINE
8
0
6
CONTINUOUS
10
-17.476038
20
46.037972
30
0.0
11
-17.430636
21
46.088141
31
0.0
0
LINE
8
0
6
CONTINUOUS
10
-18.699689
20
46.796095
30
0.0
11
-18.487482
21
46.801382
31
0.0
0
LINE
8
0
6
CONTINUOUS
10
-18.487482
20
46.801382
30
0.0
11
-18.373426
21
46.698210
31
0.0
0
LINE
8
0
6
CONTINUOUS
10
-18.487482
20
46.879283
30
0.0
11
-18.487482
21
46.801382
31
0.0
0
LINE
8
0
6
CONTINUOUS
10
-18.797842
20
46.687636
30
0.0
11
-18.699689
21
46.796095
31
0.0
0
LINE
8
0
6
CONTINUOUS
10
-18.797842
20
46.755789
30
0.0
11
-18.797842
21
46.687636
31
0.0
0
LINE
8
0
6
CONTINUOUS
10
-19.334216
20
47.204451
30
0.0
11
-19.122009
21
47.209738
31
0.0
0
LINE
8
0
6
CONTINUOUS
10
-19.122009
20
47.209738
30
0.0
11
-19.007952
21
47.106566
31
0.0
0
LINE
8
0
6
CONTINUOUS
10
-19.122009
20
47.279577
30
0.0
11
-19.122009
21
47.209738
31
0.0
0
LINE
8
0
6
CONTINUOUS
10
-19.432369
20
47.095984
30
0.0
11
-19.334216
21
47.204451
31
0.0
0
LINE
8
0
6
CONTINUOUS
10
-19.432369
20
47.164150
30
0.0
11
-19.432369
21
47.095984
31
0.0
0
LINE
8
0
6
CONTINUOUS
10
-17.390341
20
47.045653
30
0.0
11
-17.180959
21
47.025091
31
0.0
0
LINE
8
0
6
CONTINUOUS
10
-17.180959
20
47.025091
30
0.0
11
-17.107198
21
46.910399
31
0.0
0
LINE
8
0
6
CONTINUOUS
10
-17.180959
20
47.105898
30
0.0
11
-17.180959
21
47.025091
31
0.0
0
LINE
8
0
6
CONTINUOUS
10
-17.390341
20
47.045653
30
0.0
11
-17.390341
21
47.182901
31
0.0
0
LINE
8
0
6
CONTINUOUS
10
-17.525963
20
46.951529
30
0.0
11
-17.390341
21
47.045653
31
0.0
0
LINE
8
0
6
CONTINUOUS
10
-17.525963
20
47.018395
30
0.0
11
-17.525963
21
46.951529
31
0.0
0
LINE
8
0
6
CONTINUOUS
10
-19.035123
20
44.471121
30
0.0
11
-18.872861
21
44.550047
31
0.0
0
LINE
8
0
6
CONTINUOUS
10
-19.035123
20
44.563505
30
0.0
11
-19.035123
21
44.471121
31
0.0
0
LINE
8
0
6
CONTINUOUS
10
-18.673026
20
44.508597
30
0.0
11
-18.635452
21
44.388228
31
0.0
0
LINE
8
0
6
CONTINUOUS
10
-19.773862
20
44.729407
30
0.0
11
-19.611600
21
44.808325
31
0.0
0
LINE
8
0
6
CONTINUOUS
10
-19.773862
20
44.817705
30
0.0
11
-19.773862
21
44.729407
31
0.0
0
LINE
8
0
6
CONTINUOUS
10
-19.611600
20
44.808325
30
0.0
11
-19.411765
21
44.766875
31
0.0
0
LINE
8
0
6
CONTINUOUS
10
-19.611600
20
44.878218
30
0.0
11
-19.611600
21
44.808325
31
0.0
0
LINE
8
0
6
CONTINUOUS
10
-20.512602
20
45.000906
30
0.0
11
-20.350340
21
45.079817
31
0.0
0
LINE
8
0
6
CONTINUOUS
10
-20.512602
20
45.099150
30
0.0
11
-20.512602
21
45.000906
31
0.0
0
LINE
8
0
6
CONTINUOUS
10
-20.350340
20
45.079817
30
0.0
11
-20.150505
21
45.038374
31
0.0
0
LINE
8
0
6
CONTINUOUS
10
-20.350340
20
45.149521
30
0.0
11
-20.350340
21
45.079817
31
0.0
0
LINE
8
0
6
CONTINUOUS
10
-20.150505
20
45.038374
30
0.0
11
-20.112932
21
44.917998
31
0.0
0
LINE
8
0
6
CONTINUOUS
10
-20.150505
20
45.078192
30
0.0
11
-20.150505
21
45.038374
31
0.0
0
LINE
8
0
6
CONTINUOUS
10
-21.251341
20
45.286391
30
0.0
11
-21.089080
21
45.365317
31
0.0
0
LINE
8
0
6
CONTINUOUS
10
-21.251341
20
45.395783
30
0.0
11
-21.251341
21
45.286391
31
0.0
0
LINE
8
0
6
CONTINUOUS
10
-21.089080
20
45.365317
30
0.0
11
-20.889244
21
45.323866
31
0.0
0
LINE
8
0
6
CONTINUOUS
10
-21.089080
20
45.443069
30
0.0
11
-21.089080
21
45.365317
31
0.0
0
LINE
8
0
6
CONTINUOUS
10
-20.889244
20
45.323866
30
0.0
11
-20.851671
21
45.203497
31
0.0
0
LINE
8
0
6
CONTINUOUS
10
-20.889244
20
45.366323
30
0.0
11
-20.889244
21
45.323866
31
0.0
0
LINE
8
0
6
CONTINUOUS
10
-19.513235
20
43.038345
30
0.0
11
-19.350972
21
43.117271
31
0.0
0
LINE
8
0
6
CONTINUOUS
10
-19.513235
20
43.132862
30
0.0
11
-19.513235
21
43.038345
31
0.0
0
LINE
8
0
6
CONTINUOUS
10
-19.350972
20
43.117271
30
0.0
11
-19.151137
21
43.075820
31
0.0
0
LINE
8
0
6
CONTINUOUS
10
-19.350972
20
43.174877
30
0.0
11
-19.350972
21
43.117271
31
0.0
0
LINE
8
0
6
CONTINUOUS
10
-19.393706
20
43.344863
30
0.0
11
-19.231444
21
43.423789
31
0.0
0
LINE
8
0
6
CONTINUOUS
10
-19.393706
20
43.445790
30
0.0
11
-19.393706
21
43.344863
31
0.0
0
LINE
8
0
6
CONTINUOUS
10
-19.231444
20
43.423789
30
0.0
11
-19.031609
21
43.382339
31
0.0
0
LINE
8
0
6
CONTINUOUS
10
-19.231444
20
43.478757
30
0.0
11
-19.231444
21
43.423789
31
0.0
0
LINE
8
0
6
CONTINUOUS
10
-19.031609
20
43.382339
30
0.0
11
-18.994036
21
43.261970
31
0.0
0
LINE
8
0
6
CONTINUOUS
10
-19.031609
20
43.429633
30
0.0
11
-19.031609
21
43.382339
31
0.0
0
LINE
8
0
6
CONTINUOUS
10
-19.274179
20
43.707679
30
0.0
11
-19.111916
21
43.786605
31
0.0
0
LINE
8
0
6
CONTINUOUS
10
-19.274179
20
43.795595
30
0.0
11
-19.274179
21
43.707679
31
0.0
0
LINE
8
0
6
CONTINUOUS
10
-19.111916
20
43.786605
30
0.0
11
-18.912081
21
43.745155
31
0.0
0
LINE
8
0
6
CONTINUOUS
10
-19.111916
20
43.850434
30
0.0
11
-19.111916
21
43.786605
31
0.0
0
LINE
8
0
6
CONTINUOUS
10
-19.154651
20
44.084303
30
0.0
11
-18.992388
21
44.163229
31
0.0
0
LINE
8
0
6
CONTINUOUS
10
-19.154651
20
44.172028
30
0.0
11
-19.154651
21
44.084303
31
0.0
0
LINE
8
0
6
CONTINUOUS
10
-18.992388
20
44.163229
30
0.0
11
-18.792553
21
44.121779
31
0.0
0
LINE
8
0
6
CONTINUOUS
10
-18.992388
20
44.224579
30
0.0
11
-18.992388
21
44.163229
31
0.0
0
LINE
8
0
6
CONTINUOUS
10
-18.792553
20
44.121779
30
0.0
11
-18.754980
21
44.001410
31
0.0
0
LINE
8
0
6
CONTINUOUS
10
-18.792553
20
44.172239
30
0.0
11
-18.792553
21
44.121779
31
0.0
0
LINE
8
0
6
CONTINUOUS
10
-21.061983
20
44.450781
30
0.0
11
-21.024410
21
44.571150
31
0.0
0
LINE
8
0
6
CONTINUOUS
10
-21.061983
20
44.569386
30
0.0
11
-21.061983
21
44.450781
31
0.0
0
LINE
8
0
6
CONTINUOUS
10
-21.024410
20
44.571150
30
0.0
11
-20.824574
21
44.612601
31
0.0
0
LINE
8
0
6
CONTINUOUS
10
-21.024410
20
44.671236
30
0.0
11
-21.024410
21
44.571150
31
0.0
0
LINE
8
0
6
CONTINUOUS
10
-20.662312
20
44.533682
30
0.0
11
-20.662312
21
44.570933
31
0.0
0
LINE
8
0
6
CONTINUOUS
10
-20.824574
20
44.612601
30
0.0
11
-20.662312
21
44.533682
31
0.0
0
LINE
8
0
6
CONTINUOUS
10
-20.824574
20
44.671760
30
0.0
11
-20.824574
21
44.612601
31
0.0
0
LINE
8
0
6
CONTINUOUS
10
-20.274505
20
44.197348
30
0.0
11
-20.236932
21
44.317717
31
0.0
0
LINE
8
0
6
CONTINUOUS
10
-20.274505
20
44.308701
30
0.0
11
-20.274505
21
44.197348
31
0.0
0
LINE
8
0
6
CONTINUOUS
10
-20.236932
20
44.317717
30
0.0
11
-20.037096
21
44.359167
31
0.0
0
LINE
8
0
6
CONTINUOUS
10
-20.236932
20
44.406476
30
0.0
11
-20.236932
21
44.317717
31
0.0
0
LINE
8
0
6
CONTINUOUS
10
-20.471374
20
43.796241
30
0.0
11
-20.433801
21
43.916610
31
0.0
0
LINE
8
0
6
CONTINUOUS
10
-20.471374
20
43.910863
30
0.0
11
-20.471374
21
43.796241
31
0.0
0
LINE
8
0
6
CONTINUOUS
10
-20.433801
20
43.916610
30
0.0
11
-20.233966
21
43.958060
31
0.0
0
LINE
8
0
6
CONTINUOUS
10
-20.433801
20
44.005044
30
0.0
11
-20.433801
21
43.916610
31
0.0
0
LINE
8
0
6
CONTINUOUS
10
-20.071703
20
43.879142
30
0.0
11
-20.071703
21
43.921440
31
0.0
0
LINE
8
0
6
CONTINUOUS
10
-20.233966
20
43.958060
30
0.0
11
-20.071703
21
43.879142
31
0.0
0
LINE
8
0
6
CONTINUOUS
10
-20.233966
20
44.011826
30
0.0
11
-20.233966
21
43.958060
31
0.0
0
LINE
8
0
6
CONTINUOUS
10
-20.555746
20
43.444724
30
0.0
11
-20.518174
21
43.565101
31
0.0
0
LINE
8
0
6
CONTINUOUS
10
-20.555746
20
43.581364
30
0.0
11
-20.555746
21
43.444724
31
0.0
0
LINE
8
0
6
CONTINUOUS
10
-20.518174
20
43.565101
30
0.0
11
-20.318338
21
43.606544
31
0.0
0
LINE
8
0
6
CONTINUOUS
10
-20.518174
20
43.662035
30
0.0
11
-20.518174
21
43.565101
31
0.0
0
LINE
8
0
6
CONTINUOUS
10
-20.156076
20
43.527625
30
0.0
11
-20.156076
21
43.559440
31
0.0
0
LINE
8
0
6
CONTINUOUS
10
-20.318338
20
43.606544
30
0.0
11
-20.156076
21
43.527625
31
0.0
0
LINE
8
0
6
CONTINUOUS
10
-20.318338
20
43.650642
30
0.0
11
-20.318338
21
43.606544
31
0.0
0
LINE
8
0
6
CONTINUOUS
10
-21.441660
20
44.084448
30
0.0
11
-21.404087
21
44.204825
31
0.0
0
LINE
8
0
6
CONTINUOUS
10
-21.441660
20
44.212454
30
0.0
11
-21.441660
21
44.084448
31
0.0
0
LINE
8
0
6
CONTINUOUS
10
-21.404087
20
44.204825
30
0.0
11
-21.204251
21
44.246275
31
0.0
0
LINE
8
0
6
CONTINUOUS
10
-21.404087
20
44.301092
30
0.0
11
-21.404087
21
44.204825
31
0.0
0
LINE
8
0
6
CONTINUOUS
10
-18.074228
20
44.376990
30
0.0
11
-17.911966
21
44.455916
31
0.0
0
LINE
8
0
6
CONTINUOUS
10
-18.074228
20
44.453320
30
0.0
11
-18.074228
21
44.376990
31
0.0
0
LINE
8
0
6
CONTINUOUS
10
-17.911966
20
44.455916
30
0.0
11
-17.712130
21
44.414465
31
0.0
0
LINE
8
0
6
CONTINUOUS
10
-17.911966
20
44.526133
30
0.0
11
-17.911966
21
44.455916
31
0.0
0
LINE
8
0
6
CONTINUOUS
10
-17.712130
20
44.414465
30
0.0
11
-17.674557
21
44.294096
31
0.0
0
LINE
8
0
6
CONTINUOUS
10
-17.712130
20
44.477622
30
0.0
11
-17.712130
21
44.414465
31
0.0
0
LINE
8
0
6
CONTINUOUS
10
-18.205713
20
43.027610
30
0.0
11
-18.043451
21
43.106536
31
0.0
0
LINE
8
0
6
CONTINUOUS
10
-18.205713
20
43.110634
30
0.0
11
-18.205713
21
43.027610
31
0.0
0
LINE
8
0
6
CONTINUOUS
10
-18.172842
20
43.336501
30
0.0
11
-18.010579
21
43.415427
31
0.0
0
LINE
8
0
6
CONTINUOUS
10
-18.172842
20
43.414381
30
0.0
11
-18.172842
21
43.336501
31
0.0
0
LINE
8
0
6
CONTINUOUS
10
-18.139970
20
43.679946
30
0.0
11
-17.977708
21
43.758872
31
0.0
0
LINE
8
0
6
CONTINUOUS
10
-18.139970
20
43.758409
30
0.0
11
-18.139970
21
43.679946
31
0.0
0
LINE
8
0
6
CONTINUOUS
10
-17.977708
20
43.758872
30
0.0
11
-17.777873
21
43.717422
31
0.0
0
LINE
8
0
6
CONTINUOUS
10
-17.977708
20
43.821553
30
0.0
11
-17.977708
21
43.758872
31
0.0
0
LINE
8
0
6
CONTINUOUS
10
-17.777873
20
43.717422
30
0.0
11
-17.740300
21
43.597045
31
0.0
0
LINE
8
0
6
CONTINUOUS
10
-17.777873
20
43.777972
30
0.0
11
-17.777873
21
43.717422
31
0.0
0
LINE
8
0
6
CONTINUOUS
10
-18.107099
20
44.029356
30
0.0
11
-17.944837
21
44.108275
31
0.0
0
LINE
8
0
6
CONTINUOUS
10
-18.107099
20
44.105932
30
0.0
11
-18.107099
21
44.029356
31
0.0
0
LINE
8
0
6
CONTINUOUS
10
-17.944837
20
44.108275
30
0.0
11
-17.745002
21
44.066824
31
0.0
0
LINE
8
0
6
CONTINUOUS
10
-17.944837
20
44.168898
30
0.0
11
-17.944837
21
44.108275
31
0.0
0
LINE
8
0
6
CONTINUOUS
10
-17.745002
20
44.066824
30
0.0
11
-17.707428
21
43.946455
31
0.0
0
LINE
8
0
6
CONTINUOUS
10
-17.745002
20
44.125852
30
0.0
11
-17.745002
21
44.066824
31
0.0
0
LINE
8
0
6
CONTINUOUS
10
-16.526061
20
44.027464
30
0.0
11
-16.526061
21
44.103787
31
0.0
0
LINE
8
0
6
CONTINUOUS
10
-16.688324
20
44.106383
30
0.0
11
-16.526061
21
44.027464
31
0.0
0
LINE
8
0
6
CONTINUOUS
10
-16.688324
20
44.106383
30
0.0
11
-16.688324
21
44.166752
31
0.0
0
LINE
8
0
6
CONTINUOUS
10
-16.888159
20
44.064940
30
0.0
11
-16.688324
21
44.106383
31
0.0
0
LINE
8
0
6
CONTINUOUS
10
-16.888159
20
44.064940
30
0.0
11
-16.888159
21
44.123541
31
0.0
0
LINE
8
0
6
CONTINUOUS
10
-16.925732
20
43.944563
30
0.0
11
-16.888159
21
44.064940
31
0.0
0
LINE
8
0
6
CONTINUOUS
10
-16.925732
20
44.017227
30
0.0
11
-16.925732
21
43.944563
31
0.0
0
LINE
8
0
6
CONTINUOUS
10
-16.493190
20
43.679130
30
0.0
11
-16.493190
21
43.756977
31
0.0
0
LINE
8
0
6
CONTINUOUS
10
-16.655452
20
43.758056
30
0.0
11
-16.493190
21
43.679130
31
0.0
0
LINE
8
0
6
CONTINUOUS
10
-16.655452
20
43.758056
30
0.0
11
-16.655452
21
43.819240
31
0.0
0
LINE
8
0
6
CONTINUOUS
10
-16.855287
20
43.716605
30
0.0
11
-16.655452
21
43.758056
31
0.0
0
LINE
8
0
6
CONTINUOUS
10
-16.855287
20
43.716605
30
0.0
11
-16.855287
21
43.776077
31
0.0
0
LINE
8
0
6
CONTINUOUS
10
-16.892861
20
43.596236
30
0.0
11
-16.855287
21
43.716605
31
0.0
0
LINE
8
0
6
CONTINUOUS
10
-16.892861
20
43.671026
30
0.0
11
-16.892861
21
43.596236
31
0.0
0
LINE
8
0
6
CONTINUOUS
10
-16.460319
20
43.338317
30
0.0
11
-16.460319
21
43.416925
31
0.0
0
LINE
8
0
6
CONTINUOUS
10
-16.622581
20
43.417228
30
0.0
11
-16.460319
21
43.338317
31
0.0
0
LINE
8
0
6
CONTINUOUS
10
-16.622581
20
43.417228
30
0.0
11
-16.622581
21
43.475466
31
0.0
0
LINE
8
0
6
CONTINUOUS
10
-16.822416
20
43.375785
30
0.0
11
-16.622581
21
43.417228
31
0.0
0
LINE
8
0
6
CONTINUOUS
10
-16.822416
20
43.375785
30
0.0
11
-16.822416
21
43.433931
31
0.0
0
LINE
8
0
6
CONTINUOUS
10
-16.859990
20
43.255409
30
0.0
11
-16.822416
21
43.375785
31
0.0
0
LINE
8
0
6
CONTINUOUS
10
-16.859990
20
43.335832
30
0.0
11
-16.859990
21
43.255409
31
0.0
0
LINE
8
0
6
CONTINUOUS
10
-16.427448
20
43.016227
30
0.0
11
-16.427448
21
43.093318
31
0.0
0
LINE
8
0
6
CONTINUOUS
10
-16.589710
20
43.095145
30
0.0
11
-16.427448
21
43.016227
31
0.0
0
LINE
8
0
6
CONTINUOUS
10
-16.589710
20
43.095145
30
0.0
11
-16.589710
21
43.151924
31
0.0
0
LINE
8
0
6
CONTINUOUS
10
-16.789545
20
43.053703
30
0.0
11
-16.589710
21
43.095145
31
0.0
0
LINE
8
0
6
CONTINUOUS
10
-16.789545
20
43.053703
30
0.0
11
-16.789545
21
43.114580
31
0.0
0
LINE
8
0
6
CONTINUOUS
10
-16.827118
20
42.933326
30
0.0
11
-16.789545
21
43.053703
31
0.0
0
LINE
8
0
6
CONTINUOUS
10
-16.827118
20
43.019472
30
0.0
11
-16.827118
21
42.933326
31
0.0
0
LINE
8
0
6
CONTINUOUS
10
-16.558933
20
44.375181
30
0.0
11
-16.558933
21
44.451040
31
0.0
0
LINE
8
0
6
CONTINUOUS
10
-16.721195
20
44.454107
30
0.0
11
-16.558933
21
44.375181
31
0.0
0
LINE
8
0
6
CONTINUOUS
10
-16.721195
20
44.454107
30
0.0
11
-16.721195
21
44.523855
31
0.0
0
LINE
8
0
6
CONTINUOUS
10
-16.921030
20
44.412657
30
0.0
11
-16.721195
21
44.454107
31
0.0
0
LINE
8
0
6
CONTINUOUS
10
-13.229074
20
44.192328
30
0.0
11
-13.191501
21
44.071959
31
0.0
0
LINE
8
0
6
CONTINUOUS
10
-13.428910
20
44.233786
30
0.0
11
-13.229074
21
44.192328
31
0.0
0
LINE
8
0
6
CONTINUOUS
10
-13.591172
20
44.154860
30
0.0
11
-13.428910
21
44.233786
31
0.0
0
LINE
8
0
6
CONTINUOUS
10
-13.591172
20
44.181340
30
0.0
11
-13.591172
21
44.154860
31
0.0
0
LINE
8
0
6
CONTINUOUS
10
-14.114987
20
43.547919
30
0.0
11
-14.077414
21
43.427543
31
0.0
0
LINE
8
0
6
CONTINUOUS
10
-14.399195
20
43.953230
30
0.0
11
-14.199359
21
43.911773
31
0.0
0
LINE
8
0
6
CONTINUOUS
10
-14.561457
20
43.874305
30
0.0
11
-14.399195
21
43.953230
31
0.0
0
LINE
8
0
6
CONTINUOUS
10
-14.561457
20
43.915428
30
0.0
11
-14.561457
21
43.874305
31
0.0
0
LINE
8
0
6
CONTINUOUS
10
-14.396228
20
44.310454
30
0.0
11
-14.358656
21
44.190077
31
0.0
0
LINE
8
0
6
CONTINUOUS
10
-14.596064
20
44.351897
30
0.0
11
-14.396228
21
44.310454
31
0.0
0
LINE
8
0
6
CONTINUOUS
10
-13.608751
20
44.560660
30
0.0
11
-13.571178
21
44.440283
31
0.0
0
LINE
8
0
6
CONTINUOUS
10
-13.808586
20
44.602102
30
0.0
11
-13.608751
21
44.560660
31
0.0
0
LINE
8
0
6
CONTINUOUS
10
-13.970848
20
44.523184
30
0.0
11
-13.808586
21
44.602102
31
0.0
0
LINE
8
0
6
CONTINUOUS
10
-13.970848
20
44.560455
30
0.0
11
-13.970848
21
44.523184
31
0.0
0
LINE
8
0
6
CONTINUOUS
10
-15.878180
20
43.996344
30
0.0
11
-15.840607
21
44.116713
31
0.0
0
LINE
8
0
6
CONTINUOUS
10
-15.878180
20
44.060984
30
0.0
11
-15.878180
21
43.996344
31
0.0
0
LINE
8
0
6
CONTINUOUS
10
-15.358982
20
43.708709
30
0.0
11
-15.358982
21
43.795400
31
0.0
0
LINE
8
0
6
CONTINUOUS
10
-15.521244
20
43.787627
30
0.0
11
-15.358982
21
43.708709
31
0.0
0
LINE
8
0
6
CONTINUOUS
10
-15.521244
20
43.787627
30
0.0
11
-15.521244
21
43.845541
31
0.0
0
LINE
8
0
6
CONTINUOUS
10
-15.721079
20
43.746177
30
0.0
11
-15.521244
21
43.787627
31
0.0
0
LINE
8
0
6
CONTINUOUS
10
-15.721079
20
43.746177
30
0.0
11
-15.721079
21
43.796019
31
0.0
0
LINE
8
0
6
CONTINUOUS
10
-15.758653
20
43.625808
30
0.0
11
-15.721079
21
43.746177
31
0.0
0
LINE
8
0
6
CONTINUOUS
10
-15.758653
20
43.696275
30
0.0
11
-15.758653
21
43.625808
31
0.0
0
LINE
8
0
6
CONTINUOUS
10
-15.119926
20
42.994712
30
0.0
11
-15.119926
21
43.091415
31
0.0
0
LINE
8
0
6
CONTINUOUS
10
-15.282188
20
43.073638
30
0.0
11
-15.119926
21
42.994712
31
0.0
0
LINE
8
0
6
CONTINUOUS
10
-15.282188
20
43.073638
30
0.0
11
-15.282188
21
43.134438
31
0.0
0
LINE
8
0
6
CONTINUOUS
10
-15.482023
20
43.032180
30
0.0
11
-15.282188
21
43.073638
31
0.0
0
LINE
8
0
6
CONTINUOUS
10
-15.482023
20
43.032180
30
0.0
11
-15.482023
21
43.077532
31
0.0
0
LINE
8
0
6
CONTINUOUS
10
-15.519596
20
42.911811
30
0.0
11
-15.482023
21
43.032180
31
0.0
0
LINE
8
0
6
CONTINUOUS
10
-15.519596
20
42.979330
30
0.0
11
-15.519596
21
42.911811
31
0.0
0
LINE
8
0
6
CONTINUOUS
10
-13.381819
20
45.275084
30
0.0
11
-13.381819
21
45.380484
31
0.0
0
LINE
8
0
6
CONTINUOUS
10
-13.544081
20
45.354002
30
0.0
11
-13.381819
21
45.275084
31
0.0
0
LINE
8
0
6
CONTINUOUS
10
-13.544081
20
45.354002
30
0.0
11
-13.544081
21
45.434612
31
0.0
0
LINE
8
0
6
CONTINUOUS
10
-13.743916
20
45.312559
30
0.0
11
-13.544081
21
45.354002
31
0.0
0
LINE
8
0
6
CONTINUOUS
10
-13.743916
20
45.312559
30
0.0
11
-13.743916
21
45.354772
31
0.0
0
LINE
8
0
6
CONTINUOUS
10
-13.781490
20
45.192183
30
0.0
11
-13.743916
21
45.312559
31
0.0
0
LINE
8
0
6
CONTINUOUS
10
-13.781490
20
45.230830
30
0.0
11
-13.781490
21
45.192183
31
0.0
0
LINE
8
0
6
CONTINUOUS
10
-14.482655
20
45.028822
30
0.0
11
-14.282820
21
45.070273
31
0.0
0
LINE
8
0
6
CONTINUOUS
10
-14.482655
20
45.028822
30
0.0
11
-14.482655
21
45.067711
31
0.0
0
LINE
8
0
6
CONTINUOUS
10
-14.520229
20
44.908446
30
0.0
11
-14.482655
21
45.028822
31
0.0
0
LINE
8
0
6
CONTINUOUS
10
-14.520229
20
44.946123
30
0.0
11
-14.520229
21
44.908446
31
0.0
0
LINE
8
0
6
CONTINUOUS
10
-15.221395
20
44.760145
30
0.0
11
-15.021560
21
44.801596
31
0.0
0
LINE
8
0
6
CONTINUOUS
10
-15.221395
20
44.760145
30
0.0
11
-15.221395
21
44.810717
31
0.0
0
LINE
8
0
6
CONTINUOUS
10
-15.258969
20
44.639776
30
0.0
11
-15.221395
21
44.760145
31
0.0
0
LINE
8
0
6
CONTINUOUS
10
-15.258969
20
44.688213
30
0.0
11
-15.258969
21
44.639776
31
0.0
0
LINE
8
0
6
CONTINUOUS
10
-15.598038
20
44.466086
30
0.0
11
-15.598038
21
44.556516
31
0.0
0
LINE
8
0
6
CONTINUOUS
10
-15.760300
20
44.545004
30
0.0
11
-15.598038
21
44.466086
31
0.0
0
LINE
8
0
6
CONTINUOUS
10
-15.760300
20
44.545004
30
0.0
11
-15.760300
21
44.616157
31
0.0
0
LINE
8
0
6
CONTINUOUS
10
-15.960135
20
44.503561
30
0.0
11
-15.760300
21
44.545004
31
0.0
0
LINE
8
0
6
CONTINUOUS
10
-15.960135
20
44.503561
30
0.0
11
-15.960135
21
44.556555
31
0.0
0
LINE
8
0
6
CONTINUOUS
10
-15.997708
20
44.383185
30
0.0
11
-15.960135
21
44.503561
31
0.0
0
LINE
8
0
6
CONTINUOUS
10
-15.997708
20
44.438063
30
0.0
11
-15.997708
21
44.383185
31
0.0
0
LINE
8
0
6
CONTINUOUS
10
-15.200791
20
47.090475
30
0.0
11
-15.200791
21
47.159832
31
0.0
0
LINE
8
0
6
CONTINUOUS
10
-15.298944
20
47.198935
30
0.0
11
-15.200791
21
47.090475
31
0.0
0
LINE
8
0
6
CONTINUOUS
10
-16.259735
20
46.695006
30
0.0
11
-16.145678
21
46.798178
31
0.0
0
LINE
8
0
6
CONTINUOUS
10
-16.259735
20
46.746296
30
0.0
11
-16.259735
21
46.695006
31
0.0
0
LINE
8
0
6
CONTINUOUS
10
-16.894261
20
46.329581
30
0.0
11
-16.780205
21
46.432753
31
0.0
0
LINE
8
0
6
CONTINUOUS
10
-16.894261
20
46.383828
30
0.0
11
-16.894261
21
46.329581
31
0.0
0
LINE
8
0
6
CONTINUOUS
10
-14.603716
20
46.682959
30
0.0
11
-14.454481
21
46.769987
31
0.0
0
LINE
8
0
6
CONTINUOUS
10
-14.603716
20
46.706534
30
0.0
11
-14.603716
21
46.682959
31
0.0
0
LINE
8
0
6
CONTINUOUS
10
-14.192685
20
46.621161
30
0.0
11
-14.192685
21
46.708153
31
0.0
0
LINE
8
0
6
CONTINUOUS
10
-14.248967
20
46.739088
30
0.0
11
-14.192685
21
46.621161
31
0.0
0
LINE
8
0
6
CONTINUOUS
10
-15.050487
20
46.428633
30
0.0
11
-14.844972
21
46.397726
31
0.0
0
LINE
8
0
6
CONTINUOUS
10
-15.050487
20
46.428633
30
0.0
11
-15.050487
21
46.507959
31
0.0
0
LINE
8
0
6
CONTINUOUS
10
-15.199721
20
46.341597
30
0.0
11
-15.050487
21
46.428633
31
0.0
0
LINE
8
0
6
CONTINUOUS
10
-15.199721
20
46.384656
30
0.0
11
-15.199721
21
46.341597
31
0.0
0
LINE
8
0
6
CONTINUOUS
10
-14.788690
20
46.279799
30
0.0
11
-14.788690
21
46.351058
31
0.0
0
LINE
8
0
6
CONTINUOUS
10
-14.844972
20
46.397726
30
0.0
11
-14.788690
21
46.279799
31
0.0
0
LINE
8
0
6
CONTINUOUS
10
-14.844972
20
46.491701
30
0.0
11
-14.844972
21
46.397726
31
0.0
0
LINE
8
0
6
CONTINUOUS
10
-15.646491
20
46.136923
30
0.0
11
-15.440977
21
46.106016
31
0.0
0
LINE
8
0
6
CONTINUOUS
10
-15.646491
20
46.136923
30
0.0
11
-15.646491
21
46.205359
31
0.0
0
LINE
8
0
6
CONTINUOUS
10
-15.795726
20
46.049887
30
0.0
11
-15.646491
21
46.136923
31
0.0
0
LINE
8
0
6
CONTINUOUS
10
-15.795726
20
46.088802
30
0.0
11
-15.795726
21
46.049887
31
0.0
0
LINE
8
0
6
CONTINUOUS
10
-15.384695
20
45.988089
30
0.0
11
-15.384695
21
46.068186
31
0.0
0
LINE
8
0
6
CONTINUOUS
10
-15.440977
20
46.106016
30
0.0
11
-15.384695
21
45.988089
31
0.0
0
LINE
8
0
6
CONTINUOUS
10
-15.440977
20
46.191627
30
0.0
11
-15.440977
21
46.106016
31
0.0
0
LINE
8
0
6
CONTINUOUS
10
-16.242496
20
45.849501
30
0.0
11
-16.036981
21
45.818602
31
0.0
0
LINE
8
0
6
CONTINUOUS
10
-16.242496
20
45.849501
30
0.0
11
-16.242496
21
45.925062
31
0.0
0
LINE
8
0
6
CONTINUOUS
10
-16.391731
20
45.762472
30
0.0
11
-16.242496
21
45.849501
31
0.0
0
LINE
8
0
6
CONTINUOUS
10
-16.391731
20
45.822560
30
0.0
11
-16.391731
21
45.762472
31
0.0
0
LINE
8
0
6
CONTINUOUS
10
-15.980700
20
45.700674
30
0.0
11
-15.980700
21
45.764302
31
0.0
0
LINE
8
0
6
CONTINUOUS
10
-16.036981
20
45.818602
30
0.0
11
-15.980700
21
45.700674
31
0.0
0
LINE
8
0
6
CONTINUOUS
10
-16.036981
20
45.895932
30
0.0
11
-16.036981
21
45.818602
31
0.0
0
LINE
8
0
6
CONTINUOUS
10
-16.838502
20
45.583479
30
0.0
11
-16.632987
21
45.552580
31
0.0
0
LINE
8
0
6
CONTINUOUS
10
-16.838502
20
45.583479
30
0.0
11
-16.838502
21
45.659474
31
0.0
0
LINE
8
0
6
CONTINUOUS
10
-16.987736
20
45.496451
30
0.0
11
-16.838502
21
45.583479
31
0.0
0
LINE
8
0
6
CONTINUOUS
10
-16.987736
20
45.554776
30
0.0
11
-16.987736
21
45.496451
31
0.0
0
LINE
8
0
6
CONTINUOUS
10
-16.576705
20
45.434653
30
0.0
11
-16.576705
21
45.499069
31
0.0
0
LINE
8
0
6
CONTINUOUS
10
-16.632987
20
45.552580
30
0.0
11
-16.576705
21
45.434653
31
0.0
0
LINE
8
0
6
CONTINUOUS
10
-16.632987
20
45.631621
30
0.0
11
-16.632987
21
45.552580
31
0.0
0
LINE
8
0
6
CONTINUOUS
10
-13.769166
20
46.117850
30
0.0
11
-13.579564
21
46.062720
31
0.0
0
LINE
8
0
6
CONTINUOUS
10
-13.769166
20
46.117850
30
0.0
11
-13.769166
21
46.186201
31
0.0
0
LINE
8
0
6
CONTINUOUS
10
-13.946886
20
46.050871
30
0.0
11
-13.769166
21
46.117850
31
0.0
0
LINE
8
0
6
CONTINUOUS
10
-13.946886
20
46.092698
30
0.0
11
-13.946886
21
46.050871
31
0.0
0
LINE
8
0
6
CONTINUOUS
10
-14.384779
20
45.825789
30
0.0
11
-14.195177
21
45.770666
31
0.0
0
LINE
8
0
6
CONTINUOUS
10
-14.384779
20
45.825789
30
0.0
11
-14.384779
21
45.896717
31
0.0
0
LINE
8
0
6
CONTINUOUS
10
-14.562499
20
45.758803
30
0.0
11
-14.384779
21
45.825789
31
0.0
0
LINE
8
0
6
CONTINUOUS
10
-14.562499
20
45.791370
30
0.0
11
-14.562499
21
45.758803
31
0.0
0
LINE
8
0
6
CONTINUOUS
10
-14.183291
20
45.648550
30
0.0
11
-14.183291
21
45.740402
31
0.0
0
LINE
8
0
6
CONTINUOUS
10
-14.195177
20
45.770666
30
0.0
11
-14.183291
21
45.648550
31
0.0
0
LINE
8
0
6
CONTINUOUS
10
-14.195177
20
45.871311
30
0.0
11
-14.195177
21
45.770666
31
0.0
0
LINE
8
0
6
CONTINUOUS
10
-15.000393
20
45.542227
30
0.0
11
-14.810791
21
45.487105
31
0.0
0
LINE
8
0
6
CONTINUOUS
10
-15.000393
20
45.542227
30
0.0
11
-15.000393
21
45.619128
31
0.0
0
LINE
8
0
6
CONTINUOUS
10
-15.178113
20
45.475249
30
0.0
11
-15.000393
21
45.542227
31
0.0
0
LINE
8
0
6
CONTINUOUS
10
-15.178113
20
45.521851
30
0.0
11
-15.178113
21
45.475249
31
0.0
0
LINE
8
0
6
CONTINUOUS
10
-14.798905
20
45.364996
30
0.0
11
-14.798905
21
45.442662
31
0.0
0
LINE
8
0
6
CONTINUOUS
10
-14.810791
20
45.487105
30
0.0
11
-14.798905
21
45.364996
31
0.0
0
LINE
8
0
6
CONTINUOUS
10
-14.810791
20
45.579536
30
0.0
11
-14.810791
21
45.487105
31
0.0
0
LINE
8
0
6
CONTINUOUS
10
-15.616006
20
45.279555
30
0.0
11
-15.426404
21
45.224417
31
0.0
0
LINE
8
0
6
CONTINUOUS
10
-15.616006
20
45.279555
30
0.0
11
-15.616006
21
45.342473
31
0.0
0
LINE
8
0
6
CONTINUOUS
10
-15.793726
20
45.212568
30
0.0
11
-15.616006
21
45.279555
31
0.0
0
LINE
8
0
6
CONTINUOUS
10
-15.793726
20
45.258324
30
0.0
11
-15.793726
21
45.212568
31
0.0
0
LINE
8
0
6
CONTINUOUS
10
-15.414518
20
45.102308
30
0.0
11
-15.414518
21
45.190320
31
0.0
0
LINE
8
0
6
CONTINUOUS
10
-15.426404
20
45.224417
30
0.0
11
-15.414518
21
45.102308
31
0.0
0
LINE
8
0
6
CONTINUOUS
10
-15.426404
20
45.307810
30
0.0
11
-15.426404
21
45.224417
31
0.0
0
LINE
8
0
6
CONTINUOUS
10
-16.231620
20
45.053183
30
0.0
11
-16.042018
21
44.998045
31
0.0
0
LINE
8
0
6
CONTINUOUS
10
-16.231620
20
45.053183
30
0.0
11
-16.231620
21
45.120159
31
0.0
0
LINE
8
0
6
CONTINUOUS
10
-16.409340
20
44.986197
30
0.0
11
-16.231620
21
45.053183
31
0.0
0
LINE
8
0
6
CONTINUOUS
10
-16.409340
20
45.048190
30
0.0
11
-16.409340
21
44.986197
31
0.0
0
LINE
8
0
6
CONTINUOUS
10
-16.030132
20
44.875937
30
0.0
11
-16.030132
21
44.950940
31
0.0
0
LINE
8
0
6
CONTINUOUS
10
-16.042018
20
44.998045
30
0.0
11
-16.030132
21
44.875937
31
0.0
0
LINE
8
0
6
CONTINUOUS
10
-16.042018
20
45.071532
30
0.0
11
-16.042018
21
44.998045
31
0.0
0
LINE
8
0
6
CONTINUOUS
10
-12.643079
20
45.630522
30
0.0
11
-12.643079
21
45.740587
31
0.0
0
LINE
8
0
6
CONTINUOUS
10
-12.805341
20
45.709448
30
0.0
11
-12.643079
21
45.630522
31
0.0
0
LINE
8
0
6
CONTINUOUS
10
-12.805341
20
45.709448
30
0.0
11
-12.805341
21
45.786439
31
0.0
0
LINE
8
0
6
CONTINUOUS
10
-13.005176
20
45.667998
30
0.0
11
-12.805341
21
45.709448
31
0.0
0
LINE
8
0
6
CONTINUOUS
10
-13.005176
20
45.667998
30
0.0
11
-13.005176
21
45.697406
31
0.0
0
LINE
8
0
6
CONTINUOUS
10
-13.042750
20
45.547621
30
0.0
11
-13.005176
21
45.667998
31
0.0
0
LINE
8
0
6
CONTINUOUS
10
-13.042750
20
45.562623
30
0.0
11
-13.042750
21
45.547621
31
0.0
0
LINE
8
0
6
CONTINUOUS
10
-16.174111
20
47.899962
30
0.0
11
-15.964729
21
47.920523
31
0.0
0
LINE
8
0
6
CONTINUOUS
10
-16.174111
20
47.899962
30
0.0
11
-16.174111
21
47.981134
31
0.0
0
LINE
8
0
6
CONTINUOUS
10
-16.247873
20
47.785269
30
0.0
11
-16.174111
21
47.899962
31
0.0
0
LINE
8
0
6
CONTINUOUS
10
-16.247873
20
47.816932
30
0.0
11
-16.247873
21
47.785269
31
0.0
0
LINE
8
0
6
CONTINUOUS
10
-15.829108
20
47.826399
30
0.0
11
-15.829108
21
47.897774
31
0.0
0
LINE
8
0
6
CONTINUOUS
10
-15.964729
20
47.920523
30
0.0
11
-15.829108
21
47.826399
31
0.0
0
LINE
8
0
6
CONTINUOUS
10
-15.964729
20
48.017447
30
0.0
11
-15.964729
21
47.920523
31
0.0
0
LINE
8
0
6
CONTINUOUS
10
-14.876625
20
47.605070
30
0.0
11
-14.664418
21
47.599776
31
0.0
0
LINE
8
0
6
CONTINUOUS
10
-14.876625
20
47.605070
30
0.0
11
-14.876625
21
47.685176
31
0.0
0
LINE
8
0
6
CONTINUOUS
10
-14.990681
20
47.501898
30
0.0
11
-14.876625
21
47.605070
31
0.0
0
LINE
8
0
6
CONTINUOUS
10
-14.990681
20
47.530630
30
0.0
11
-14.990681
21
47.501898
31
0.0
0
LINE
8
0
6
CONTINUOUS
10
-14.566265
20
47.491316
30
0.0
11
-14.566265
21
47.569145
31
0.0
0
LINE
8
0
6
CONTINUOUS
10
-14.664418
20
47.599776
30
0.0
11
-14.566265
21
47.491316
31
0.0
0
LINE
8
0
6
CONTINUOUS
10
-14.664418
20
47.702874
30
0.0
11
-14.664418
21
47.599776
31
0.0
0
LINE
8
0
6
CONTINUOUS
10
-13.858477
20
47.095572
30
0.0
11
-13.652962
21
47.064673
31
0.0
0
LINE
8
0
6
CONTINUOUS
10
-13.858477
20
47.095572
30
0.0
11
-13.858477
21
47.168020
31
0.0
0
LINE
8
0
6
CONTINUOUS
10
-14.007712
20
47.008543
30
0.0
11
-13.858477
21
47.095572
31
0.0
0
LINE
8
0
6
CONTINUOUS
10
-14.007712
20
47.052844
30
0.0
11
-14.007712
21
47.008543
31
0.0
0
LINE
8
0
6
CONTINUOUS
10
-13.596681
20
46.946745
30
0.0
11
-13.596681
21
47.026964
31
0.0
0
LINE
8
0
6
CONTINUOUS
10
-13.652962
20
47.064673
30
0.0
11
-13.596681
21
46.946745
31
0.0
0
LINE
8
0
6
CONTINUOUS
10
-13.652962
20
47.161667
30
0.0
11
-13.652962
21
47.064673
31
0.0
0
LINE
8
0
6
CONTINUOUS
10
-13.153551
20
46.453428
30
0.0
11
-12.963950
21
46.398306
31
0.0
0
LINE
8
0
6
CONTINUOUS
10
-13.153551
20
46.453428
30
0.0
11
-13.153551
21
46.528786
31
0.0
0
LINE
8
0
6
CONTINUOUS
10
-13.331272
20
46.386458
30
0.0
11
-13.153551
21
46.453428
31
0.0
0
LINE
8
0
6
CONTINUOUS
10
-13.331272
20
46.408826
30
0.0
11
-13.331272
21
46.386458
31
0.0
0
LINE
8
0
6
CONTINUOUS
10
-12.765024
20
44.903914
30
0.0
11
-12.727452
21
44.783545
31
0.0
0
LINE
8
0
6
CONTINUOUS
10
-12.964858
20
44.945364
30
0.0
11
-12.765024
21
44.903914
31
0.0
0
LINE
8
0
6
CONTINUOUS
10
-21.668301
20
44.959089
30
0.0
11
-21.668301
21
45.011612
31
0.0
0
LINE
8
0
6
CONTINUOUS
10
-21.868136
20
44.917639
30
0.0
11
-21.668301
21
44.959089
31
0.0
0
LINE
8
0
6
CONTINUOUS
10
-21.868136
20
45.016414
30
0.0
11
-21.868136
21
44.917639
31
0.0
0
LINE
8
0
6
CONTINUOUS
10
-20.774683
20
47.105353
30
0.0
11
-20.625449
21
47.018324
31
0.0
0
LINE
8
0
6
CONTINUOUS
10
-20.774683
20
47.178538
30
0.0
11
-20.774683
21
47.105353
31
0.0
0
LINE
8
0
6
CONTINUOUS
10
-17.468759
20
48.056463
30
0.0
11
-17.261474
21
48.083159
31
0.0
0
LINE
8
0
6
CONTINUOUS
10
-17.468759
20
48.145352
30
0.0
11
-17.468759
21
48.056463
31
0.0
0
LINE
8
0
6
CONTINUOUS
10
-20.066896
20
47.498717
30
0.0
11
-19.968743
21
47.607176
31
0.0
0
LINE
8
0
6
CONTINUOUS
10
-20.066896
20
47.579300
30
0.0
11
-20.066896
21
47.498717
31
0.0
0
LINE
8
0
6
CONTINUOUS
10
-21.827819
20
45.723768
30
0.0
11
-21.627984
21
45.682318
31
0.0
0
LINE
8
0
6
CONTINUOUS
10
-21.827819
20
45.799075
30
0.0
11
-21.827819
21
45.723768
31
0.0
0
LINE
8
0
6
CONTINUOUS
10
-19.017154
20
45.285094
30
0.0
11
-18.839434
21
45.218107
31
0.0
0
LINE
8
0
6
CONTINUOUS
10
-19.017154
20
45.348779
30
0.0
11
-19.017154
21
45.285094
31
0.0
0
LINE
8
0
6
CONTINUOUS
10
-19.632767
20
45.549330
30
0.0
11
-19.455047
21
45.482344
31
0.0
0
LINE
8
0
6
CONTINUOUS
10
-19.632767
20
45.626746
30
0.0
11
-19.632767
21
45.549330
31
0.0
0
LINE
8
0
6
CONTINUOUS
10
-17.794659
20
45.585242
30
0.0
11
-17.645424
21
45.498213
31
0.0
0
LINE
8
0
6
CONTINUOUS
10
-17.794659
20
45.661755
30
0.0
11
-17.794659
21
45.585242
31
0.0
0
LINE
8
0
6
CONTINUOUS
10
-18.596179
20
45.821593
30
0.0
11
-18.390664
21
45.852492
31
0.0
0
LINE
8
0
6
CONTINUOUS
10
-18.596179
20
45.821593
30
0.0
11
-18.596179
21
45.951682
31
0.0
0
LINE
8
0
6
CONTINUOUS
10
-18.652460
20
45.703665
30
0.0
11
-18.596179
21
45.821593
31
0.0
0
LINE
8
0
6
CONTINUOUS
10
-18.652460
20
45.766080
30
0.0
11
-18.652460
21
45.703665
31
0.0
0
LINE
8
0
6
CONTINUOUS
10
-18.065163
20
46.429396
30
0.0
11
-17.852955
21
46.434675
31
0.0
0
LINE
8
0
6
CONTINUOUS
10
-17.852955
20
46.434675
30
0.0
11
-17.738899
21
46.331503
31
0.0
0
LINE
8
0
6
CONTINUOUS
10
-17.852955
20
46.508330
30
0.0
11
-17.852955
21
46.434675
31
0.0
0
LINE
8
0
6
CONTINUOUS
10
-18.163315
20
46.320929
30
0.0
11
-18.065163
21
46.429396
31
0.0
0
LINE
8
0
6
CONTINUOUS
10
-18.163315
20
46.385587
30
0.0
11
-18.163315
21
46.320929
31
0.0
0
LINE
8
0
6
CONTINUOUS
10
-18.029386
20
47.473585
30
0.0
11
-17.820004
21
47.453024
31
0.0
0
LINE
8
0
6
CONTINUOUS
10
-17.820004
20
47.453024
30
0.0
11
-17.746242
21
47.338331
31
0.0
0
LINE
8
0
6
CONTINUOUS
10
-17.820004
20
47.525313
30
0.0
11
-17.820004
21
47.453024
31
0.0
0
LINE
8
0
6
CONTINUOUS
10
-18.165008
20
47.379462
30
0.0
11
-18.029386
21
47.473585
31
0.0
0
LINE
8
0
6
CONTINUOUS
10
-18.165008
20
47.442743
30
0.0
11
-18.165008
21
47.379462
31
0.0
0
LINE
8
0
6
CONTINUOUS
10
-18.872861
20
44.550047
30
0.0
11
-18.673026
21
44.508597
31
0.0
0
LINE
8
0
6
CONTINUOUS
10
-18.872861
20
44.623149
30
0.0
11
-18.872861
21
44.550047
31
0.0
0
LINE
8
0
6
CONTINUOUS
10
-19.411765
20
44.766875
30
0.0
11
-19.374192
21
44.646498
31
0.0
0
LINE
8
0
6
CONTINUOUS
10
-19.411765
20
44.817707
30
0.0
11
-19.411765
21
44.766875
31
0.0
0
LINE
8
0
6
CONTINUOUS
10
-19.151137
20
43.075820
30
0.0
11
-19.113564
21
42.955451
31
0.0
0
LINE
8
0
6
CONTINUOUS
10
-19.151137
20
43.122636
30
0.0
11
-19.151137
21
43.075820
31
0.0
0
LINE
8
0
6
CONTINUOUS
10
-18.912081
20
43.745155
30
0.0
11
-18.874508
21
43.624786
31
0.0
0
LINE
8
0
6
CONTINUOUS
10
-18.912081
20
43.797616
30
0.0
11
-18.912081
21
43.745155
31
0.0
0
LINE
8
0
6
CONTINUOUS
10
-19.874834
20
44.280241
30
0.0
11
-19.874834
21
44.320941
31
0.0
0
LINE
8
0
6
CONTINUOUS
10
-20.037096
20
44.359167
30
0.0
11
-19.874834
21
44.280241
31
0.0
0
LINE
8
0
6
CONTINUOUS
10
-20.037096
20
44.411990
30
0.0
11
-20.037096
21
44.359167
31
0.0
0
LINE
8
0
6
CONTINUOUS
10
-21.041989
20
44.167357
30
0.0
11
-21.041989
21
44.194063
31
0.0
0
LINE
8
0
6
CONTINUOUS
10
-21.204251
20
44.246275
30
0.0
11
-21.041989
21
44.167357
31
0.0
0
LINE
8
0
6
CONTINUOUS
10
-21.204251
20
44.293022
30
0.0
11
-21.204251
21
44.246275
31
0.0
0
LINE
8
0
6
CONTINUOUS
10
-18.043451
20
43.106536
30
0.0
11
-17.843616
21
43.065078
31
0.0
0
LINE
8
0
6
CONTINUOUS
10
-18.043451
20
43.159090
30
0.0
11
-18.043451
21
43.106536
31
0.0
0
LINE
8
0
6
CONTINUOUS
10
-17.843616
20
43.065078
30
0.0
11
-17.806042
21
42.944709
31
0.0
0
LINE
8
0
6
CONTINUOUS
10
-17.843616
20
43.120407
30
0.0
11
-17.843616
21
43.065078
31
0.0
0
LINE
8
0
6
CONTINUOUS
10
-18.010579
20
43.415427
30
0.0
11
-17.810744
21
43.373969
31
0.0
0
LINE
8
0
6
CONTINUOUS
10
-18.010579
20
43.473619
30
0.0
11
-18.010579
21
43.415427
31
0.0
0
LINE
8
0
6
CONTINUOUS
10
-17.810744
20
43.373969
30
0.0
11
-17.773171
21
43.253600
31
0.0
0
LINE
8
0
6
CONTINUOUS
10
-17.810744
20
43.433147
30
0.0
11
-17.810744
21
43.373969
31
0.0
0
LINE
8
0
6
CONTINUOUS
10
-16.921030
20
44.412657
30
0.0
11
-16.921030
21
44.475343
31
0.0
0
LINE
8
0
6
CONTINUOUS
10
-16.958603
20
44.292288
30
0.0
11
-16.921030
21
44.412657
31
0.0
0
LINE
8
0
6
CONTINUOUS
10
-16.958603
20
44.364468
30
0.0
11
-16.958603
21
44.292288
31
0.0
0
LINE
8
0
6
CONTINUOUS
10
-14.314822
20
43.589362
30
0.0
11
-14.114987
21
43.547919
31
0.0
0
LINE
8
0
6
CONTINUOUS
10
-14.477085
20
43.510452
30
0.0
11
-14.314822
21
43.589362
31
0.0
0
LINE
8
0
6
CONTINUOUS
10
-14.477085
20
43.540845
30
0.0
11
-14.477085
21
43.510452
31
0.0
0
LINE
8
0
6
CONTINUOUS
10
-14.199359
20
43.911773
30
0.0
11
-14.161786
21
43.791396
31
0.0
0
LINE
8
0
6
CONTINUOUS
10
-14.199359
20
44.000190
30
0.0
11
-14.199359
21
43.911773
31
0.0
0
LINE
8
0
6
CONTINUOUS
10
-14.758326
20
44.272970
30
0.0
11
-14.596064
21
44.351897
31
0.0
0
LINE
8
0
6
CONTINUOUS
10
-14.758326
20
44.312281
30
0.0
11
-14.758326
21
44.272970
31
0.0
0
LINE
8
0
6
CONTINUOUS
10
-15.478509
20
44.079245
30
0.0
11
-15.478509
21
44.165645
31
0.0
0
LINE
8
0
6
CONTINUOUS
10
-15.640771
20
44.158171
30
0.0
11
-15.478509
21
44.079245
31
0.0
0
LINE
8
0
6
CONTINUOUS
10
-15.640771
20
44.158171
30
0.0
11
-15.640771
21
44.219078
31
0.0
0
LINE
8
0
6
CONTINUOUS
10
-15.840607
20
44.116713
30
0.0
11
-15.640771
21
44.158171
31
0.0
0
LINE
8
0
6
CONTINUOUS
10
-15.840607
20
44.166953
30
0.0
11
-15.840607
21
44.116713
31
0.0
0
LINE
8
0
6
CONTINUOUS
10
-15.239454
20
43.346488
30
0.0
11
-15.239454
21
43.442003
31
0.0
0
LINE
8
0
6
CONTINUOUS
10
-15.401716
20
43.425407
30
0.0
11
-15.239454
21
43.346488
31
0.0
0
LINE
8
0
6
CONTINUOUS
10
-15.401716
20
43.425407
30
0.0
11
-15.401716
21
43.490242
31
0.0
0
LINE
8
0
6
CONTINUOUS
10
-15.601551
20
43.383956
30
0.0
11
-15.401716
21
43.425407
31
0.0
0
LINE
8
0
6
CONTINUOUS
10
-15.601551
20
43.383956
30
0.0
11
-15.601551
21
43.438813
31
0.0
0
LINE
8
0
6
CONTINUOUS
10
-15.639124
20
43.263580
30
0.0
11
-15.601551
21
43.383956
31
0.0
0
LINE
8
0
6
CONTINUOUS
10
-15.639124
20
43.331560
30
0.0
11
-15.639124
21
43.263580
31
0.0
0
LINE
8
0
6
CONTINUOUS
10
-14.120558
20
44.991354
30
0.0
11
-14.120558
21
45.089723
31
0.0
0
LINE
8
0
6
CONTINUOUS
10
-14.282820
20
45.070273
30
0.0
11
-14.120558
21
44.991354
31
0.0
0
LINE
8
0
6
CONTINUOUS
10
-14.282820
20
45.140096
30
0.0
11
-14.282820
21
45.070273
31
0.0
0
LINE
8
0
6
CONTINUOUS
10
-14.859298
20
44.722677
30
0.0
11
-14.859298
21
44.811403
31
0.0
0
LINE
8
0
6
CONTINUOUS
10
-15.021560
20
44.801596
30
0.0
11
-14.859298
21
44.722677
31
0.0
0
LINE
8
0
6
CONTINUOUS
10
-15.021560
20
44.871915
30
0.0
11
-15.021560
21
44.801596
31
0.0
0
LINE
8
0
6
CONTINUOUS
10
-16.813156
20
47.451132
30
0.0
11
-16.603774
21
47.471693
31
0.0
0
LINE
8
0
6
CONTINUOUS
10
-16.813156
20
47.451132
30
0.0
11
-16.813156
21
47.523724
31
0.0
0
LINE
8
0
6
CONTINUOUS
10
-16.886918
20
47.336439
30
0.0
11
-16.813156
21
47.451132
31
0.0
0
LINE
8
0
6
CONTINUOUS
10
-16.886918
20
47.379603
30
0.0
11
-16.886918
21
47.336439
31
0.0
0
LINE
8
0
6
CONTINUOUS
10
-16.468153
20
47.377577
30
0.0
11
-16.468153
21
47.441157
31
0.0
0
LINE
8
0
6
CONTINUOUS
10
-16.603774
20
47.471693
30
0.0
11
-16.468153
21
47.377577
31
0.0
0
LINE
8
0
6
CONTINUOUS
10
-16.603774
20
47.554498
30
0.0
11
-16.603774
21
47.471693
31
0.0
0
LINE
8
0
6
CONTINUOUS
10
-15.298944
20
47.198935
30
0.0
11
-15.298944
21
47.283416
31
0.0
0
LINE
8
0
6
CONTINUOUS
10
-15.511152
20
47.204222
30
0.0
11
-15.298944
21
47.198935
31
0.0
0
LINE
8
0
6
CONTINUOUS
10
-15.511152
20
47.204222
30
0.0
11
-15.511152
21
47.275257
31
0.0
0
LINE
8
0
6
CONTINUOUS
10
-15.625208
20
47.101050
30
0.0
11
-15.511152
21
47.204222
31
0.0
0
LINE
8
0
6
CONTINUOUS
10
-15.625208
20
47.135915
30
0.0
11
-15.625208
21
47.101050
31
0.0
0
LINE
8
0
6
CONTINUOUS
10
-16.145678
20
46.798178
30
0.0
11
-15.933471
21
46.792891
31
0.0
0
LINE
8
0
6
CONTINUOUS
10
-16.145678
20
46.877693
30
0.0
11
-16.145678
21
46.798178
31
0.0
0
LINE
8
0
6
CONTINUOUS
10
-15.835318
20
46.684439
30
0.0
11
-15.835318
21
46.748934
31
0.0
0
LINE
8
0
6
CONTINUOUS
10
-15.933471
20
46.792891
30
0.0
11
-15.835318
21
46.684439
31
0.0
0
LINE
8
0
6
CONTINUOUS
10
-15.933471
20
46.876475
30
0.0
11
-15.933471
21
46.792891
31
0.0
0
LINE
8
0
6
CONTINUOUS
10
-16.780205
20
46.432753
30
0.0
11
-16.567998
21
46.427466
31
0.0
0
LINE
8
0
6
CONTINUOUS
10
-16.780205
20
46.506232
30
0.0
11
-16.780205
21
46.432753
31
0.0
0
LINE
8
0
6
CONTINUOUS
10
-16.469845
20
46.319006
30
0.0
11
-16.469845
21
46.383811
31
0.0
0
LINE
8
0
6
CONTINUOUS
10
-16.567998
20
46.427466
30
0.0
11
-16.469845
21
46.319006
31
0.0
0
LINE
8
0
6
CONTINUOUS
10
-16.567998
20
46.506664
30
0.0
11
-16.567998
21
46.427466
31
0.0
0
LINE
8
0
6
CONTINUOUS
10
-17.414732
20
46.093428
30
0.0
11
-17.202525
21
46.088141
31
0.0
0
LINE
8
0
6
CONTINUOUS
10
-17.414732
20
46.093428
30
0.0
11
-17.414732
21
46.173170
31
0.0
0
LINE
8
0
6
CONTINUOUS
10
-17.528788
20
45.990256
30
0.0
11
-17.414732
21
46.093428
31
0.0
0
LINE
8
0
6
CONTINUOUS
10
-17.528788
20
46.059541
30
0.0
11
-17.528788
21
45.990256
31
0.0
0
LINE
8
0
6
CONTINUOUS
10
-17.202525
20
46.088141
30
0.0
11
-17.104372
21
45.979681
31
0.0
0
LINE
8
0
6
CONTINUOUS
10
-17.202525
20
46.165431
30
0.0
11
-17.202525
21
46.088141
31
0.0
0
LINE
8
0
6
CONTINUOUS
10
-14.248967
20
46.739088
30
0.0
11
-14.248967
21
46.841392
31
0.0
0
LINE
8
0
6
CONTINUOUS
10
-14.454481
20
46.769987
30
0.0
11
-14.248967
21
46.739088
31
0.0
0
LINE
8
0
6
CONTINUOUS
10
-14.454481
20
46.840584
30
0.0
11
-14.454481
21
46.769987
31
0.0
0
LINE
8
0
6
CONTINUOUS
10
-13.567678
20
45.940611
30
0.0
11
-13.567678
21
46.028718
31
0.0
0
LINE
8
0
6
CONTINUOUS
10
-13.579564
20
46.062720
30
0.0
11
-13.567678
21
45.940611
31
0.0
0
LINE
8
0
6
CONTINUOUS
10
-13.579564
20
46.154211
30
0.0
11
-13.579564
21
46.062720
31
0.0
0
LINE
8
0
6
CONTINUOUS
10
-12.952065
20
46.276198
30
0.0
11
-12.952065
21
46.371678
31
0.0
0
LINE
8
0
6
CONTINUOUS
10
-12.963950
20
46.398306
30
0.0
11
-12.952065
21
46.276198
31
0.0
0
LINE
8
0
6
CONTINUOUS
10
-12.963950
20
46.510213
30
0.0
11
-12.963950
21
46.398306
31
0.0
0
LINE
8
0
6
CONTINUOUS
10
-13.127121
20
44.866438
30
0.0
11
-12.964858
21
44.945364
31
0.0
0
LINE
8
0
6
CONTINUOUS
10
-13.127121
20
44.889501
30
0.0
11
-13.127121
21
44.866438
31
0.0
0
LINE
8
0
6
CONTINUOUS
10
-14.827059
20
43.806625
30
0.0
11
-14.529416
21
44.004774
31
0.0
0
LINE
8
0
6
CONTINUOUS
10
-14.899578
20
43.766021
30
0.0
11
-14.827059
21
43.806625
31
0.0
0
LINE
8
0
6
CONTINUOUS
10
-14.610564
20
43.958426
30
0.0
11
-14.899578
21
43.766021
31
0.0
0
LINE
8
0
6
CONTINUOUS
10
-14.529416
20
44.004774
30
0.0
11
-14.276445
21
44.224219
31
0.0
0
LINE
8
0
6
CONTINUOUS
10
-14.364951
20
44.171484
30
0.0
11
-14.610564
21
43.958426
31
0.0
0
LINE
8
0
6
CONTINUOUS
10
-14.276445
20
44.224219
30
0.0
11
-14.072348
21
44.462523
31
0.0
0
LINE
8
0
6
CONTINUOUS
10
-14.166818
20
44.402823
30
0.0
11
-14.364951
21
44.171484
31
0.0
0
LINE
8
0
6
CONTINUOUS
10
-14.072348
20
44.462523
30
0.0
11
-13.921349
21
44.717192
31
0.0
0
LINE
8
0
6
CONTINUOUS
10
-14.020245
20
44.650007
30
0.0
11
-14.166818
21
44.402823
31
0.0
0
LINE
8
0
6
CONTINUOUS
10
-13.921349
20
44.717192
30
0.0
11
-13.827677
21
44.985739
31
0.0
0
LINE
8
0
6
CONTINUOUS
10
-13.929309
20
44.910696
30
0.0
11
-14.020245
21
44.650007
31
0.0
0
LINE
8
0
6
CONTINUOUS
10
-13.827677
20
44.985739
30
0.0
11
-13.795534
21
45.265570
31
0.0
0
LINE
8
0
6
CONTINUOUS
10
-13.898091
20
45.182471
30
0.0
11
-13.929309
21
44.910696
31
0.0
0
LINE
8
0
6
CONTINUOUS
10
-13.929310
20
45.454245
30
0.0
11
-13.898091
21
45.182471
31
0.0
0
LINE
8
0
6
CONTINUOUS
10
-13.827677
20
45.545408
30
0.0
11
-13.921349
21
45.813948
31
0.0
0
LINE
8
0
6
CONTINUOUS
10
-14.020245
20
45.714926
30
0.0
11
-13.929310
21
45.454245
31
0.0
0
LINE
8
0
6
CONTINUOUS
10
-14.166819
20
45.962118
30
0.0
11
-14.020245
21
45.714926
31
0.0
0
LINE
8
0
6
CONTINUOUS
10
-14.364951
20
46.193449
30
0.0
11
-14.166819
21
45.962118
31
0.0
0
LINE
8
0
6
CONTINUOUS
10
-14.610564
20
46.406515
30
0.0
11
-14.364951
21
46.193449
31
0.0
0
LINE
8
0
6
CONTINUOUS
10
-14.899579
20
46.598921
30
0.0
11
-14.610564
21
46.406515
31
0.0
0
LINE
8
0
6
CONTINUOUS
10
-15.227916
20
46.768286
30
0.0
11
-14.899579
21
46.598921
31
0.0
0
LINE
8
0
6
CONTINUOUS
10
-15.591498
20
46.912222
30
0.0
11
-15.227916
21
46.768286
31
0.0
0
LINE
8
0
6
CONTINUOUS
10
-15.986244
20
47.028334
30
0.0
11
-15.591498
21
46.912222
31
0.0
0
LINE
8
0
6
CONTINUOUS
10
-16.408077
20
47.114226
30
0.0
11
-15.986244
21
47.028334
31
0.0
0
LINE
8
0
6
CONTINUOUS
10
-16.852917
20
47.167517
30
0.0
11
-16.408077
21
47.114226
31
0.0
0
LINE
8
0
6
CONTINUOUS
10
-17.316685
20
47.185805
30
0.0
11
-16.852917
21
47.167517
31
0.0
0
LINE
8
0
6
CONTINUOUS
10
-17.780453
20
47.167517
30
0.0
11
-17.316685
21
47.185805
31
0.0
0
LINE
8
0
6
CONTINUOUS
10
-18.225293
20
47.114226
30
0.0
11
-17.780453
21
47.167517
31
0.0
0
LINE
8
0
6
CONTINUOUS
10
-18.647126
20
47.028334
30
0.0
11
-18.225293
21
47.114226
31
0.0
0
LINE
8
0
6
CONTINUOUS
10
-19.041872
20
46.912222
30
0.0
11
-18.647126
21
47.028334
31
0.0
0
LINE
8
0
6
CONTINUOUS
10
-19.405453
20
46.768286
30
0.0
11
-19.041872
21
46.912222
31
0.0
0
LINE
8
0
6
CONTINUOUS
10
-19.733791
20
46.598921
30
0.0
11
-19.405453
21
46.768286
31
0.0
0
LINE
8
0
6
CONTINUOUS
10
-20.022806
20
46.406515
30
0.0
11
-19.733791
21
46.598921
31
0.0
0
LINE
8
0
6
CONTINUOUS
10
-20.268419
20
46.193449
30
0.0
11
-20.022806
21
46.406515
31
0.0
0
LINE
8
0
6
CONTINUOUS
10
-20.466552
20
45.962118
30
0.0
11
-20.268419
21
46.193449
31
0.0
0
LINE
8
0
6
CONTINUOUS
10
-20.561021
20
46.068617
30
0.0
11
-20.712021
21
45.813948
31
0.0
0
LINE
8
0
6
CONTINUOUS
10
-20.613125
20
45.714926
30
0.0
11
-20.466552
21
45.962118
31
0.0
0
LINE
8
0
6
CONTINUOUS
10
-20.712021
20
45.813948
30
0.0
11
-20.805692
21
45.545408
31
0.0
0
LINE
8
0
6
CONTINUOUS
10
-20.704060
20
45.454245
30
0.0
11
-20.613125
21
45.714926
31
0.0
0
LINE
8
0
6
CONTINUOUS
10
-20.805692
20
45.545408
30
0.0
11
-20.837836
21
45.265570
31
0.0
0
LINE
8
0
6
CONTINUOUS
10
-20.735278
20
45.182471
30
0.0
11
-20.704060
21
45.454245
31
0.0
0
LINE
8
0
6
CONTINUOUS
10
-20.837836
20
45.265570
30
0.0
11
-20.805692
21
44.985739
31
0.0
0
LINE
8
0
6
CONTINUOUS
10
-20.704060
20
44.910696
30
0.0
11
-20.735278
21
45.182471
31
0.0
0
LINE
8
0
6
CONTINUOUS
10
-20.805692
20
44.985739
30
0.0
11
-20.712021
21
44.717192
31
0.0
0
LINE
8
0
6
CONTINUOUS
10
-20.613125
20
44.650007
30
0.0
11
-20.704060
21
44.910696
31
0.0
0
LINE
8
0
6
CONTINUOUS
10
-20.712021
20
44.717192
30
0.0
11
-20.561021
21
44.462523
31
0.0
0
LINE
8
0
6
CONTINUOUS
10
-20.466551
20
44.402823
30
0.0
11
-20.613125
21
44.650007
31
0.0
0
LINE
8
0
6
CONTINUOUS
10
-20.561021
20
44.462523
30
0.0
11
-20.356924
21
44.224219
31
0.0
0
LINE
8
0
6
CONTINUOUS
10
-20.268418
20
44.171484
30
0.0
11
-20.466551
21
44.402823
31
0.0
0
LINE
8
0
6
CONTINUOUS
10
-20.356924
20
44.224219
30
0.0
11
-20.103954
21
44.004774
31
0.0
0
LINE
8
0
6
CONTINUOUS
10
-20.022805
20
43.958426
30
0.0
11
-20.268418
21
44.171484
31
0.0
0
LINE
8
0
6
CONTINUOUS
10
-19.806310
20
43.806625
30
0.0
11
-19.733791
21
43.766021
31
0.0
0
LINE
8
0
6
CONTINUOUS
10
-20.103954
20
44.004774
30
0.0
11
-19.806310
21
43.806625
31
0.0
0
LINE
8
0
6
CONTINUOUS
10
-19.733791
20
43.766021
30
0.0
11
-20.022805
21
43.958426
31
0.0
0
LINE
8
0
6
CONTINUOUS
10
-16.070444
20
44.109244
30
0.0
11
-16.052285
21
44.117419
31
0.0
0
LINE
8
0
6
CONTINUOUS
10
-15.874544
20
44.208525
30
0.0
11
-16.070444
21
44.109244
31
0.0
0
LINE
8
0
6
CONTINUOUS
10
-15.702108
20
44.321326
30
0.0
11
-15.874544
21
44.208525
31
0.0
0
LINE
8
0
6
CONTINUOUS
10
-15.437352
20
44.581839
30
0.0
11
-15.555565
21
44.446226
31
0.0
0
LINE
8
0
6
CONTINUOUS
10
-15.349900
20
44.726752
30
0.0
11
-15.437352
21
44.581839
31
0.0
0
LINE
8
0
6
CONTINUOUS
10
-15.295644
20
44.879568
30
0.0
11
-15.349900
21
44.726752
31
0.0
0
LINE
8
0
6
CONTINUOUS
10
-15.277019
20
45.038885
30
0.0
11
-15.295644
21
44.879568
31
0.0
0
LINE
8
0
6
CONTINUOUS
10
-15.295644
20
45.198218
30
0.0
11
-15.277019
21
45.038885
31
0.0
0
LINE
8
0
6
CONTINUOUS
10
-15.349900
20
45.351034
30
0.0
11
-15.295644
21
45.198218
31
0.0
0
LINE
8
0
6
CONTINUOUS
10
-15.437352
20
45.495939
30
0.0
11
-15.349900
21
45.351034
31
0.0
0
LINE
8
0
6
CONTINUOUS
10
-15.555565
20
45.631560
30
0.0
11
-15.437352
21
45.495939
31
0.0
0
LINE
8
0
6
CONTINUOUS
10
-15.702109
20
45.756460
30
0.0
11
-15.555565
21
45.631560
31
0.0
0
LINE
8
0
6
CONTINUOUS
10
-15.874544
20
45.869253
30
0.0
11
-15.702109
21
45.756460
31
0.0
0
LINE
8
0
6
CONTINUOUS
10
-16.070444
20
45.968535
30
0.0
11
-15.874544
21
45.869253
31
0.0
0
LINE
8
0
6
CONTINUOUS
10
-16.287371
20
46.052916
30
0.0
11
-16.070444
21
45.968535
31
0.0
0
LINE
8
0
6
CONTINUOUS
10
-16.522892
20
46.120978
30
0.0
11
-16.287371
21
46.052916
31
0.0
0
LINE
8
0
6
CONTINUOUS
10
-16.774573
20
46.171339
30
0.0
11
-16.522892
21
46.120978
31
0.0
0
LINE
8
0
6
CONTINUOUS
10
-17.039983
20
46.202574
30
0.0
11
-16.774573
21
46.171339
31
0.0
0
LINE
8
0
6
CONTINUOUS
10
-17.316685
20
46.213301
30
0.0
11
-17.039983
21
46.202574
31
0.0
0
LINE
8
0
6
CONTINUOUS
10
-17.593387
20
46.202574
30
0.0
11
-17.316685
21
46.213301
31
0.0
0
LINE
8
0
6
CONTINUOUS
10
-17.858796
20
46.171332
30
0.0
11
-17.593387
21
46.202574
31
0.0
0
LINE
8
0
6
CONTINUOUS
10
-18.110478
20
46.120978
30
0.0
11
-17.858796
21
46.171332
31
0.0
0
LINE
8
0
6
CONTINUOUS
10
-18.345999
20
46.052916
30
0.0
11
-18.110478
21
46.120978
31
0.0
0
LINE
8
0
6
CONTINUOUS
10
-18.562925
20
45.968535
30
0.0
11
-18.345999
21
46.052916
31
0.0
0
LINE
8
0
6
CONTINUOUS
10
-18.758824
20
45.869253
30
0.0
11
-18.562925
21
45.968535
31
0.0
0
LINE
8
0
6
CONTINUOUS
10
-18.931262
20
45.756460
30
0.0
11
-18.758824
21
45.869253
31
0.0
0
LINE
8
0
6
CONTINUOUS
10
-19.077804
20
45.631560
30
0.0
11
-18.931262
21
45.756460
31
0.0
0
LINE
8
0
6
CONTINUOUS
10
-19.196018
20
45.495939
30
0.0
11
-19.077804
21
45.631560
31
0.0
0
LINE
8
0
6
CONTINUOUS
10
-19.283469
20
45.351034
30
0.0
11
-19.196018
21
45.495939
31
0.0
0
LINE
8
0
6
CONTINUOUS
10
-19.337725
20
45.198218
30
0.0
11
-19.283469
21
45.351034
31
0.0
0
LINE
8
0
6
CONTINUOUS
10
-19.356351
20
45.038885
30
0.0
11
-19.337725
21
45.198218
31
0.0
0
LINE
8
0
6
CONTINUOUS
10
-19.425034
20
45.089102
30
0.0
11
-19.405787
21
44.924475
31
0.0
0
LINE
8
0
6
CONTINUOUS
10
-19.337725
20
44.879568
30
0.0
11
-19.356351
21
45.038885
31
0.0
0
LINE
8
0
6
CONTINUOUS
10
-19.405787
20
44.924475
30
0.0
11
-19.349700
21
44.766478
31
0.0
0
LINE
8
0
6
CONTINUOUS
10
-19.283469
20
44.726752
30
0.0
11
-19.337725
21
44.879568
31
0.0
0
LINE
8
0
6
CONTINUOUS
10
-19.196018
20
44.581839
30
0.0
11
-19.283469
21
44.726752
31
0.0
0
LINE
8
0
6
CONTINUOUS
10
-19.077803
20
44.446226
30
0.0
11
-19.196018
21
44.581839
31
0.0
0
LINE
8
0
6
CONTINUOUS
10
-18.758824
20
44.208525
30
0.0
11
-18.931261
21
44.321326
31
0.0
0
LINE
8
0
6
CONTINUOUS
10
-18.585376
20
44.119350
30
0.0
11
-18.562925
21
44.109244
31
0.0
0
LINE
8
0
6
CONTINUOUS
10
-18.562925
20
44.109244
30
0.0
11
-18.758824
21
44.208525
31
0.0
0
LINE
8
0
6
CONTINUOUS
10
-15.021560
20
44.801596
30
0.0
11
-15.221395
21
44.760145
31
0.0
0
LINE
8
0
6
CONTINUOUS
10
-14.859298
20
44.722677
30
0.0
11
-15.021560
21
44.801596
31
0.0
0
LINE
8
0
6
CONTINUOUS
10
-14.896871
20
44.602301
30
0.0
11
-14.859298
21
44.722677
31
0.0
0
LINE
8
0
6
CONTINUOUS
10
-15.096706
20
44.560850
30
0.0
11
-14.896871
21
44.602301
31
0.0
0
LINE
8
0
6
CONTINUOUS
10
-15.258969
20
44.639776
30
0.0
11
-15.096706
21
44.560850
31
0.0
0
LINE
8
0
6
CONTINUOUS
10
-15.221395
20
44.760145
30
0.0
11
-15.258969
21
44.639776
31
0.0
0
LINE
8
0
6
CONTINUOUS
10
-17.881863
20
47.244208
30
0.0
11
-17.746242
21
47.338331
31
0.0
0
LINE
8
0
6
CONTINUOUS
10
-18.091246
20
47.264769
30
0.0
11
-17.881863
21
47.244208
31
0.0
0
LINE
8
0
6
CONTINUOUS
10
-18.165008
20
47.379462
30
0.0
11
-18.091246
21
47.264769
31
0.0
0
LINE
8
0
6
CONTINUOUS
10
-18.029386
20
47.473585
30
0.0
11
-18.165008
21
47.379462
31
0.0
0
LINE
8
0
6
CONTINUOUS
10
-17.820004
20
47.453024
30
0.0
11
-18.029386
21
47.473585
31
0.0
0
LINE
8
0
6
CONTINUOUS
10
-17.746242
20
47.338331
30
0.0
11
-17.820004
21
47.453024
31
0.0
0
LINE
8
0
6
CONTINUOUS
10
-20.178679
20
46.779860
30
0.0
11
-20.384194
21
46.748953
31
0.0
0
LINE
8
0
6
CONTINUOUS
10
-20.029444
20
46.692831
30
0.0
11
-20.178679
21
46.779860
31
0.0
0
LINE
8
0
6
CONTINUOUS
10
-20.085724
20
46.574904
30
0.0
11
-20.029444
21
46.692831
31
0.0
0
LINE
8
0
6
CONTINUOUS
10
-20.291239
20
46.544005
30
0.0
11
-20.085724
21
46.574904
31
0.0
0
LINE
8
0
6
CONTINUOUS
10
-20.440475
20
46.631026
30
0.0
11
-20.291239
21
46.544005
31
0.0
0
LINE
8
0
6
CONTINUOUS
10
-20.384194
20
46.748953
30
0.0
11
-20.440475
21
46.631026
31
0.0
0
LINE
8
0
6
CONTINUOUS
10
-16.129936
20
45.613646
30
0.0
11
-15.980700
21
45.700674
31
0.0
0
LINE
8
0
6
CONTINUOUS
10
-16.335451
20
45.644545
30
0.0
11
-16.129936
21
45.613646
31
0.0
0
LINE
8
0
6
CONTINUOUS
10
-16.391731
20
45.762472
30
0.0
11
-16.335451
21
45.644545
31
0.0
0
LINE
8
0
6
CONTINUOUS
10
-16.242496
20
45.849501
30
0.0
11
-16.391731
21
45.762472
31
0.0
0
LINE
8
0
6
CONTINUOUS
10
-16.036981
20
45.818602
30
0.0
11
-16.242496
21
45.849501
31
0.0
0
LINE
8
0
6
CONTINUOUS
10
-15.980700
20
45.700674
30
0.0
11
-16.036981
21
45.818602
31
0.0
0
LINE
8
0
6
CONTINUOUS
10
-15.840607
20
44.116713
30
0.0
11
-15.878180
21
43.996344
31
0.0
0
LINE
8
0
6
CONTINUOUS
10
-15.640771
20
44.158171
30
0.0
11
-15.840607
21
44.116713
31
0.0
0
LINE
8
0
6
CONTINUOUS
10
-15.478509
20
44.079245
30
0.0
11
-15.640771
21
44.158171
31
0.0
0
LINE
8
0
6
CONTINUOUS
10
-15.516082
20
43.958876
30
0.0
11
-15.478509
21
44.079245
31
0.0
0
LINE
8
0
6
CONTINUOUS
10
-15.715917
20
43.917426
30
0.0
11
-15.516082
21
43.958876
31
0.0
0
LINE
8
0
6
CONTINUOUS
10
-15.878180
20
43.996344
30
0.0
11
-15.715917
21
43.917426
31
0.0
0
LINE
8
0
6
CONTINUOUS
10
-13.428910
20
44.233786
30
0.0
11
-13.591172
21
44.154860
31
0.0
0
LINE
8
0
6
CONTINUOUS
10
-13.229074
20
44.192328
30
0.0
11
-13.428910
21
44.233786
31
0.0
0
LINE
8
0
6
CONTINUOUS
10
-13.191501
20
44.071959
30
0.0
11
-13.229074
21
44.192328
31
0.0
0
LINE
8
0
6
CONTINUOUS
10
-13.353763
20
43.993040
30
0.0
11
-13.191501
21
44.071959
31
0.0
0
LINE
8
0
6
CONTINUOUS
10
-13.553599
20
44.034491
30
0.0
11
-13.353763
21
43.993040
31
0.0
0
LINE
8
0
6
CONTINUOUS
10
-13.591172
20
44.154860
30
0.0
11
-13.553599
21
44.034491
31
0.0
0
LINE
8
0
6
CONTINUOUS
10
-18.917242
20
43.922485
30
0.0
11
-18.754980
21
44.001410
31
0.0
0
LINE
8
0
6
CONTINUOUS
10
-19.117078
20
43.963934
30
0.0
11
-18.917242
21
43.922485
31
0.0
0
LINE
8
0
6
CONTINUOUS
10
-19.154651
20
44.084303
30
0.0
11
-19.117078
21
43.963934
31
0.0
0
LINE
8
0
6
CONTINUOUS
10
-18.992388
20
44.163229
30
0.0
11
-19.154651
21
44.084303
31
0.0
0
LINE
8
0
6
CONTINUOUS
10
-18.792553
20
44.121779
30
0.0
11
-18.992388
21
44.163229
31
0.0
0
LINE
8
0
6
CONTINUOUS
10
-18.754980
20
44.001410
30
0.0
11
-18.792553
21
44.121779
31
0.0
0
LINE
8
0
6
CONTINUOUS
10
-15.527057
20
46.992583
30
0.0
11
-15.314848
21
46.987295
31
0.0
0
LINE
8
0
6
CONTINUOUS
10
-15.625208
20
47.101050
30
0.0
11
-15.527057
21
46.992583
31
0.0
0
LINE
8
0
6
CONTINUOUS
10
-15.511152
20
47.204222
30
0.0
11
-15.625208
21
47.101050
31
0.0
0
LINE
8
0
6
CONTINUOUS
10
-15.298944
20
47.198935
30
0.0
11
-15.511152
21
47.204222
31
0.0
0
LINE
8
0
6
CONTINUOUS
10
-15.200791
20
47.090475
30
0.0
11
-15.298944
21
47.198935
31
0.0
0
LINE
8
0
6
CONTINUOUS
10
-15.314848
20
46.987295
30
0.0
11
-15.200791
21
47.090475
31
0.0
0
LINE
8
0
6
CONTINUOUS
10
-21.743446
20
44.718344
30
0.0
11
-21.543612
21
44.759794
31
0.0
0
LINE
8
0
6
CONTINUOUS
10
-21.905709
20
44.797270
30
0.0
11
-21.743446
21
44.718344
31
0.0
0
LINE
8
0
6
CONTINUOUS
10
-21.868136
20
44.917639
30
0.0
11
-21.905709
21
44.797270
31
0.0
0
LINE
8
0
6
CONTINUOUS
10
-21.668301
20
44.959089
30
0.0
11
-21.868136
21
44.917639
31
0.0
0
LINE
8
0
6
CONTINUOUS
10
-21.506038
20
44.880163
30
0.0
11
-21.668301
21
44.959089
31
0.0
0
LINE
8
0
6
CONTINUOUS
10
-21.543612
20
44.759794
30
0.0
11
-21.506038
21
44.880163
31
0.0
0
LINE
8
0
6
CONTINUOUS
10
-19.632767
20
45.549330
30
0.0
11
-19.822369
21
45.494200
31
0.0
0
LINE
8
0
6
CONTINUOUS
10
-19.455047
20
45.482344
30
0.0
11
-19.632767
21
45.549330
31
0.0
0
LINE
8
0
6
CONTINUOUS
10
-19.466931
20
45.360243
30
0.0
11
-19.455047
21
45.482344
31
0.0
0
LINE
8
0
6
CONTINUOUS
10
-19.656535
20
45.305105
30
0.0
11
-19.466931
21
45.360243
31
0.0
0
LINE
8
0
6
CONTINUOUS
10
-19.834255
20
45.372092
30
0.0
11
-19.656535
21
45.305105
31
0.0
0
LINE
8
0
6
CONTINUOUS
10
-19.822369
20
45.494200
30
0.0
11
-19.834255
21
45.372092
31
0.0
0
LINE
8
0
6
CONTINUOUS
10
-17.836820
20
44.215170
30
0.0
11
-17.674557
21
44.294096
31
0.0
0
LINE
8
0
6
CONTINUOUS
10
-18.036655
20
44.256613
30
0.0
11
-17.836820
21
44.215170
31
0.0
0
LINE
8
0
6
CONTINUOUS
10
-18.074228
20
44.376990
30
0.0
11
-18.036655
21
44.256613
31
0.0
0
LINE
8
0
6
CONTINUOUS
10
-17.911966
20
44.455916
30
0.0
11
-18.074228
21
44.376990
31
0.0
0
LINE
8
0
6
CONTINUOUS
10
-17.712130
20
44.414465
30
0.0
11
-17.911966
21
44.455916
31
0.0
0
LINE
8
0
6
CONTINUOUS
10
-17.674557
20
44.294096
30
0.0
11
-17.712130
21
44.414465
31
0.0
0
LINE
8
0
6
CONTINUOUS
10
-14.399195
20
43.953230
30
0.0
11
-14.561457
21
43.874305
31
0.0
0
LINE
8
0
6
CONTINUOUS
10
-14.199359
20
43.911773
30
0.0
11
-14.399195
21
43.953230
31
0.0
0
LINE
8
0
6
CONTINUOUS
10
-14.161786
20
43.791396
30
0.0
11
-14.199359
21
43.911773
31
0.0
0
LINE
8
0
6
CONTINUOUS
10
-14.324048
20
43.712486
30
0.0
11
-14.161786
21
43.791396
31
0.0
0
LINE
8
0
6
CONTINUOUS
10
-14.523884
20
43.753928
30
0.0
11
-14.324048
21
43.712486
31
0.0
0
LINE
8
0
6
CONTINUOUS
10
-14.561457
20
43.874305
30
0.0
11
-14.523884
21
43.753928
31
0.0
0
LINE
8
0
6
CONTINUOUS
10
-16.697727
20
43.176490
30
0.0
11
-16.497892
21
43.217933
31
0.0
0
LINE
8
0
6
CONTINUOUS
10
-16.859990
20
43.255409
30
0.0
11
-16.697727
21
43.176490
31
0.0
0
LINE
8
0
6
CONTINUOUS
10
-16.822416
20
43.375785
30
0.0
11
-16.859990
21
43.255409
31
0.0
0
LINE
8
0
6
CONTINUOUS
10
-16.622581
20
43.417228
30
0.0
11
-16.822416
21
43.375785
31
0.0
0
LINE
8
0
6
CONTINUOUS
10
-16.460319
20
43.338317
30
0.0
11
-16.622581
21
43.417228
31
0.0
0
LINE
8
0
6
CONTINUOUS
10
-16.497892
20
43.217933
30
0.0
11
-16.460319
21
43.338317
31
0.0
0
LINE
8
0
6
CONTINUOUS
10
-17.468759
20
48.056463
30
0.0
11
-17.532245
21
47.939757
31
0.0
0
LINE
8
0
6
CONTINUOUS
10
-17.261474
20
48.083159
30
0.0
11
-17.468759
21
48.056463
31
0.0
0
LINE
8
0
6
CONTINUOUS
10
-17.117677
20
47.993155
30
0.0
11
-17.261474
21
48.083159
31
0.0
0
LINE
8
0
6
CONTINUOUS
10
-17.181164
20
47.876440
30
0.0
11
-17.117677
21
47.993155
31
0.0
0
LINE
8
0
6
CONTINUOUS
10
-17.388447
20
47.849745
30
0.0
11
-17.181164
21
47.876440
31
0.0
0
LINE
8
0
6
CONTINUOUS
10
-17.532245
20
47.939757
30
0.0
11
-17.388447
21
47.849745
31
0.0
0
LINE
8
0
6
CONTINUOUS
10
-15.166229
20
45.353140
30
0.0
11
-14.976626
21
45.298010
31
0.0
0
LINE
8
0
6
CONTINUOUS
10
-15.178113
20
45.475249
30
0.0
11
-15.166229
21
45.353140
31
0.0
0
LINE
8
0
6
CONTINUOUS
10
-15.000393
20
45.542227
30
0.0
11
-15.178113
21
45.475249
31
0.0
0
LINE
8
0
6
CONTINUOUS
10
-14.810791
20
45.487105
30
0.0
11
-15.000393
21
45.542227
31
0.0
0
LINE
8
0
6
CONTINUOUS
10
-14.798905
20
45.364996
30
0.0
11
-14.810791
21
45.487105
31
0.0
0
LINE
8
0
6
CONTINUOUS
10
-14.976626
20
45.298010
30
0.0
11
-14.798905
21
45.364996
31
0.0
0
LINE
8
0
6
CONTINUOUS
10
-18.730291
20
47.715056
30
0.0
11
-18.563831
21
47.698704
31
0.0
0
LINE
8
0
6
CONTINUOUS
10
-18.804053
20
47.829741
30
0.0
11
-18.730291
21
47.715056
31
0.0
0
LINE
8
0
6
CONTINUOUS
10
-18.668431
20
47.923872
30
0.0
11
-18.804053
21
47.829741
31
0.0
0
LINE
8
0
6
CONTINUOUS
10
-18.459049
20
47.903303
30
0.0
11
-18.668431
21
47.923872
31
0.0
0
LINE
8
0
6
CONTINUOUS
10
-18.385288
20
47.788611
30
0.0
11
-18.459049
21
47.903303
31
0.0
0
LINE
8
0
6
CONTINUOUS
10
-18.507941
20
47.703486
30
0.0
11
-18.385288
21
47.788611
31
0.0
0
LINE
8
0
6
CONTINUOUS
10
-21.053597
20
46.073256
30
0.0
11
-21.065483
21
45.951147
31
0.0
0
LINE
8
0
6
CONTINUOUS
10
-20.863994
20
46.128378
30
0.0
11
-21.053597
21
46.073256
31
0.0
0
LINE
8
0
6
CONTINUOUS
10
-20.686274
20
46.061407
30
0.0
11
-20.863994
21
46.128378
31
0.0
0
LINE
8
0
6
CONTINUOUS
10
-20.698158
20
45.939291
30
0.0
11
-20.686274
21
46.061407
31
0.0
0
LINE
8
0
6
CONTINUOUS
10
-20.887762
20
45.884169
30
0.0
11
-20.698158
21
45.939291
31
0.0
0
LINE
8
0
6
CONTINUOUS
10
-21.065483
20
45.951147
30
0.0
11
-20.887762
21
45.884169
31
0.0
0
LINE
8
0
6
CONTINUOUS
10
-17.414732
20
46.093428
30
0.0
11
-17.476040
21
46.037970
31
0.0
0
LINE
8
0
6
CONTINUOUS
10
-17.476040
20
46.037970
30
0.0
11
-17.528788
21
45.990256
31
0.0
0
LINE
8
0
6
CONTINUOUS
10
-17.202525
20
46.088141
30
0.0
11
-17.414732
21
46.093428
31
0.0
0
LINE
8
0
6
CONTINUOUS
10
-17.104372
20
45.979681
30
0.0
11
-17.202525
21
46.088141
31
0.0
0
LINE
8
0
6
CONTINUOUS
10
-17.218429
20
45.876509
30
0.0
11
-17.104372
21
45.979681
31
0.0
0
LINE
8
0
6
CONTINUOUS
10
-17.430637
20
45.881804
30
0.0
11
-17.218429
21
45.876509
31
0.0
0
LINE
8
0
6
CONTINUOUS
10
-17.528788
20
45.990256
30
0.0
11
-17.524005
21
45.984971
31
0.0
0
LINE
8
0
6
CONTINUOUS
10
-17.524005
20
45.984971
30
0.0
11
-17.430637
21
45.881804
31
0.0
0
LINE
8
0
6
CONTINUOUS
10
-16.589710
20
43.095145
30
0.0
11
-16.789545
21
43.053703
31
0.0
0
LINE
8
0
6
CONTINUOUS
10
-16.427448
20
43.016227
30
0.0
11
-16.589710
21
43.095145
31
0.0
0
LINE
8
0
6
CONTINUOUS
10
-16.465020
20
42.895850
30
0.0
11
-16.427448
21
43.016227
31
0.0
0
LINE
8
0
6
CONTINUOUS
10
-16.664856
20
42.854400
30
0.0
11
-16.465020
21
42.895850
31
0.0
0
LINE
8
0
6
CONTINUOUS
10
-16.827118
20
42.933326
30
0.0
11
-16.664856
21
42.854400
31
0.0
0
LINE
8
0
6
CONTINUOUS
10
-16.789545
20
43.053703
30
0.0
11
-16.827118
21
42.933326
31
0.0
0
LINE
8
0
6
CONTINUOUS
10
-20.350340
20
45.079817
30
0.0
11
-20.512602
21
45.000906
31
0.0
0
LINE
8
0
6
CONTINUOUS
10
-20.150505
20
45.038374
30
0.0
11
-20.350340
21
45.079817
31
0.0
0
LINE
8
0
6
CONTINUOUS
10
-20.112932
20
44.917998
30
0.0
11
-20.150505
21
45.038374
31
0.0
0
LINE
8
0
6
CONTINUOUS
10
-20.275194
20
44.839071
30
0.0
11
-20.112932
21
44.917998
31
0.0
0
LINE
8
0
6
CONTINUOUS
10
-20.475030
20
44.880530
30
0.0
11
-20.275194
21
44.839071
31
0.0
0
LINE
8
0
6
CONTINUOUS
10
-20.512602
20
45.000906
30
0.0
11
-20.475030
21
44.880530
31
0.0
0
LINE
8
0
6
CONTINUOUS
10
-16.780205
20
46.432753
30
0.0
11
-16.894261
21
46.329581
31
0.0
0
LINE
8
0
6
CONTINUOUS
10
-16.567998
20
46.427466
30
0.0
11
-16.780205
21
46.432753
31
0.0
0
LINE
8
0
6
CONTINUOUS
10
-16.469845
20
46.319006
30
0.0
11
-16.567998
21
46.427466
31
0.0
0
LINE
8
0
6
CONTINUOUS
10
-16.583902
20
46.215834
30
0.0
11
-16.469845
21
46.319006
31
0.0
0
LINE
8
0
6
CONTINUOUS
10
-16.796110
20
46.221121
30
0.0
11
-16.583902
21
46.215834
31
0.0
0
LINE
8
0
6
CONTINUOUS
10
-16.894261
20
46.329581
30
0.0
11
-16.796110
21
46.221121
31
0.0
0
LINE
8
0
6
CONTINUOUS
10
-20.774683
20
47.105353
30
0.0
11
-20.980198
21
47.074446
31
0.0
0
LINE
8
0
6
CONTINUOUS
10
-20.625449
20
47.018324
30
0.0
11
-20.774683
21
47.105353
31
0.0
0
LINE
8
0
6
CONTINUOUS
10
-20.681728
20
46.900397
30
0.0
11
-20.625449
21
47.018324
31
0.0
0
LINE
8
0
6
CONTINUOUS
10
-20.887244
20
46.869490
30
0.0
11
-20.681728
21
46.900397
31
0.0
0
LINE
8
0
6
CONTINUOUS
10
-21.036480
20
46.956518
30
0.0
11
-20.887244
21
46.869490
31
0.0
0
LINE
8
0
6
CONTINUOUS
10
-20.980198
20
47.074446
30
0.0
11
-21.036480
21
46.956518
31
0.0
0
LINE
8
0
6
CONTINUOUS
10
-15.760300
20
44.545004
30
0.0
11
-15.960135
21
44.503561
31
0.0
0
LINE
8
0
6
CONTINUOUS
10
-15.598038
20
44.466086
30
0.0
11
-15.760300
21
44.545004
31
0.0
0
LINE
8
0
6
CONTINUOUS
10
-15.635610
20
44.345709
30
0.0
11
-15.598038
21
44.466086
31
0.0
0
LINE
8
0
6
CONTINUOUS
10
-15.835446
20
44.304259
30
0.0
11
-15.635610
21
44.345709
31
0.0
0
LINE
8
0
6
CONTINUOUS
10
-15.997708
20
44.383185
30
0.0
11
-15.835446
21
44.304259
31
0.0
0
LINE
8
0
6
CONTINUOUS
10
-15.960135
20
44.503561
30
0.0
11
-15.997708
21
44.383185
31
0.0
0
LINE
8
0
6
CONTINUOUS
10
-18.065163
20
46.429396
30
0.0
11
-18.163315
21
46.320929
31
0.0
0
LINE
8
0
6
CONTINUOUS
10
-17.852955
20
46.434675
30
0.0
11
-18.065163
21
46.429396
31
0.0
0
LINE
8
0
6
CONTINUOUS
10
-17.738899
20
46.331503
30
0.0
11
-17.852955
21
46.434675
31
0.0
0
LINE
8
0
6
CONTINUOUS
10
-17.837050
20
46.223044
30
0.0
11
-17.738899
21
46.331503
31
0.0
0
LINE
8
0
6
CONTINUOUS
10
-18.049258
20
46.217756
30
0.0
11
-17.837050
21
46.223044
31
0.0
0
LINE
8
0
6
CONTINUOUS
10
-18.163315
20
46.320929
30
0.0
11
-18.049258
21
46.217756
31
0.0
0
LINE
8
0
6
CONTINUOUS
10
-13.745399
20
45.873633
30
0.0
11
-13.567678
21
45.940611
31
0.0
0
LINE
8
0
6
CONTINUOUS
10
-13.935002
20
45.928763
30
0.0
11
-13.745399
21
45.873633
31
0.0
0
LINE
8
0
6
CONTINUOUS
10
-13.946886
20
46.050871
30
0.0
11
-13.935002
21
45.928763
31
0.0
0
LINE
8
0
6
CONTINUOUS
10
-13.769166
20
46.117850
30
0.0
11
-13.946886
21
46.050871
31
0.0
0
LINE
8
0
6
CONTINUOUS
10
-13.579564
20
46.062720
30
0.0
11
-13.769166
21
46.117850
31
0.0
0
LINE
8
0
6
CONTINUOUS
10
-13.567678
20
45.940611
30
0.0
11
-13.579564
21
46.062720
31
0.0
0
LINE
8
0
6
CONTINUOUS
10
-21.404087
20
44.204825
30
0.0
11
-21.441660
21
44.084448
31
0.0
0
LINE
8
0
6
CONTINUOUS
10
-21.204251
20
44.246275
30
0.0
11
-21.404087
21
44.204825
31
0.0
0
LINE
8
0
6
CONTINUOUS
10
-21.041989
20
44.167357
30
0.0
11
-21.204251
21
44.246275
31
0.0
0
LINE
8
0
6
CONTINUOUS
10
-21.079562
20
44.046980
30
0.0
11
-21.041989
21
44.167357
31
0.0
0
LINE
8
0
6
CONTINUOUS
10
-21.279397
20
44.005530
30
0.0
11
-21.079562
21
44.046980
31
0.0
0
LINE
8
0
6
CONTINUOUS
10
-21.441660
20
44.084448
30
0.0
11
-21.279397
21
44.005530
31
0.0
0
LINE
8
0
6
CONTINUOUS
10
-18.986668
20
46.142843
30
0.0
11
-19.192183
21
46.111944
31
0.0
0
LINE
8
0
6
CONTINUOUS
10
-18.837434
20
46.055823
30
0.0
11
-18.986668
21
46.142843
31
0.0
0
LINE
8
0
6
CONTINUOUS
10
-18.893714
20
45.937895
30
0.0
11
-18.837434
21
46.055823
31
0.0
0
LINE
8
0
6
CONTINUOUS
10
-19.099229
20
45.906996
30
0.0
11
-18.893714
21
45.937895
31
0.0
0
LINE
8
0
6
CONTINUOUS
10
-19.248465
20
45.994017
30
0.0
11
-19.099229
21
45.906996
31
0.0
0
LINE
8
0
6
CONTINUOUS
10
-19.192183
20
46.111944
30
0.0
11
-19.248465
21
45.994017
31
0.0
0
LINE
8
0
6
CONTINUOUS
10
-16.725941
20
45.347616
30
0.0
11
-16.576705
21
45.434653
31
0.0
0
LINE
8
0
6
CONTINUOUS
10
-16.931456
20
45.378523
30
0.0
11
-16.725941
21
45.347616
31
0.0
0
LINE
8
0
6
CONTINUOUS
10
-16.987736
20
45.496451
30
0.0
11
-16.931456
21
45.378523
31
0.0
0
LINE
8
0
6
CONTINUOUS
10
-16.838502
20
45.583479
30
0.0
11
-16.987736
21
45.496451
31
0.0
0
LINE
8
0
6
CONTINUOUS
10
-16.632987
20
45.552580
30
0.0
11
-16.838502
21
45.583479
31
0.0
0
LINE
8
0
6
CONTINUOUS
10
-16.576705
20
45.434653
30
0.0
11
-16.632987
21
45.552580
31
0.0
0
LINE
8
0
6
CONTINUOUS
10
-19.356134
20
43.224494
30
0.0
11
-19.156298
21
43.183044
31
0.0
0
LINE
8
0
6
CONTINUOUS
10
-19.393706
20
43.344863
30
0.0
11
-19.356134
21
43.224494
31
0.0
0
LINE
8
0
6
CONTINUOUS
10
-19.231444
20
43.423789
30
0.0
11
-19.393706
21
43.344863
31
0.0
0
LINE
8
0
6
CONTINUOUS
10
-19.031609
20
43.382339
30
0.0
11
-19.231444
21
43.423789
31
0.0
0
LINE
8
0
6
CONTINUOUS
10
-18.994036
20
43.261970
30
0.0
11
-19.031609
21
43.382339
31
0.0
0
LINE
8
0
6
CONTINUOUS
10
-19.156298
20
43.183044
30
0.0
11
-18.994036
21
43.261970
31
0.0
0
LINE
8
0
6
CONTINUOUS
10
-17.452201
20
46.836844
30
0.0
11
-17.242818
21
46.816275
31
0.0
0
LINE
8
0
6
CONTINUOUS
10
-17.525963
20
46.951529
30
0.0
11
-17.452201
21
46.836844
31
0.0
0
LINE
8
0
6
CONTINUOUS
10
-17.390341
20
47.045653
30
0.0
11
-17.525963
21
46.951529
31
0.0
0
LINE
8
0
6
CONTINUOUS
10
-17.180959
20
47.025091
30
0.0
11
-17.390341
21
47.045653
31
0.0
0
LINE
8
0
6
CONTINUOUS
10
-17.107198
20
46.910399
30
0.0
11
-17.180959
21
47.025091
31
0.0
0
LINE
8
0
6
CONTINUOUS
10
-17.242818
20
46.816275
30
0.0
11
-17.107198
21
46.910399
31
0.0
0
LINE
8
0
6
CONTINUOUS
10
-19.111916
20
43.786605
30
0.0
11
-19.274179
21
43.707679
31
0.0
0
LINE
8
0
6
CONTINUOUS
10
-18.912081
20
43.745155
30
0.0
11
-19.111916
21
43.786605
31
0.0
0
LINE
8
0
6
CONTINUOUS
10
-18.874508
20
43.624786
30
0.0
11
-18.912081
21
43.745155
31
0.0
0
LINE
8
0
6
CONTINUOUS
10
-19.036770
20
43.545860
30
0.0
11
-18.874508
21
43.624786
31
0.0
0
LINE
8
0
6
CONTINUOUS
10
-19.236606
20
43.587310
30
0.0
11
-19.036770
21
43.545860
31
0.0
0
LINE
8
0
6
CONTINUOUS
10
-19.274179
20
43.707679
30
0.0
11
-19.236606
21
43.587310
31
0.0
0
LINE
8
0
6
CONTINUOUS
10
-17.218428
20
46.093428
30
0.0
11
-17.430636
21
46.088141
31
0.0
0
LINE
8
0
6
CONTINUOUS
10
-17.104372
20
45.990256
30
0.0
11
-17.218428
21
46.093428
31
0.0
0
LINE
8
0
6
CONTINUOUS
10
-17.202524
20
45.881804
30
0.0
11
-17.104372
21
45.990256
31
0.0
0
LINE
8
0
6
CONTINUOUS
10
-17.414732
20
45.876509
30
0.0
11
-17.202524
21
45.881804
31
0.0
0
LINE
8
0
6
CONTINUOUS
10
-17.528789
20
45.979681
30
0.0
11
-17.414732
21
45.876509
31
0.0
0
LINE
8
0
6
CONTINUOUS
10
-17.430636
20
46.088141
30
0.0
11
-17.528789
21
45.979681
31
0.0
0
LINE
8
0
6
CONTINUOUS
10
-16.145678
20
46.798178
30
0.0
11
-16.259735
21
46.695006
31
0.0
0
LINE
8
0
6
CONTINUOUS
10
-15.933471
20
46.792891
30
0.0
11
-16.145678
21
46.798178
31
0.0
0
LINE
8
0
6
CONTINUOUS
10
-15.835318
20
46.684439
30
0.0
11
-15.933471
21
46.792891
31
0.0
0
LINE
8
0
6
CONTINUOUS
10
-15.949375
20
46.581259
30
0.0
11
-15.835318
21
46.684439
31
0.0
0
LINE
8
0
6
CONTINUOUS
10
-16.161583
20
46.586546
30
0.0
11
-15.949375
21
46.581259
31
0.0
0
LINE
8
0
6
CONTINUOUS
10
-16.259735
20
46.695006
30
0.0
11
-16.161583
21
46.586546
31
0.0
0
LINE
8
0
6
CONTINUOUS
10
-15.050487
20
46.428633
30
0.0
11
-15.199721
21
46.341597
31
0.0
0
LINE
8
0
6
CONTINUOUS
10
-14.844972
20
46.397726
30
0.0
11
-15.050487
21
46.428633
31
0.0
0
LINE
8
0
6
CONTINUOUS
10
-14.788690
20
46.279799
30
0.0
11
-14.844972
21
46.397726
31
0.0
0
LINE
8
0
6
CONTINUOUS
10
-14.937926
20
46.192770
30
0.0
11
-14.788690
21
46.279799
31
0.0
0
LINE
8
0
6
CONTINUOUS
10
-15.143442
20
46.223669
30
0.0
11
-14.937926
21
46.192770
31
0.0
0
LINE
8
0
6
CONTINUOUS
10
-15.199721
20
46.341597
30
0.0
11
-15.143442
21
46.223669
31
0.0
0
LINE
8
0
6
CONTINUOUS
10
-21.213769
20
45.166022
30
0.0
11
-21.013933
21
45.124571
31
0.0
0
LINE
8
0
6
CONTINUOUS
10
-21.251341
20
45.286391
30
0.0
11
-21.213769
21
45.166022
31
0.0
0
LINE
8
0
6
CONTINUOUS
10
-21.089080
20
45.365317
30
0.0
11
-21.251341
21
45.286391
31
0.0
0
LINE
8
0
6
CONTINUOUS
10
-20.889244
20
45.323866
30
0.0
11
-21.089080
21
45.365317
31
0.0
0
LINE
8
0
6
CONTINUOUS
10
-20.851671
20
45.203497
30
0.0
11
-20.889244
21
45.323866
31
0.0
0
LINE
8
0
6
CONTINUOUS
10
-21.013933
20
45.124571
30
0.0
11
-20.851671
21
45.203497
31
0.0
0
LINE
8
0
6
CONTINUOUS
10
-19.017154
20
45.285094
30
0.0
11
-19.206756
21
45.229964
31
0.0
0
LINE
8
0
6
CONTINUOUS
10
-18.839434
20
45.218107
30
0.0
11
-19.017154
21
45.285094
31
0.0
0
LINE
8
0
6
CONTINUOUS
10
-18.851318
20
45.096007
30
0.0
11
-18.839434
21
45.218107
31
0.0
0
LINE
8
0
6
CONTINUOUS
10
-19.040921
20
45.040869
30
0.0
11
-18.851318
21
45.096007
31
0.0
0
LINE
8
0
6
CONTINUOUS
10
-19.218642
20
45.107855
30
0.0
11
-19.040921
21
45.040869
31
0.0
0
LINE
8
0
6
CONTINUOUS
10
-19.206756
20
45.229964
30
0.0
11
-19.218642
21
45.107855
31
0.0
0
LINE
8
0
6
CONTINUOUS
10
-14.361012
20
45.581572
30
0.0
11
-14.183291
21
45.648550
31
0.0
0
LINE
8
0
6
CONTINUOUS
10
-14.550616
20
45.636702
30
0.0
11
-14.361012
21
45.581572
31
0.0
0
LINE
8
0
6
CONTINUOUS
10
-14.562499
20
45.758803
30
0.0
11
-14.550616
21
45.636702
31
0.0
0
LINE
8
0
6
CONTINUOUS
10
-14.384779
20
45.825789
30
0.0
11
-14.562499
21
45.758803
31
0.0
0
LINE
8
0
6
CONTINUOUS
10
-14.195177
20
45.770666
30
0.0
11
-14.384779
21
45.825789
31
0.0
0
LINE
8
0
6
CONTINUOUS
10
-14.183291
20
45.648550
30
0.0
11
-14.195177
21
45.770666
31
0.0
0
LINE
8
0
6
CONTINUOUS
10
-18.487482
20
46.801382
30
0.0
11
-18.699689
21
46.796095
31
0.0
0
LINE
8
0
6
CONTINUOUS
10
-18.373426
20
46.698210
30
0.0
11
-18.487482
21
46.801382
31
0.0
0
LINE
8
0
6
CONTINUOUS
10
-18.471577
20
46.589751
30
0.0
11
-18.373426
21
46.698210
31
0.0
0
LINE
8
0
6
CONTINUOUS
10
-18.683785
20
46.584463
30
0.0
11
-18.471577
21
46.589751
31
0.0
0
LINE
8
0
6
CONTINUOUS
10
-18.797842
20
46.687636
30
0.0
11
-18.683785
21
46.584463
31
0.0
0
LINE
8
0
6
CONTINUOUS
10
-18.699689
20
46.796095
30
0.0
11
-18.797842
21
46.687636
31
0.0
0
LINE
8
0
6
CONTINUOUS
10
-16.397456
20
44.864088
30
0.0
11
-16.207853
21
44.808958
31
0.0
0
LINE
8
0
6
CONTINUOUS
10
-16.409340
20
44.986197
30
0.0
11
-16.397456
21
44.864088
31
0.0
0
LINE
8
0
6
CONTINUOUS
10
-16.231620
20
45.053183
30
0.0
11
-16.409340
21
44.986197
31
0.0
0
LINE
8
0
6
CONTINUOUS
10
-16.042018
20
44.998045
30
0.0
11
-16.231620
21
45.053183
31
0.0
0
LINE
8
0
6
CONTINUOUS
10
-16.030132
20
44.875937
30
0.0
11
-16.042018
21
44.998045
31
0.0
0
LINE
8
0
6
CONTINUOUS
10
-16.207853
20
44.808958
30
0.0
11
-16.030132
21
44.875937
31
0.0
0
LINE
8
0
6
CONTINUOUS
10
-19.122009
20
47.209738
30
0.0
11
-19.334216
21
47.204451
31
0.0
0
LINE
8
0
6
CONTINUOUS
10
-19.007952
20
47.106566
30
0.0
11
-19.122009
21
47.209738
31
0.0
0
LINE
8
0
6
CONTINUOUS
10
-19.106104
20
46.998099
30
0.0
11
-19.007952
21
47.106566
31
0.0
0
LINE
8
0
6
CONTINUOUS
10
-19.318312
20
46.992811
30
0.0
11
-19.106104
21
46.998099
31
0.0
0
LINE
8
0
6
CONTINUOUS
10
-19.432369
20
47.095984
30
0.0
11
-19.318312
21
46.992811
31
0.0
0
LINE
8
0
6
CONTINUOUS
10
-19.334216
20
47.204451
30
0.0
11
-19.432369
21
47.095984
31
0.0
0
LINE
8
0
6
CONTINUOUS
10
-20.393484
20
43.365798
30
0.0
11
-20.193649
21
43.407249
31
0.0
0
LINE
8
0
6
CONTINUOUS
10
-20.555746
20
43.444724
30
0.0
11
-20.393484
21
43.365798
31
0.0
0
LINE
8
0
6
CONTINUOUS
10
-20.518174
20
43.565101
30
0.0
11
-20.555746
21
43.444724
31
0.0
0
LINE
8
0
6
CONTINUOUS
10
-20.318338
20
43.606544
30
0.0
11
-20.518174
21
43.565101
31
0.0
0
LINE
8
0
6
CONTINUOUS
10
-20.156076
20
43.527625
30
0.0
11
-20.318338
21
43.606544
31
0.0
0
LINE
8
0
6
CONTINUOUS
10
-20.193649
20
43.407249
30
0.0
11
-20.156076
21
43.527625
31
0.0
0
LINE
8
0
6
CONTINUOUS
10
-18.043451
20
43.106536
30
0.0
11
-18.205713
21
43.027610
31
0.0
0
LINE
8
0
6
CONTINUOUS
10
-17.843616
20
43.065078
30
0.0
11
-18.043451
21
43.106536
31
0.0
0
LINE
8
0
6
CONTINUOUS
10
-17.806042
20
42.944709
30
0.0
11
-17.843616
21
43.065078
31
0.0
0
LINE
8
0
6
CONTINUOUS
10
-17.968305
20
42.865791
30
0.0
11
-17.806042
21
42.944709
31
0.0
0
LINE
8
0
6
CONTINUOUS
10
-18.168140
20
42.907241
30
0.0
11
-17.968305
21
42.865791
31
0.0
0
LINE
8
0
6
CONTINUOUS
10
-18.205713
20
43.027610
30
0.0
11
-18.168140
21
42.907241
31
0.0
0
LINE
8
0
6
CONTINUOUS
10
-21.669210
20
46.411932
30
0.0
11
-21.681096
21
46.289816
31
0.0
0
LINE
8
0
6
CONTINUOUS
10
-21.479608
20
46.467055
30
0.0
11
-21.669210
21
46.411932
31
0.0
0
LINE
8
0
6
CONTINUOUS
10
-21.301888
20
46.400068
30
0.0
11
-21.479608
21
46.467055
31
0.0
0
LINE
8
0
6
CONTINUOUS
10
-21.313772
20
46.277968
30
0.0
11
-21.301888
21
46.400068
31
0.0
0
LINE
8
0
6
CONTINUOUS
10
-21.503375
20
46.222838
30
0.0
11
-21.313772
21
46.277968
31
0.0
0
LINE
8
0
6
CONTINUOUS
10
-21.681096
20
46.289816
30
0.0
11
-21.503375
21
46.222838
31
0.0
0
LINE
8
0
6
CONTINUOUS
10
-13.858477
20
47.095572
30
0.0
11
-14.007712
21
47.008543
31
0.0
0
LINE
8
0
6
CONTINUOUS
10
-13.652962
20
47.064673
30
0.0
11
-13.858477
21
47.095572
31
0.0
0
LINE
8
0
6
CONTINUOUS
10
-13.596681
20
46.946745
30
0.0
11
-13.652962
21
47.064673
31
0.0
0
LINE
8
0
6
CONTINUOUS
10
-13.745916
20
46.859717
30
0.0
11
-13.596681
21
46.946745
31
0.0
0
LINE
8
0
6
CONTINUOUS
10
-13.951432
20
46.890623
30
0.0
11
-13.745916
21
46.859717
31
0.0
0
LINE
8
0
6
CONTINUOUS
10
-14.007712
20
47.008543
30
0.0
11
-13.951432
21
46.890623
31
0.0
0
LINE
8
0
6
CONTINUOUS
10
-19.275826
20
42.876525
30
0.0
11
-19.113564
21
42.955451
31
0.0
0
LINE
8
0
6
CONTINUOUS
10
-19.475662
20
42.917976
30
0.0
11
-19.275826
21
42.876525
31
0.0
0
LINE
8
0
6
CONTINUOUS
10
-19.513235
20
43.038345
30
0.0
11
-19.475662
21
42.917976
31
0.0
0
LINE
8
0
6
CONTINUOUS
10
-19.350972
20
43.117271
30
0.0
11
-19.513235
21
43.038345
31
0.0
0
LINE
8
0
6
CONTINUOUS
10
-19.151137
20
43.075820
30
0.0
11
-19.350972
21
43.117271
31
0.0
0
LINE
8
0
6
CONTINUOUS
10
-19.113564
20
42.955451
30
0.0
11
-19.151137
21
43.075820
31
0.0
0
LINE
8
0
6
CONTINUOUS
10
-14.720753
20
44.152609
30
0.0
11
-14.520918
21
44.111151
31
0.0
0
LINE
8
0
6
CONTINUOUS
10
-14.758326
20
44.272970
30
0.0
11
-14.720753
21
44.152609
31
0.0
0
LINE
8
0
6
CONTINUOUS
10
-14.596064
20
44.351897
30
0.0
11
-14.758326
21
44.272970
31
0.0
0
LINE
8
0
6
CONTINUOUS
10
-14.396228
20
44.310454
30
0.0
11
-14.596064
21
44.351897
31
0.0
0
LINE
8
0
6
CONTINUOUS
10
-14.358656
20
44.190077
30
0.0
11
-14.396228
21
44.310454
31
0.0
0
LINE
8
0
6
CONTINUOUS
10
-14.520918
20
44.111151
30
0.0
11
-14.358656
21
44.190077
31
0.0
0
LINE
8
0
6
CONTINUOUS
10
-13.319389
20
46.264349
30
0.0
11
-13.129785
21
46.209219
31
0.0
0
LINE
8
0
6
CONTINUOUS
10
-13.331272
20
46.386458
30
0.0
11
-13.319389
21
46.264349
31
0.0
0
LINE
8
0
6
CONTINUOUS
10
-13.153551
20
46.453428
30
0.0
11
-13.331272
21
46.386458
31
0.0
0
LINE
8
0
6
CONTINUOUS
10
-12.963950
20
46.398306
30
0.0
11
-13.153551
21
46.453428
31
0.0
0
LINE
8
0
6
CONTINUOUS
10
-12.952065
20
46.276198
30
0.0
11
-12.963950
21
46.398306
31
0.0
0
LINE
8
0
6
CONTINUOUS
10
-13.129785
20
46.209219
30
0.0
11
-12.952065
21
46.276198
31
0.0
0
LINE
8
0
6
CONTINUOUS
10
-14.876625
20
47.605070
30
0.0
11
-14.990681
21
47.501898
31
0.0
0
LINE
8
0
6
CONTINUOUS
10
-14.664418
20
47.599776
30
0.0
11
-14.876625
21
47.605070
31
0.0
0
LINE
8
0
6
CONTINUOUS
10
-14.566265
20
47.491316
30
0.0
11
-14.664418
21
47.599776
31
0.0
0
LINE
8
0
6
CONTINUOUS
10
-14.680322
20
47.388151
30
0.0
11
-14.566265
21
47.491316
31
0.0
0
LINE
8
0
6
CONTINUOUS
10
-14.892530
20
47.393431
30
0.0
11
-14.680322
21
47.388151
31
0.0
0
LINE
8
0
6
CONTINUOUS
10
-14.990681
20
47.501898
30
0.0
11
-14.892530
21
47.393431
31
0.0
0
LINE
8
0
6
CONTINUOUS
10
-19.695234
20
46.199698
30
0.0
11
-19.489719
21
46.230597
31
0.0
0
LINE
8
0
6
CONTINUOUS
10
-19.844470
20
46.286726
30
0.0
11
-19.695234
21
46.199698
31
0.0
0
LINE
8
0
6
CONTINUOUS
10
-19.788189
20
46.404654
30
0.0
11
-19.844470
21
46.286726
31
0.0
0
LINE
8
0
6
CONTINUOUS
10
-19.582674
20
46.435553
30
0.0
11
-19.788189
21
46.404654
31
0.0
0
LINE
8
0
6
CONTINUOUS
10
-19.433439
20
46.348524
30
0.0
11
-19.582674
21
46.435553
31
0.0
0
LINE
8
0
6
CONTINUOUS
10
-19.489719
20
46.230597
30
0.0
11
-19.433439
21
46.348524
31
0.0
0
LINE
8
0
6
CONTINUOUS
10
-14.454481
20
46.769987
30
0.0
11
-14.603716
21
46.682959
31
0.0
0
LINE
8
0
6
CONTINUOUS
10
-14.248967
20
46.739088
30
0.0
11
-14.454481
21
46.769987
31
0.0
0
LINE
8
0
6
CONTINUOUS
10
-14.192685
20
46.621161
30
0.0
11
-14.248967
21
46.739088
31
0.0
0
LINE
8
0
6
CONTINUOUS
10
-14.341921
20
46.534132
30
0.0
11
-14.192685
21
46.621161
31
0.0
0
LINE
8
0
6
CONTINUOUS
10
-14.547437
20
46.565039
30
0.0
11
-14.341921
21
46.534132
31
0.0
0
LINE
8
0
6
CONTINUOUS
10
-14.603716
20
46.682959
30
0.0
11
-14.547437
21
46.565039
31
0.0
0
LINE
8
0
6
CONTINUOUS
10
-18.591143
20
45.001082
30
0.0
11
-18.603028
21
44.878973
31
0.0
0
LINE
8
0
6
CONTINUOUS
10
-18.401540
20
45.056212
30
0.0
11
-18.591143
21
45.001082
31
0.0
0
LINE
8
0
6
CONTINUOUS
10
-18.223820
20
44.989226
30
0.0
11
-18.401540
21
45.056212
31
0.0
0
LINE
8
0
6
CONTINUOUS
10
-18.235704
20
44.867125
30
0.0
11
-18.223820
21
44.989226
31
0.0
0
LINE
8
0
6
CONTINUOUS
10
-18.425308
20
44.811987
30
0.0
11
-18.235704
21
44.867125
31
0.0
0
LINE
8
0
6
CONTINUOUS
10
-18.603028
20
44.878973
30
0.0
11
-18.425308
21
44.811987
31
0.0
0
LINE
8
0
6
CONTINUOUS
10
-18.797715
20
44.309302
30
0.0
11
-18.635452
21
44.388228
31
0.0
0
LINE
8
0
6
CONTINUOUS
10
-18.997550
20
44.350752
30
0.0
11
-18.797715
21
44.309302
31
0.0
0
LINE
8
0
6
CONTINUOUS
10
-19.035123
20
44.471121
30
0.0
11
-18.997550
21
44.350752
31
0.0
0
LINE
8
0
6
CONTINUOUS
10
-18.872861
20
44.550047
30
0.0
11
-19.035123
21
44.471121
31
0.0
0
LINE
8
0
6
CONTINUOUS
10
-18.673026
20
44.508597
30
0.0
11
-18.872861
21
44.550047
31
0.0
0
LINE
8
0
6
CONTINUOUS
10
-18.635452
20
44.388228
30
0.0
11
-18.673026
21
44.508597
31
0.0
0
LINE
8
0
6
CONTINUOUS
10
-15.601551
20
43.383956
30
0.0
11
-15.639124
21
43.263580
31
0.0
0
LINE
8
0
6
CONTINUOUS
10
-15.401716
20
43.425407
30
0.0
11
-15.601551
21
43.383956
31
0.0
0
LINE
8
0
6
CONTINUOUS
10
-15.239454
20
43.346488
30
0.0
11
-15.401716
21
43.425407
31
0.0
0
LINE
8
0
6
CONTINUOUS
10
-15.277027
20
43.226112
30
0.0
11
-15.239454
21
43.346488
31
0.0
0
LINE
8
0
6
CONTINUOUS
10
-15.476862
20
43.184669
30
0.0
11
-15.277027
21
43.226112
31
0.0
0
LINE
8
0
6
CONTINUOUS
10
-15.639124
20
43.263580
30
0.0
11
-15.476862
21
43.184669
31
0.0
0
LINE
8
0
6
CONTINUOUS
10
-16.603774
20
47.471693
30
0.0
11
-16.813156
21
47.451132
31
0.0
0
LINE
8
0
6
CONTINUOUS
10
-16.468153
20
47.377577
30
0.0
11
-16.603774
21
47.471693
31
0.0
0
LINE
8
0
6
CONTINUOUS
10
-16.541915
20
47.262884
30
0.0
11
-16.468153
21
47.377577
31
0.0
0
LINE
8
0
6
CONTINUOUS
10
-16.751297
20
47.242316
30
0.0
11
-16.541915
21
47.262884
31
0.0
0
LINE
8
0
6
CONTINUOUS
10
-16.886918
20
47.336439
30
0.0
11
-16.751297
21
47.242316
31
0.0
0
LINE
8
0
6
CONTINUOUS
10
-16.813156
20
47.451132
30
0.0
11
-16.886918
21
47.336439
31
0.0
0
LINE
8
0
6
CONTINUOUS
10
-14.282820
20
45.070273
30
0.0
11
-14.482655
21
45.028822
31
0.0
0
LINE
8
0
6
CONTINUOUS
10
-14.120558
20
44.991354
30
0.0
11
-14.282820
21
45.070273
31
0.0
0
LINE
8
0
6
CONTINUOUS
10
-14.158131
20
44.870978
30
0.0
11
-14.120558
21
44.991354
31
0.0
0
LINE
8
0
6
CONTINUOUS
10
-14.357966
20
44.829535
30
0.0
11
-14.158131
21
44.870978
31
0.0
0
LINE
8
0
6
CONTINUOUS
10
-14.520229
20
44.908446
30
0.0
11
-14.357966
21
44.829535
31
0.0
0
LINE
8
0
6
CONTINUOUS
10
-14.482655
20
45.028822
30
0.0
11
-14.520229
21
44.908446
31
0.0
0
LINE
8
0
6
CONTINUOUS
10
-19.611600
20
44.808325
30
0.0
11
-19.773862
21
44.729407
31
0.0
0
LINE
8
0
6
CONTINUOUS
10
-19.411765
20
44.766875
30
0.0
11
-19.611600
21
44.808325
31
0.0
0
LINE
8
0
6
CONTINUOUS
10
-19.374192
20
44.646498
30
0.0
11
-19.411765
21
44.766875
31
0.0
0
LINE
8
0
6
CONTINUOUS
10
-19.536454
20
44.567579
30
0.0
11
-19.374192
21
44.646498
31
0.0
0
LINE
8
0
6
CONTINUOUS
10
-19.736290
20
44.609030
30
0.0
11
-19.536454
21
44.567579
31
0.0
0
LINE
8
0
6
CONTINUOUS
10
-19.773862
20
44.729407
30
0.0
11
-19.736290
21
44.609030
31
0.0
0
LINE
8
0
6
CONTINUOUS
10
-18.503225
20
45.616636
30
0.0
11
-18.297709
21
45.647536
31
0.0
0
LINE
8
0
6
CONTINUOUS
10
-18.652460
20
45.703665
30
0.0
11
-18.503225
21
45.616636
31
0.0
0
LINE
8
0
6
CONTINUOUS
10
-18.596179
20
45.821593
30
0.0
11
-18.652460
21
45.703665
31
0.0
0
LINE
8
0
6
CONTINUOUS
10
-18.390664
20
45.852492
30
0.0
11
-18.596179
21
45.821593
31
0.0
0
LINE
8
0
6
CONTINUOUS
10
-18.241429
20
45.765463
30
0.0
11
-18.390664
21
45.852492
31
0.0
0
LINE
8
0
6
CONTINUOUS
10
-18.297709
20
45.647536
30
0.0
11
-18.241429
21
45.765463
31
0.0
0
LINE
8
0
6
CONTINUOUS
10
-16.763470
20
43.865646
30
0.0
11
-16.563634
21
43.907096
31
0.0
0
LINE
8
0
6
CONTINUOUS
10
-16.925732
20
43.944563
30
0.0
11
-16.763470
21
43.865646
31
0.0
0
LINE
8
0
6
CONTINUOUS
10
-16.888159
20
44.064940
30
0.0
11
-16.925732
21
43.944563
31
0.0
0
LINE
8
0
6
CONTINUOUS
10
-16.688324
20
44.106383
30
0.0
11
-16.888159
21
44.064940
31
0.0
0
LINE
8
0
6
CONTINUOUS
10
-16.526061
20
44.027464
30
0.0
11
-16.688324
21
44.106383
31
0.0
0
LINE
8
0
6
CONTINUOUS
10
-16.563634
20
43.907096
30
0.0
11
-16.526061
21
44.027464
31
0.0
0
LINE
8
0
6
CONTINUOUS
10
-14.439511
20
43.390075
30
0.0
11
-14.239676
21
43.348617
31
0.0
0
LINE
8
0
6
CONTINUOUS
10
-14.477085
20
43.510452
30
0.0
11
-14.439511
21
43.390075
31
0.0
0
LINE
8
0
6
CONTINUOUS
10
-14.314822
20
43.589362
30
0.0
11
-14.477085
21
43.510452
31
0.0
0
LINE
8
0
6
CONTINUOUS
10
-14.114987
20
43.547919
30
0.0
11
-14.314822
21
43.589362
31
0.0
0
LINE
8
0
6
CONTINUOUS
10
-14.077414
20
43.427543
30
0.0
11
-14.114987
21
43.547919
31
0.0
0
LINE
8
0
6
CONTINUOUS
10
-14.239676
20
43.348617
30
0.0
11
-14.077414
21
43.427543
31
0.0
0
LINE
8
0
6
CONTINUOUS
10
-13.544081
20
45.354002
30
0.0
11
-13.743916
21
45.312559
31
0.0
0
LINE
8
0
6
CONTINUOUS
10
-13.381819
20
45.275084
30
0.0
11
-13.544081
21
45.354002
31
0.0
0
LINE
8
0
6
CONTINUOUS
10
-13.419392
20
45.154707
30
0.0
11
-13.381819
21
45.275084
31
0.0
0
LINE
8
0
6
CONTINUOUS
10
-13.619227
20
45.113264
30
0.0
11
-13.419392
21
45.154707
31
0.0
0
LINE
8
0
6
CONTINUOUS
10
-13.781490
20
45.192183
30
0.0
11
-13.619227
21
45.113264
31
0.0
0
LINE
8
0
6
CONTINUOUS
10
-13.743916
20
45.312559
30
0.0
11
-13.781490
21
45.192183
31
0.0
0
LINE
8
0
6
CONTINUOUS
10
-20.248381
20
45.835486
30
0.0
11
-20.437983
21
45.780363
31
0.0
0
LINE
8
0
6
CONTINUOUS
10
-20.070661
20
45.768507
30
0.0
11
-20.248381
21
45.835486
31
0.0
0
LINE
8
0
6
CONTINUOUS
10
-20.082545
20
45.646399
30
0.0
11
-20.070661
21
45.768507
31
0.0
0
LINE
8
0
6
CONTINUOUS
10
-20.272148
20
45.591276
30
0.0
11
-20.082545
21
45.646399
31
0.0
0
LINE
8
0
6
CONTINUOUS
10
-20.449869
20
45.658247
30
0.0
11
-20.272148
21
45.591276
31
0.0
0
LINE
8
0
6
CONTINUOUS
10
-20.437983
20
45.780363
30
0.0
11
-20.449869
21
45.658247
31
0.0
0
LINE
8
0
6
CONTINUOUS
10
-13.005176
20
45.667998
30
0.0
11
-13.042750
21
45.547621
31
0.0
0
LINE
8
0
6
CONTINUOUS
10
-12.805341
20
45.709448
30
0.0
11
-13.005176
21
45.667998
31
0.0
0
LINE
8
0
6
CONTINUOUS
10
-12.643079
20
45.630522
30
0.0
11
-12.805341
21
45.709448
31
0.0
0
LINE
8
0
6
CONTINUOUS
10
-12.680652
20
45.510145
30
0.0
11
-12.643079
21
45.630522
31
0.0
0
LINE
8
0
6
CONTINUOUS
10
-12.880487
20
45.468703
30
0.0
11
-12.680652
21
45.510145
31
0.0
0
LINE
8
0
6
CONTINUOUS
10
-13.042750
20
45.547621
30
0.0
11
-12.880487
21
45.468703
31
0.0
0
LINE
8
0
6
CONTINUOUS
10
-17.902562
20
43.518127
30
0.0
11
-17.740300
21
43.597045
31
0.0
0
LINE
8
0
6
CONTINUOUS
10
-18.102398
20
43.559570
30
0.0
11
-17.902562
21
43.518127
31
0.0
0
LINE
8
0
6
CONTINUOUS
10
-18.139970
20
43.679946
30
0.0
11
-18.102398
21
43.559570
31
0.0
0
LINE
8
0
6
CONTINUOUS
10
-17.977708
20
43.758872
30
0.0
11
-18.139970
21
43.679946
31
0.0
0
LINE
8
0
6
CONTINUOUS
10
-17.777873
20
43.717422
30
0.0
11
-17.977708
21
43.758872
31
0.0
0
LINE
8
0
6
CONTINUOUS
10
-17.740300
20
43.597045
30
0.0
11
-17.777873
21
43.717422
31
0.0
0
LINE
8
0
6
CONTINUOUS
10
-16.655452
20
43.758056
30
0.0
11
-16.855287
21
43.716605
31
0.0
0
LINE
8
0
6
CONTINUOUS
10
-16.493190
20
43.679130
30
0.0
11
-16.655452
21
43.758056
31
0.0
0
LINE
8
0
6
CONTINUOUS
10
-16.530763
20
43.558761
30
0.0
11
-16.493190
21
43.679130
31
0.0
0
LINE
8
0
6
CONTINUOUS
10
-16.730598
20
43.517310
30
0.0
11
-16.530763
21
43.558761
31
0.0
0
LINE
8
0
6
CONTINUOUS
10
-16.892861
20
43.596236
30
0.0
11
-16.730598
21
43.517310
31
0.0
0
LINE
8
0
6
CONTINUOUS
10
-16.855287
20
43.716605
30
0.0
11
-16.892861
21
43.596236
31
0.0
0
LINE
8
0
6
CONTINUOUS
10
-18.135269
20
43.216132
30
0.0
11
-17.935434
21
43.174682
31
0.0
0
LINE
8
0
6
CONTINUOUS
10
-18.172842
20
43.336501
30
0.0
11
-18.135269
21
43.216132
31
0.0
0
LINE
8
0
6
CONTINUOUS
10
-18.010579
20
43.415427
30
0.0
11
-18.172842
21
43.336501
31
0.0
0
LINE
8
0
6
CONTINUOUS
10
-17.810744
20
43.373969
30
0.0
11
-18.010579
21
43.415427
31
0.0
0
LINE
8
0
6
CONTINUOUS
10
-17.773171
20
43.253600
30
0.0
11
-17.810744
21
43.373969
31
0.0
0
LINE
8
0
6
CONTINUOUS
10
-17.935434
20
43.174682
30
0.0
11
-17.773171
21
43.253600
31
0.0
0
LINE
8
0
6
CONTINUOUS
10
-20.824574
20
44.612601
30
0.0
11
-21.024410
21
44.571150
31
0.0
0
LINE
8
0
6
CONTINUOUS
10
-20.662312
20
44.533682
30
0.0
11
-20.824574
21
44.612601
31
0.0
0
LINE
8
0
6
CONTINUOUS
10
-20.699885
20
44.413313
30
0.0
11
-20.662312
21
44.533682
31
0.0
0
LINE
8
0
6
CONTINUOUS
10
-20.899720
20
44.371855
30
0.0
11
-20.699885
21
44.413313
31
0.0
0
LINE
8
0
6
CONTINUOUS
10
-21.061983
20
44.450781
30
0.0
11
-20.899720
21
44.371855
31
0.0
0
LINE
8
0
6
CONTINUOUS
10
-21.024410
20
44.571150
30
0.0
11
-21.061983
21
44.450781
31
0.0
0
LINE
8
0
6
CONTINUOUS
10
-15.781842
20
45.090460
30
0.0
11
-15.592239
21
45.035330
31
0.0
0
LINE
8
0
6
CONTINUOUS
10
-15.793726
20
45.212568
30
0.0
11
-15.781842
21
45.090460
31
0.0
0
LINE
8
0
6
CONTINUOUS
10
-15.616006
20
45.279555
30
0.0
11
-15.793726
21
45.212568
31
0.0
0
LINE
8
0
6
CONTINUOUS
10
-15.426404
20
45.224417
30
0.0
11
-15.616006
21
45.279555
31
0.0
0
LINE
8
0
6
CONTINUOUS
10
-15.414518
20
45.102308
30
0.0
11
-15.426404
21
45.224417
31
0.0
0
LINE
8
0
6
CONTINUOUS
10
-15.592239
20
45.035330
30
0.0
11
-15.414518
21
45.102308
31
0.0
0
LINE
8
0
6
CONTINUOUS
10
-16.174111
20
47.899962
30
0.0
11
-16.247873
21
47.785269
31
0.0
0
LINE
8
0
6
CONTINUOUS
10
-15.964729
20
47.920523
30
0.0
11
-16.174111
21
47.899962
31
0.0
0
LINE
8
0
6
CONTINUOUS
10
-15.829108
20
47.826399
30
0.0
11
-15.964729
21
47.920523
31
0.0
0
LINE
8
0
6
CONTINUOUS
10
-15.902870
20
47.711714
30
0.0
11
-15.829108
21
47.826399
31
0.0
0
LINE
8
0
6
CONTINUOUS
10
-16.084362
20
47.693885
30
0.0
11
-15.902870
21
47.711714
31
0.0
0
LINE
8
0
6
CONTINUOUS
10
-16.247873
20
47.785269
30
0.0
11
-16.120679
21
47.696993
31
0.0
0
LINE
8
0
6
CONTINUOUS
10
-20.236932
20
44.317717
30
0.0
11
-20.274505
21
44.197348
31
0.0
0
LINE
8
0
6
CONTINUOUS
10
-20.037096
20
44.359167
30
0.0
11
-20.236932
21
44.317717
31
0.0
0
LINE
8
0
6
CONTINUOUS
10
-19.874834
20
44.280241
30
0.0
11
-20.037096
21
44.359167
31
0.0
0
LINE
8
0
6
CONTINUOUS
10
-19.912407
20
44.159872
30
0.0
11
-19.874834
21
44.280241
31
0.0
0
LINE
8
0
6
CONTINUOUS
10
-20.112242
20
44.118422
30
0.0
11
-19.912407
21
44.159872
31
0.0
0
LINE
8
0
6
CONTINUOUS
10
-20.274505
20
44.197348
30
0.0
11
-20.112242
21
44.118422
31
0.0
0
LINE
8
0
6
CONTINUOUS
10
-19.756535
20
47.612463
30
0.0
11
-19.968743
21
47.607176
31
0.0
0
LINE
8
0
6
CONTINUOUS
10
-19.642479
20
47.509283
30
0.0
11
-19.756535
21
47.612463
31
0.0
0
LINE
8
0
6
CONTINUOUS
10
-19.740631
20
47.400831
30
0.0
11
-19.642479
21
47.509283
31
0.0
0
LINE
8
0
6
CONTINUOUS
10
-19.952839
20
47.395544
30
0.0
11
-19.740631
21
47.400831
31
0.0
0
LINE
8
0
6
CONTINUOUS
10
-20.066896
20
47.498717
30
0.0
11
-19.952839
21
47.395544
31
0.0
0
LINE
8
0
6
CONTINUOUS
10
-19.968743
20
47.607176
30
0.0
11
-20.066896
21
47.498717
31
0.0
0
LINE
8
0
6
CONTINUOUS
10
-13.933275
20
44.402807
30
0.0
11
-13.733440
21
44.361357
31
0.0
0
LINE
8
0
6
CONTINUOUS
10
-13.970848
20
44.523184
30
0.0
11
-13.933275
21
44.402807
31
0.0
0
LINE
8
0
6
CONTINUOUS
10
-13.808586
20
44.602102
30
0.0
11
-13.970848
21
44.523184
31
0.0
0
LINE
8
0
6
CONTINUOUS
10
-13.608751
20
44.560660
30
0.0
11
-13.808586
21
44.602102
31
0.0
0
LINE
8
0
6
CONTINUOUS
10
-13.571178
20
44.440283
30
0.0
11
-13.608751
21
44.560660
31
0.0
0
LINE
8
0
6
CONTINUOUS
10
-13.733440
20
44.361357
30
0.0
11
-13.571178
21
44.440283
31
0.0
0
LINE
8
0
6
CONTINUOUS
10
-17.869691
20
43.867530
30
0.0
11
-17.707428
21
43.946455
31
0.0
0
LINE
8
0
6
CONTINUOUS
10
-18.069526
20
43.908988
30
0.0
11
-17.869691
21
43.867530
31
0.0
0
LINE
8
0
6
CONTINUOUS
10
-18.107099
20
44.029356
30
0.0
11
-18.069526
21
43.908988
31
0.0
0
LINE
8
0
6
CONTINUOUS
10
-17.944837
20
44.108275
30
0.0
11
-18.107099
21
44.029356
31
0.0
0
LINE
8
0
6
CONTINUOUS
10
-17.745002
20
44.066824
30
0.0
11
-17.944837
21
44.108275
31
0.0
0
LINE
8
0
6
CONTINUOUS
10
-17.707428
20
43.946455
30
0.0
11
-17.745002
21
44.066824
31
0.0
0
LINE
8
0
6
CONTINUOUS
10
-20.433801
20
43.916610
30
0.0
11
-20.471374
21
43.796241
31
0.0
0
LINE
8
0
6
CONTINUOUS
10
-20.233966
20
43.958060
30
0.0
11
-20.433801
21
43.916610
31
0.0
0
LINE
8
0
6
CONTINUOUS
10
-20.071703
20
43.879142
30
0.0
11
-20.233966
21
43.958060
31
0.0
0
LINE
8
0
6
CONTINUOUS
10
-20.109276
20
43.758773
30
0.0
11
-20.071703
21
43.879142
31
0.0
0
LINE
8
0
6
CONTINUOUS
10
-20.309111
20
43.717323
30
0.0
11
-20.109276
21
43.758773
31
0.0
0
LINE
8
0
6
CONTINUOUS
10
-20.471374
20
43.796241
30
0.0
11
-20.309111
21
43.717323
31
0.0
0
LINE
8
0
6
CONTINUOUS
10
-16.721195
20
44.454107
30
0.0
11
-16.921030
21
44.412657
31
0.0
0
LINE
8
0
6
CONTINUOUS
10
-16.558933
20
44.375181
30
0.0
11
-16.721195
21
44.454107
31
0.0
0
LINE
8
0
6
CONTINUOUS
10
-16.596505
20
44.254812
30
0.0
11
-16.558933
21
44.375181
31
0.0
0
LINE
8
0
6
CONTINUOUS
10
-16.796341
20
44.213362
30
0.0
11
-16.596505
21
44.254812
31
0.0
0
LINE
8
0
6
CONTINUOUS
10
-16.958603
20
44.292288
30
0.0
11
-16.796341
21
44.213362
31
0.0
0
LINE
8
0
6
CONTINUOUS
10
-16.921030
20
44.412657
30
0.0
11
-16.958603
21
44.292288
31
0.0
0
LINE
8
0
6
CONTINUOUS
10
-15.739447
20
45.931959
30
0.0
11
-15.533931
21
45.901060
31
0.0
0
LINE
8
0
6
CONTINUOUS
10
-15.795726
20
46.049887
30
0.0
11
-15.739447
21
45.931959
31
0.0
0
LINE
8
0
6
CONTINUOUS
10
-15.646491
20
46.136923
30
0.0
11
-15.795726
21
46.049887
31
0.0
0
LINE
8
0
6
CONTINUOUS
10
-15.440977
20
46.106016
30
0.0
11
-15.646491
21
46.136923
31
0.0
0
LINE
8
0
6
CONTINUOUS
10
-15.384695
20
45.988089
30
0.0
11
-15.440977
21
46.106016
31
0.0
0
LINE
8
0
6
CONTINUOUS
10
-15.533931
20
45.901060
30
0.0
11
-15.384695
21
45.988089
31
0.0
0
LINE
8
0
6
CONTINUOUS
10
-15.521244
20
43.787627
30
0.0
11
-15.721079
21
43.746177
31
0.0
0
LINE
8
0
6
CONTINUOUS
10
-15.358982
20
43.708709
30
0.0
11
-15.521244
21
43.787627
31
0.0
0
LINE
8
0
6
CONTINUOUS
10
-15.396554
20
43.588340
30
0.0
11
-15.358982
21
43.708709
31
0.0
0
LINE
8
0
6
CONTINUOUS
10
-15.596390
20
43.546890
30
0.0
11
-15.396554
21
43.588340
31
0.0
0
LINE
8
0
6
CONTINUOUS
10
-15.758653
20
43.625808
30
0.0
11
-15.596390
21
43.546890
31
0.0
0
LINE
8
0
6
CONTINUOUS
10
-15.721079
20
43.746177
30
0.0
11
-15.758653
21
43.625808
31
0.0
0
LINE
8
0
6
CONTINUOUS
10
-12.964858
20
44.945364
30
0.0
11
-13.127121
21
44.866438
31
0.0
0
LINE
8
0
6
CONTINUOUS
10
-12.765024
20
44.903914
30
0.0
11
-12.964858
21
44.945364
31
0.0
0
LINE
8
0
6
CONTINUOUS
10
-12.727452
20
44.783545
30
0.0
11
-12.765024
21
44.903914
31
0.0
0
LINE
8
0
6
CONTINUOUS
10
-12.889714
20
44.704619
30
0.0
11
-12.727452
21
44.783545
31
0.0
0
LINE
8
0
6
CONTINUOUS
10
-13.089547
20
44.746069
30
0.0
11
-12.889714
21
44.704619
31
0.0
0
LINE
8
0
6
CONTINUOUS
10
-13.127121
20
44.866438
30
0.0
11
-13.089547
21
44.746069
31
0.0
0
LINE
8
0
6
CONTINUOUS
10
-21.752673
20
45.483023
30
0.0
11
-21.590411
21
45.561949
31
0.0
0
LINE
8
0
6
CONTINUOUS
10
-21.952509
20
45.524481
30
0.0
11
-21.752673
21
45.483023
31
0.0
0
LINE
8
0
6
CONTINUOUS
10
-21.990081
20
45.644850
30
0.0
11
-21.952509
21
45.524481
31
0.0
0
LINE
8
0
6
CONTINUOUS
10
-21.827819
20
45.723768
30
0.0
11
-21.990081
21
45.644850
31
0.0
0
LINE
8
0
6
CONTINUOUS
10
-21.627984
20
45.682318
30
0.0
11
-21.827819
21
45.723768
31
0.0
0
LINE
8
0
6
CONTINUOUS
10
-21.590411
20
45.561949
30
0.0
11
-21.627984
21
45.682318
31
0.0
0
LINE
8
0
6
CONTINUOUS
10
-15.482023
20
43.032180
30
0.0
11
-15.519596
21
42.911811
31
0.0
0
LINE
8
0
6
CONTINUOUS
10
-15.282188
20
43.073638
30
0.0
11
-15.482023
21
43.032180
31
0.0
0
LINE
8
0
6
CONTINUOUS
10
-15.119926
20
42.994712
30
0.0
11
-15.282188
21
43.073638
31
0.0
0
LINE
8
0
6
CONTINUOUS
10
-15.157499
20
42.874336
30
0.0
11
-15.119926
21
42.994712
31
0.0
0
LINE
8
0
6
CONTINUOUS
10
-15.357334
20
42.832893
30
0.0
11
-15.157499
21
42.874336
31
0.0
0
LINE
8
0
6
CONTINUOUS
10
-15.519596
20
42.911811
30
0.0
11
-15.357334
21
42.832893
31
0.0
0
LINE
8
0
6
CONTINUOUS
10
-18.000174
20
45.554342
30
0.0
11
-18.056456
21
45.436407
31
0.0
0
LINE
8
0
6
CONTINUOUS
10
-17.794659
20
45.585242
30
0.0
11
-18.000174
21
45.554342
31
0.0
0
LINE
8
0
6
CONTINUOUS
10
-17.645424
20
45.498213
30
0.0
11
-17.794659
21
45.585242
31
0.0
0
LINE
8
0
6
CONTINUOUS
10
-17.701704
20
45.380278
30
0.0
11
-17.645424
21
45.498213
31
0.0
0
LINE
8
0
6
CONTINUOUS
10
-17.907220
20
45.349379
30
0.0
11
-17.701704
21
45.380278
31
0.0
0
LINE
8
0
6
CONTINUOUS
10
-18.056456
20
45.436407
30
0.0
11
-17.907220
21
45.349379
31
0.0
0
LINE
8
0
6
CONTINUOUS
10
-17.271498
20
30.706972
30
0.0
11
-17.248705
21
30.710841
31
0.0
0
LINE
8
0
6
CONTINUOUS
10
-17.248705
20
30.710841
30
0.0
11
-16.986436
21
30.747062
31
0.0
0
LINE
8
0
6
CONTINUOUS
10
-17.278041
20
30.705790
30
0.0
11
-17.271498
21
30.706972
31
0.0
0
LINE
8
0
6
CONTINUOUS
10
-18.181777
20
31.182138
30
0.0
11
-18.268131
21
31.270647
31
0.0
0
LINE
8
0
6
CONTINUOUS
10
-18.140890
20
31.130503
30
0.0
11
-18.181777
21
31.182138
31
0.0
0
LINE
8
0
6
CONTINUOUS
10
-16.760895
20
30.857099
30
0.0
11
-16.712337
21
30.876930
31
0.0
0
LINE
8
0
6
CONTINUOUS
10
-18.082068
20
31.055349
30
0.0
11
-17.843598
21
30.872375
31
0.0
0
LINE
8
0
6
CONTINUOUS
10
-16.712337
20
30.876930
30
0.0
11
-16.493752
21
31.040296
31
0.0
0
LINE
8
0
6
CONTINUOUS
10
-17.599611
20
30.767666
30
0.0
11
-17.569730
21
30.752095
31
0.0
0
LINE
8
0
6
CONTINUOUS
10
-17.635638
20
30.786303
30
0.0
11
-17.599611
21
30.767666
31
0.0
0
LINE
8
0
6
CONTINUOUS
10
-17.771108
20
30.841650
30
0.0
11
-17.635638
21
30.786303
31
0.0
0
LINE
8
0
6
CONTINUOUS
10
-17.843598
20
30.872375
30
0.0
11
-17.771108
21
30.841650
31
0.0
0
LINE
8
0
6
CONTINUOUS
10
-17.569730
20
30.752095
30
0.0
11
-17.278041
21
30.705790
31
0.0
0
LINE
8
0
6
CONTINUOUS
10
-18.268131
20
31.270647
30
0.0
11
-18.329079
21
31.384313
31
0.0
0
LINE
8
0
6
CONTINUOUS
10
-21.204251
20
44.293022
30
0.0
11
-21.123542
21
44.244921
31
0.0
0
LINE
8
0
6
CONTINUOUS
10
-21.123542
20
44.244921
30
0.0
11
-21.041989
21
44.194063
31
0.0
0
LINE
8
0
6
CONTINUOUS
10
-15.646491
20
46.205359
30
0.0
11
-15.550364
21
46.200569
31
0.0
0
LINE
8
0
6
CONTINUOUS
10
-15.795726
20
46.088802
30
0.0
11
-15.646491
21
46.205359
31
0.0
0
LINE
8
0
6
CONTINUOUS
10
-15.000393
20
45.619128
30
0.0
11
-14.810791
21
45.579536
31
0.0
0
LINE
8
0
6
CONTINUOUS
10
-15.550364
20
46.200569
30
0.0
11
-15.440977
21
46.191627
31
0.0
0
LINE
8
0
6
CONTINUOUS
10
-13.005176
20
45.697406
30
0.0
11
-12.855356
21
45.766139
31
0.0
0
LINE
8
0
6
CONTINUOUS
10
-12.805341
20
45.786439
30
0.0
11
-12.643079
21
45.740587
31
0.0
0
LINE
8
0
6
CONTINUOUS
10
-12.855356
20
45.766139
30
0.0
11
-12.805341
21
45.786439
31
0.0
0
LINE
8
0
6
CONTINUOUS
10
-17.414732
20
46.173170
30
0.0
11
-17.284990
21
46.164802
31
0.0
0
LINE
8
0
6
CONTINUOUS
10
-17.316685
20
46.267483
30
0.0
11
-17.284990
21
46.263608
31
0.0
0
LINE
8
0
6
CONTINUOUS
10
-18.609589
20
48.009453
30
0.0
11
-18.459049
21
47.983345
31
0.0
0
LINE
8
0
6
CONTINUOUS
10
-18.563831
20
47.698704
30
0.0
11
-18.507941
21
47.703486
31
0.0
0
LINE
8
0
6
CONTINUOUS
10
-17.532245
20
47.982276
30
0.0
11
-17.468759
21
48.145352
31
0.0
0
LINE
8
0
6
CONTINUOUS
10
-21.005030
20
45.413671
30
0.0
11
-20.889244
21
45.366323
31
0.0
0
LINE
8
0
6
CONTINUOUS
10
-18.043451
20
43.159090
30
0.0
11
-17.843616
21
43.120407
31
0.0
0
LINE
8
0
6
CONTINUOUS
10
-17.284990
20
46.166598
30
0.0
11
-17.218428
21
46.170891
31
0.0
0
LINE
8
0
6
CONTINUOUS
10
-16.838502
20
45.659474
30
0.0
11
-16.632987
21
45.631621
31
0.0
0
LINE
8
0
6
CONTINUOUS
10
-17.033100
20
46.269337
30
0.0
11
-16.985806
21
46.265639
31
0.0
0
LINE
8
0
6
CONTINUOUS
10
-17.284990
20
46.263608
30
0.0
11
-17.033100
21
46.269337
31
0.0
0
LINE
8
0
6
CONTINUOUS
10
-16.242496
20
45.925062
30
0.0
11
-16.036981
21
45.895932
31
0.0
0
LINE
8
0
6
CONTINUOUS
10
-16.391615
20
45.822640
30
0.0
11
-16.242496
21
45.925062
31
0.0
0
LINE
8
0
6
CONTINUOUS
10
-16.500309
20
46.194167
30
0.0
11
-16.259815
21
46.119896
31
0.0
0
LINE
8
0
6
CONTINUOUS
10
-16.985806
20
46.265639
30
0.0
11
-16.759433
21
46.244846
31
0.0
0
LINE
8
0
6
CONTINUOUS
10
-19.246124
20
45.547896
30
0.0
11
-19.317268
21
45.394844
31
0.0
0
LINE
8
0
6
CONTINUOUS
10
-16.888159
20
44.123541
30
0.0
11
-16.755091
21
44.152473
31
0.0
0
LINE
8
0
6
CONTINUOUS
10
-16.655452
20
43.819240
30
0.0
11
-16.629954
21
43.809361
31
0.0
0
LINE
8
0
6
CONTINUOUS
10
-16.711221
20
43.807115
30
0.0
11
-16.655452
21
43.819240
31
0.0
0
LINE
8
0
6
CONTINUOUS
10
-16.688324
20
44.166752
30
0.0
11
-16.526061
21
44.103787
31
0.0
0
LINE
8
0
6
CONTINUOUS
10
-16.755091
20
44.152473
30
0.0
11
-16.688324
21
44.166752
31
0.0
0
LINE
8
0
6
CONTINUOUS
10
-16.052285
20
44.117419
30
0.0
11
-16.028703
21
44.129412
31
0.0
0
LINE
8
0
6
CONTINUOUS
10
-17.911966
20
44.526133
30
0.0
11
-17.712130
21
44.477622
31
0.0
0
LINE
8
0
6
CONTINUOUS
10
-17.918957
20
43.808779
30
0.0
11
-17.777873
21
43.777972
31
0.0
0
LINE
8
0
6
CONTINUOUS
10
-21.868136
20
45.016414
30
0.0
11
-21.905709
21
44.916097
31
0.0
0
LINE
8
0
6
CONTINUOUS
10
-21.668301
20
45.011612
30
0.0
11
-21.588040
21
44.959617
31
0.0
0
LINE
8
0
6
CONTINUOUS
10
-21.588040
20
44.959617
30
0.0
11
-21.506038
21
44.904075
31
0.0
0
LINE
8
0
6
CONTINUOUS
10
-15.960135
20
44.556555
30
0.0
11
-15.918062
21
44.566530
31
0.0
0
LINE
8
0
6
CONTINUOUS
10
-15.960135
20
44.556555
30
0.0
11
-15.980412
21
44.491561
31
0.0
0
LINE
8
0
6
CONTINUOUS
10
-16.231620
20
45.120159
30
0.0
11
-16.042018
21
45.071532
31
0.0
0
LINE
8
0
6
CONTINUOUS
10
-16.409340
20
45.048190
30
0.0
11
-16.231620
21
45.120159
31
0.0
0
LINE
8
0
6
CONTINUOUS
10
-15.640771
20
44.219078
30
0.0
11
-15.530355
21
44.182435
31
0.0
0
LINE
8
0
6
CONTINUOUS
10
-15.840607
20
44.166953
30
0.0
11
-15.640771
21
44.219078
31
0.0
0
LINE
8
0
6
CONTINUOUS
10
-16.028703
20
44.129412
30
0.0
11
-15.852454
21
44.218641
31
0.0
0
LINE
8
0
6
CONTINUOUS
10
-15.852454
20
44.218641
30
0.0
11
-15.715012
21
44.308920
31
0.0
0
LINE
8
0
6
CONTINUOUS
10
-15.530355
20
44.182435
30
0.0
11
-15.478509
21
44.165645
31
0.0
0
LINE
8
0
6
CONTINUOUS
10
-19.114196
20
44.466896
30
0.0
11
-19.111091
21
44.463201
31
0.0
0
LINE
8
0
6
CONTINUOUS
10
-19.111091
20
44.463201
30
0.0
11
-18.963081
21
44.336562
31
0.0
0
LINE
8
0
6
CONTINUOUS
10
-18.963081
20
44.336562
30
0.0
11
-18.886899
21
44.287039
31
0.0
0
LINE
8
0
6
CONTINUOUS
10
-16.855287
20
43.776077
30
0.0
11
-16.711221
21
43.807115
31
0.0
0
LINE
8
0
6
CONTINUOUS
10
-16.855287
20
43.776077
30
0.0
11
-16.892861
21
43.671026
31
0.0
0
LINE
8
0
6
CONTINUOUS
10
-16.622581
20
43.475466
30
0.0
11
-16.585759
21
43.461415
31
0.0
0
LINE
8
0
6
CONTINUOUS
10
-19.111916
20
43.850434
30
0.0
11
-18.912081
21
43.797616
31
0.0
0
LINE
8
0
6
CONTINUOUS
10
-19.381733
20
43.168480
30
0.0
11
-19.350972
21
43.174877
31
0.0
0
LINE
8
0
6
CONTINUOUS
10
-16.800170
20
43.088620
30
0.0
11
-16.827118
21
43.019472
31
0.0
0
LINE
8
0
6
CONTINUOUS
10
-16.589710
20
43.151924
30
0.0
11
-16.561323
21
43.142397
31
0.0
0
LINE
8
0
6
CONTINUOUS
10
-16.789545
20
43.114580
30
0.0
11
-16.800170
21
43.088620
31
0.0
0
LINE
8
0
6
CONTINUOUS
10
-15.482023
20
43.077532
30
0.0
11
-15.282188
21
43.134438
31
0.0
0
LINE
8
0
6
CONTINUOUS
10
-15.482023
20
43.077532
30
0.0
11
-15.485233
21
43.069085
31
0.0
0
LINE
8
0
6
CONTINUOUS
10
-14.603716
20
46.706534
30
0.0
11
-14.454481
21
46.840584
31
0.0
0
LINE
8
0
6
CONTINUOUS
10
-14.454481
20
46.840584
30
0.0
11
-14.248967
21
46.841392
31
0.0
0
LINE
8
0
6
CONTINUOUS
10
-14.007712
20
47.052844
30
0.0
11
-13.872867
21
47.154609
31
0.0
0
LINE
8
0
6
CONTINUOUS
10
-19.323359
20
45.387584
30
0.0
11
-19.394197
21
45.244276
31
0.0
0
LINE
8
0
6
CONTINUOUS
10
-19.394197
20
45.244276
30
0.0
11
-19.423655
21
45.088093
31
0.0
0
LINE
8
0
6
CONTINUOUS
10
-19.247087
20
44.609939
30
0.0
11
-19.114196
21
44.466896
31
0.0
0
LINE
8
0
6
CONTINUOUS
10
-15.050487
20
46.507959
30
0.0
11
-14.844972
21
46.491701
31
0.0
0
LINE
8
0
6
CONTINUOUS
10
-15.625208
20
47.135915
30
0.0
11
-15.533095
21
47.249913
31
0.0
0
LINE
8
0
6
CONTINUOUS
10
-15.186748
20
46.854058
30
0.0
11
-15.041274
21
46.776098
31
0.0
0
LINE
8
0
6
CONTINUOUS
10
-15.562962
20
46.986555
30
0.0
11
-15.186748
21
46.854058
31
0.0
0
LINE
8
0
6
CONTINUOUS
10
-15.912979
20
47.057413
30
0.0
11
-15.562962
21
46.986555
31
0.0
0
LINE
8
0
6
CONTINUOUS
10
-15.511152
20
47.275257
30
0.0
11
-15.298944
21
47.283416
31
0.0
0
LINE
8
0
6
CONTINUOUS
10
-14.857972
20
46.670981
30
0.0
11
-14.598179
21
46.463531
31
0.0
0
LINE
8
0
6
CONTINUOUS
10
-15.041274
20
46.776098
30
0.0
11
-14.857972
21
46.670981
31
0.0
0
LINE
8
0
6
CONTINUOUS
10
-14.482655
20
45.067711
30
0.0
11
-14.307900
21
45.131439
31
0.0
0
LINE
8
0
6
CONTINUOUS
10
-14.282820
20
45.140096
30
0.0
11
-14.120558
21
45.089723
31
0.0
0
LINE
8
0
6
CONTINUOUS
10
-20.236932
20
44.406476
30
0.0
11
-20.274505
21
44.308701
31
0.0
0
LINE
8
0
6
CONTINUOUS
10
-20.037096
20
44.411990
30
0.0
11
-19.979924
21
44.379482
31
0.0
0
LINE
8
0
6
CONTINUOUS
10
-20.433801
20
44.005044
30
0.0
11
-20.453751
21
43.953452
31
0.0
0
LINE
8
0
6
CONTINUOUS
10
-20.233966
20
44.011826
30
0.0
11
-20.071703
21
43.921440
31
0.0
0
LINE
8
0
6
CONTINUOUS
10
-19.393706
20
43.445790
30
0.0
11
-19.231444
21
43.478757
31
0.0
0
LINE
8
0
6
CONTINUOUS
10
-15.221395
20
44.810717
30
0.0
11
-15.147739
21
44.833889
31
0.0
0
LINE
8
0
6
CONTINUOUS
10
-15.918062
20
44.566530
30
0.0
11
-15.760300
21
44.616157
31
0.0
0
LINE
8
0
6
CONTINUOUS
10
-15.793726
20
45.258324
30
0.0
11
-15.706594
21
45.300252
31
0.0
0
LINE
8
0
6
CONTINUOUS
10
-15.147739
20
44.833889
30
0.0
11
-15.021560
21
44.871915
31
0.0
0
LINE
8
0
6
CONTINUOUS
10
-15.616006
20
45.342473
30
0.0
11
-15.426404
21
45.307810
31
0.0
0
LINE
8
0
6
CONTINUOUS
10
-15.021560
20
44.871915
30
0.0
11
-14.859298
21
44.811403
31
0.0
0
LINE
8
0
6
CONTINUOUS
10
-13.153551
20
46.528786
30
0.0
11
-12.963950
21
46.510213
31
0.0
0
LINE
8
0
6
CONTINUOUS
10
-13.331272
20
46.408826
30
0.0
11
-13.153551
21
46.528786
31
0.0
0
LINE
8
0
6
CONTINUOUS
10
-16.780205
20
46.506232
30
0.0
11
-16.567998
21
46.506664
31
0.0
0
LINE
8
0
6
CONTINUOUS
10
-16.846293
20
47.236273
30
0.0
11
-16.724394
21
47.223112
31
0.0
0
LINE
8
0
6
CONTINUOUS
10
-16.228980
20
46.782131
30
0.0
11
-16.145678
21
46.877693
31
0.0
0
LINE
8
0
6
CONTINUOUS
10
-16.813156
20
47.523724
30
0.0
11
-16.603774
21
47.554498
31
0.0
0
LINE
8
0
6
CONTINUOUS
10
-16.145678
20
46.877693
30
0.0
11
-15.933471
21
46.876475
31
0.0
0
LINE
8
0
6
CONTINUOUS
10
-15.971471
20
47.079578
30
0.0
11
-15.912979
21
47.057413
31
0.0
0
LINE
8
0
6
CONTINUOUS
10
-16.394847
20
47.182931
30
0.0
11
-15.971471
21
47.079578
31
0.0
0
LINE
8
0
6
CONTINUOUS
10
-16.724394
20
47.223112
30
0.0
11
-16.394847
21
47.182931
31
0.0
0
LINE
8
0
6
CONTINUOUS
10
-15.601551
20
43.438813
30
0.0
11
-15.639124
21
43.331560
31
0.0
0
LINE
8
0
6
CONTINUOUS
10
-16.585759
20
43.461415
30
0.0
11
-16.460319
21
43.416925
31
0.0
0
LINE
8
0
6
CONTINUOUS
10
-16.822416
20
43.433931
30
0.0
11
-16.859990
21
43.335832
31
0.0
0
LINE
8
0
6
CONTINUOUS
10
-20.750199
20
44.626479
30
0.0
11
-20.662312
21
44.570933
31
0.0
0
LINE
8
0
6
CONTINUOUS
10
-19.209800
20
43.472452
30
0.0
11
-19.031609
21
43.429633
31
0.0
0
LINE
8
0
6
CONTINUOUS
10
-14.384779
20
45.896717
30
0.0
11
-14.195177
21
45.871311
31
0.0
0
LINE
8
0
6
CONTINUOUS
10
-14.561004
20
45.792104
30
0.0
11
-14.384779
21
45.896717
31
0.0
0
LINE
8
0
6
CONTINUOUS
10
-13.544081
20
45.434612
30
0.0
11
-13.440723
21
45.396129
31
0.0
0
LINE
8
0
6
CONTINUOUS
10
-13.575811
20
45.423515
30
0.0
11
-13.544081
21
45.434612
31
0.0
0
LINE
8
0
6
CONTINUOUS
10
-21.524169
20
31.970506
30
0.0
11
-21.556675
21
31.977216
31
0.0
0
ENDSEC
0
EOF
