999
unknown String-ID: 20550
0
SECTION
2
HEADER
9
$ACADVER
1
AC1009
9
$DWGCODEPAGE
3
unknown String-ID: 20561
0
ENDSEC
0
SECTION
2
TABLES
0
TABLE
2
LAYER
70
1
0
LAYER
2
0
70
0
62
7
6
CONTINUOUS
0
ENDTAB
0
ENDSEC
0
SECTION
2
ENTITIES
0
LINE
8
0
6
CONTINUOUS
10
-24.647750
20
3.644293
30
0.0
11
-24.719015
21
3.644292
31
0.0
0
LINE
8
0
6
CONTINUOUS
10
-24.719016
20
7.400277
30
0.0
11
-24.647750
21
7.418956
31
0.0
0
LINE
8
0
6
CONTINUOUS
10
-24.647750
20
3.644293
30
0.0
11
-22.621677
21
3.644292
31
0.0
0
LINE
8
0
6
CONTINUOUS
10
-22.621677
20
7.418955
30
0.0
11
-24.647750
21
7.418956
31
0.0
0
LINE
8
0
6
CONTINUOUS
10
-22.621677
20
3.644292
30
0.0
11
-22.592613
21
3.644292
31
0.0
0
LINE
8
0
6
CONTINUOUS
10
-22.592613
20
7.418955
30
0.0
11
-22.621677
21
7.418955
31
0.0
0
LINE
8
0
6
CONTINUOUS
10
-24.719015
20
3.644292
30
0.0
11
-24.719015
21
3.708602
31
0.0
0
LINE
8
0
6
CONTINUOUS
10
-24.719015
20
3.708602
30
0.0
11
-24.719013
21
3.897148
31
0.0
0
LINE
8
0
6
CONTINUOUS
10
-24.719013
20
3.897148
30
0.0
11
-24.719013
21
4.197079
31
0.0
0
LINE
8
0
6
CONTINUOUS
10
-24.719013
20
4.197079
30
0.0
11
-24.719013
21
4.587957
31
0.0
0
LINE
8
0
6
CONTINUOUS
10
-24.719013
20
4.587957
30
0.0
11
-24.719013
21
5.043146
31
0.0
0
LINE
8
0
6
CONTINUOUS
10
-24.719013
20
5.043146
30
0.0
11
-24.719013
21
5.531623
31
0.0
0
LINE
8
0
6
CONTINUOUS
10
-24.719013
20
5.531623
30
0.0
11
-24.719013
21
6.020101
31
0.0
0
LINE
8
0
6
CONTINUOUS
10
-24.719013
20
6.020101
30
0.0
11
-24.719013
21
6.475288
31
0.0
0
LINE
8
0
6
CONTINUOUS
10
-24.719013
20
6.475288
30
0.0
11
-24.719015
21
6.866168
31
0.0
0
LINE
8
0
6
CONTINUOUS
10
-24.719015
20
6.866168
30
0.0
11
-24.719015
21
7.166101
31
0.0
0
LINE
8
0
6
CONTINUOUS
10
-24.719015
20
7.166101
30
0.0
11
-24.719016
21
7.354646
31
0.0
0
LINE
8
0
6
CONTINUOUS
10
-24.719016
20
7.354646
30
0.0
11
-24.719016
21
7.400277
31
0.0
0
LINE
8
0
6
CONTINUOUS
10
-24.638048
20
4.319423
30
0.0
11
-24.649368
21
4.319117
31
0.0
0
LINE
8
0
6
CONTINUOUS
10
-24.638048
20
4.319423
30
0.0
11
-23.083592
21
4.316720
31
0.0
0
LINE
8
0
6
CONTINUOUS
10
-23.083592
20
4.316720
30
0.0
11
-23.072350
21
4.317052
31
0.0
0
LINE
8
0
6
CONTINUOUS
10
-24.654058
20
4.335187
30
0.0
11
-24.649368
21
4.319117
31
0.0
0
LINE
8
0
6
CONTINUOUS
10
-24.649368
20
4.319117
30
0.0
11
-24.645142
21
4.323451
31
0.0
0
LINE
8
0
6
CONTINUOUS
10
-24.645142
20
4.323451
30
0.0
11
-24.641668
21
4.347892
31
0.0
0
LINE
8
0
6
CONTINUOUS
10
-24.641668
20
4.347892
30
0.0
11
-24.639181
21
4.390778
31
0.0
0
LINE
8
0
6
CONTINUOUS
10
-24.639181
20
4.390778
30
0.0
11
-24.637852
21
4.449182
31
0.0
0
LINE
8
0
6
CONTINUOUS
10
-24.637852
20
4.449182
30
0.0
11
-24.637771
21
4.519127
31
0.0
0
LINE
8
0
6
CONTINUOUS
10
-24.637771
20
4.519127
30
0.0
11
-24.638942
21
4.595847
31
0.0
0
LINE
8
0
6
CONTINUOUS
10
-24.638942
20
4.595847
30
0.0
11
-24.641289
21
4.674112
31
0.0
0
LINE
8
0
6
CONTINUOUS
10
-24.641289
20
4.674112
30
0.0
11
-24.644648
21
4.748588
31
0.0
0
LINE
8
0
6
CONTINUOUS
10
-24.644648
20
4.748588
30
0.0
11
-24.648794
21
4.814200
31
0.0
0
LINE
8
0
6
CONTINUOUS
10
-24.648794
20
4.814200
30
0.0
11
-24.653439
21
4.866476
31
0.0
0
LINE
8
0
6
CONTINUOUS
10
-24.653439
20
4.866476
30
0.0
11
-24.658272
21
4.901856
31
0.0
0
LINE
8
0
6
CONTINUOUS
10
-24.712965
20
5.178418
30
0.0
11
-24.658272
21
4.901856
31
0.0
0
LINE
8
0
6
CONTINUOUS
10
-23.072350
20
5.177674
30
0.0
11
-23.072350
21
4.899546
31
0.0
0
LINE
8
0
6
CONTINUOUS
10
-23.072350
20
4.321229
30
0.0
11
-23.072350
21
4.317052
31
0.0
0
LINE
8
0
6
CONTINUOUS
10
-23.072350
20
4.345522
30
0.0
11
-23.072350
21
4.321229
31
0.0
0
LINE
8
0
6
CONTINUOUS
10
-23.072350
20
4.388278
30
0.0
11
-23.072350
21
4.345522
31
0.0
0
LINE
8
0
6
CONTINUOUS
10
-23.072350
20
4.446578
30
0.0
11
-23.072350
21
4.388278
31
0.0
0
LINE
8
0
6
CONTINUOUS
10
-23.072350
20
4.516453
30
0.0
11
-23.072350
21
4.446578
31
0.0
0
LINE
8
0
6
CONTINUOUS
10
-23.072350
20
4.593141
30
0.0
11
-23.072350
21
4.516453
31
0.0
0
LINE
8
0
6
CONTINUOUS
10
-23.072350
20
4.671412
30
0.0
11
-23.072350
21
4.593141
31
0.0
0
LINE
8
0
6
CONTINUOUS
10
-23.072350
20
4.745937
30
0.0
11
-23.072350
21
4.671412
31
0.0
0
LINE
8
0
6
CONTINUOUS
10
-23.072350
20
4.811635
30
0.0
11
-23.072350
21
4.745937
31
0.0
0
LINE
8
0
6
CONTINUOUS
10
-23.072350
20
4.864027
30
0.0
11
-23.072350
21
4.811635
31
0.0
0
LINE
8
0
6
CONTINUOUS
10
-23.072350
20
4.899546
30
0.0
11
-23.072350
21
4.864027
31
0.0
0
LINE
8
0
6
CONTINUOUS
10
-24.708754
20
4.611749
30
0.0
11
-24.654058
21
4.335187
31
0.0
0
LINE
8
0
6
CONTINUOUS
10
-22.592613
20
3.708602
30
0.0
11
-22.592613
21
3.644292
31
0.0
0
LINE
8
0
6
CONTINUOUS
10
-22.592612
20
3.897147
30
0.0
11
-22.592613
21
3.708602
31
0.0
0
LINE
8
0
6
CONTINUOUS
10
-22.592611
20
4.197079
30
0.0
11
-22.592612
21
3.897147
31
0.0
0
LINE
8
0
6
CONTINUOUS
10
-22.592611
20
4.587957
30
0.0
11
-22.592611
21
4.197079
31
0.0
0
LINE
8
0
6
CONTINUOUS
10
-22.592611
20
5.043146
30
0.0
11
-22.592611
21
4.587957
31
0.0
0
LINE
8
0
6
CONTINUOUS
10
-22.592611
20
5.531623
30
0.0
11
-22.592611
21
5.043146
31
0.0
0
LINE
8
0
6
CONTINUOUS
10
-22.592611
20
6.020100
30
0.0
11
-22.592611
21
5.531623
31
0.0
0
LINE
8
0
6
CONTINUOUS
10
-22.592611
20
6.475288
30
0.0
11
-22.592611
21
6.020100
31
0.0
0
LINE
8
0
6
CONTINUOUS
10
-22.592611
20
6.866168
30
0.0
11
-22.592611
21
6.475288
31
0.0
0
LINE
8
0
6
CONTINUOUS
10
-22.592612
20
7.166100
30
0.0
11
-22.592611
21
6.866168
31
0.0
0
LINE
8
0
6
CONTINUOUS
10
-22.592613
20
7.418955
30
0.0
11
-22.592613
21
7.354646
31
0.0
0
LINE
8
0
6
CONTINUOUS
10
-22.592613
20
7.354646
30
0.0
11
-22.592612
21
7.166100
31
0.0
0
LINE
8
0
6
CONTINUOUS
10
-22.534488
20
3.637036
30
0.0
11
-22.502512
21
3.637036
31
0.0
0
LINE
8
0
6
CONTINUOUS
10
-22.502512
20
3.637036
30
0.0
11
-18.650768
21
3.637035
31
0.0
0
LINE
8
0
6
CONTINUOUS
10
-16.453695
20
5.298120
30
0.0
11
-16.453695
21
5.320214
31
0.0
0
LINE
8
0
6
CONTINUOUS
10
-18.347931
20
4.856986
30
0.0
11
-18.367163
21
4.798240
31
0.0
0
LINE
8
0
6
CONTINUOUS
10
-18.327233
20
4.885610
30
0.0
11
-18.347931
21
4.856986
31
0.0
0
LINE
8
0
6
CONTINUOUS
10
-16.453695
20
5.927702
30
0.0
11
-16.453695
21
6.281580
31
0.0
0
LINE
8
0
6
CONTINUOUS
10
-16.453695
20
6.281580
30
0.0
11
-16.453695
21
6.606638
31
0.0
0
LINE
8
0
6
CONTINUOUS
10
-17.762486
20
5.482425
30
0.0
11
-17.637497
21
5.502754
31
0.0
0
LINE
8
0
6
CONTINUOUS
10
-18.396348
20
4.771313
30
0.0
11
-18.376637
21
4.831523
31
0.0
0
LINE
8
0
6
CONTINUOUS
10
-18.376637
20
4.831523
30
0.0
11
-18.293597
21
4.946358
31
0.0
0
LINE
8
0
6
CONTINUOUS
10
-16.453695
20
6.890381
30
0.0
11
-16.453695
21
7.121911
31
0.0
0
LINE
8
0
6
CONTINUOUS
10
-16.453695
20
6.606638
30
0.0
11
-16.453695
21
6.890381
31
0.0
0
LINE
8
0
6
CONTINUOUS
10
-16.804256
20
5.488894
30
0.0
11
-16.703325
21
5.399719
31
0.0
0
LINE
8
0
6
CONTINUOUS
10
-16.949154
20
5.512692
30
0.0
11
-16.804256
21
5.488894
31
0.0
0
LINE
8
0
6
CONTINUOUS
10
-16.453695
20
5.558604
30
0.0
11
-16.453695
21
5.927702
31
0.0
0
LINE
8
0
6
CONTINUOUS
10
-16.453695
20
5.320214
30
0.0
11
-16.453695
21
5.558604
31
0.0
0
LINE
8
0
6
CONTINUOUS
10
-16.453695
20
5.320214
30
0.0
11
-16.493751
21
5.349995
31
0.0
0
LINE
8
0
6
CONTINUOUS
10
-16.453695
20
5.320214
30
0.0
11
-16.631611
21
5.374111
31
0.0
0
LINE
8
0
6
CONTINUOUS
10
-16.640586
20
5.344287
30
0.0
11
-16.453695
21
5.320214
31
0.0
0
LINE
8
0
6
CONTINUOUS
10
-22.534488
20
7.426217
30
0.0
11
-22.502512
21
7.426217
31
0.0
0
LINE
8
0
6
CONTINUOUS
10
-17.261252
20
7.426217
30
0.0
11
-16.804256
21
7.426217
31
0.0
0
LINE
8
0
6
CONTINUOUS
10
-17.762486
20
7.426217
30
0.0
11
-17.261252
21
7.426217
31
0.0
0
LINE
8
0
6
CONTINUOUS
10
-18.118519
20
7.426217
30
0.0
11
-17.762486
21
7.426217
31
0.0
0
LINE
8
0
6
CONTINUOUS
10
-16.804256
20
7.426217
30
0.0
11
-16.493751
21
7.426217
31
0.0
0
LINE
8
0
6
CONTINUOUS
10
-16.453694
20
7.426217
30
0.0
11
-16.493751
21
7.426217
31
0.0
0
LINE
8
0
6
CONTINUOUS
10
-16.453695
20
7.395079
30
0.0
11
-16.453694
21
7.426217
31
0.0
0
LINE
8
0
6
CONTINUOUS
10
-16.453695
20
7.121911
30
0.0
11
-16.453694
21
7.292326
31
0.0
0
LINE
8
0
6
CONTINUOUS
10
-16.453694
20
7.292326
30
0.0
11
-16.453695
21
7.395079
31
0.0
0
LINE
8
0
6
CONTINUOUS
10
-22.502512
20
7.426217
30
0.0
11
-21.596674
21
7.426217
31
0.0
0
LINE
8
0
6
CONTINUOUS
10
-19.396675
20
7.426217
30
0.0
11
-18.118519
21
7.426217
31
0.0
0
LINE
8
0
6
CONTINUOUS
10
-16.792952
20
5.516658
30
0.0
11
-16.631611
21
5.374111
31
0.0
0
LINE
8
0
6
CONTINUOUS
10
-22.534488
20
3.637036
30
0.0
11
-22.534488
21
3.678702
31
0.0
0
LINE
8
0
6
CONTINUOUS
10
-22.534488
20
3.678702
30
0.0
11
-22.534488
21
3.791576
31
0.0
0
LINE
8
0
6
CONTINUOUS
10
-22.534488
20
6.606636
30
0.0
11
-22.534488
21
6.890381
31
0.0
0
LINE
8
0
6
CONTINUOUS
10
-22.534488
20
4.211022
30
0.0
11
-22.534488
21
4.501480
31
0.0
0
LINE
8
0
6
CONTINUOUS
10
-22.534488
20
5.558604
30
0.0
11
-22.534488
21
5.927702
31
0.0
0
LINE
8
0
6
CONTINUOUS
10
-22.534488
20
7.292326
30
0.0
11
-22.534488
21
7.395076
31
0.0
0
LINE
8
0
6
CONTINUOUS
10
-22.534488
20
6.890381
30
0.0
11
-22.534488
21
7.121911
31
0.0
0
LINE
8
0
6
CONTINUOUS
10
-22.534488
20
3.791576
30
0.0
11
-22.534488
21
3.971319
31
0.0
0
LINE
8
0
6
CONTINUOUS
10
-22.534488
20
6.281580
30
0.0
11
-22.534488
21
6.606636
31
0.0
0
LINE
8
0
6
CONTINUOUS
10
-22.534488
20
7.121911
30
0.0
11
-22.534488
21
7.292326
31
0.0
0
LINE
8
0
6
CONTINUOUS
10
-22.534488
20
4.501480
30
0.0
11
-22.534488
21
4.831521
31
0.0
0
LINE
8
0
6
CONTINUOUS
10
-22.534488
20
7.395076
30
0.0
11
-22.534488
21
7.426217
31
0.0
0
LINE
8
0
6
CONTINUOUS
10
-22.534488
20
5.188469
30
0.0
11
-22.534488
21
5.558604
31
0.0
0
LINE
8
0
6
CONTINUOUS
10
-22.534488
20
3.971319
30
0.0
11
-22.534488
21
4.211022
31
0.0
0
LINE
8
0
6
CONTINUOUS
10
-22.534488
20
5.927702
30
0.0
11
-22.534488
21
6.281580
31
0.0
0
LINE
8
0
6
CONTINUOUS
10
-22.534488
20
4.831521
30
0.0
11
-22.534488
21
5.188469
31
0.0
0
LINE
8
0
6
CONTINUOUS
10
-19.448131
20
11.750802
30
0.0
11
-19.396675
21
11.750802
31
0.0
0
LINE
8
0
6
CONTINUOUS
10
-21.545218
20
11.750802
30
0.0
11
-21.596674
21
11.750802
31
0.0
0
LINE
8
0
6
CONTINUOUS
10
-19.436675
20
5.268259
30
0.0
11
-19.396675
21
5.548274
31
0.0
0
LINE
8
0
6
CONTINUOUS
10
-19.546674
20
4.998247
30
0.0
11
-19.436675
21
5.268259
31
0.0
0
LINE
8
0
6
CONTINUOUS
10
-19.716674
20
4.768234
30
0.0
11
-19.546674
21
4.998247
31
0.0
0
LINE
8
0
6
CONTINUOUS
10
-19.946675
20
4.598226
30
0.0
11
-19.716674
21
4.768234
31
0.0
0
LINE
8
0
6
CONTINUOUS
10
-20.216674
20
4.488221
30
0.0
11
-19.946675
21
4.598226
31
0.0
0
LINE
8
0
6
CONTINUOUS
10
-20.496675
20
4.448218
30
0.0
11
-20.216674
21
4.488221
31
0.0
0
LINE
8
0
6
CONTINUOUS
10
-21.596674
20
5.548274
30
0.0
11
-21.556675
21
5.268259
31
0.0
0
LINE
8
0
6
CONTINUOUS
10
-21.556675
20
5.268259
30
0.0
11
-21.446675
21
4.998247
31
0.0
0
LINE
8
0
6
CONTINUOUS
10
-21.446675
20
4.998247
30
0.0
11
-21.276674
21
4.768234
31
0.0
0
LINE
8
0
6
CONTINUOUS
10
-21.276674
20
4.768234
30
0.0
11
-21.046674
21
4.598226
31
0.0
0
LINE
8
0
6
CONTINUOUS
10
-21.046674
20
4.598226
30
0.0
11
-20.776674
21
4.488221
31
0.0
0
LINE
8
0
6
CONTINUOUS
10
-20.776674
20
4.488221
30
0.0
11
-20.496675
21
4.448218
31
0.0
0
LINE
8
0
6
CONTINUOUS
10
-19.396675
20
11.700800
30
0.0
11
-19.396675
21
11.750802
31
0.0
0
LINE
8
0
6
CONTINUOUS
10
-21.545218
20
11.750802
30
0.0
11
-19.448131
21
11.750802
31
0.0
0
LINE
8
0
6
CONTINUOUS
10
-19.448131
20
11.750802
30
0.0
11
-19.396675
21
11.750802
31
0.0
0
LINE
8
0
6
CONTINUOUS
10
-19.448131
20
11.750802
30
0.0
11
-21.545218
21
11.750802
31
0.0
0
LINE
8
0
6
CONTINUOUS
10
-21.545218
20
11.750802
30
0.0
11
-21.596674
21
11.750802
31
0.0
0
LINE
8
0
6
CONTINUOUS
10
-21.596674
20
11.750802
30
0.0
11
-21.535223
21
11.750802
31
0.0
0
LINE
8
0
6
CONTINUOUS
10
-19.396675
20
5.548274
30
0.0
11
-19.396675
21
11.700800
31
0.0
0
LINE
8
0
6
CONTINUOUS
10
-19.446675
20
11.750802
30
0.0
11
-21.535223
21
11.750802
31
0.0
0
LINE
8
0
6
CONTINUOUS
10
-19.446675
20
11.750802
30
0.0
11
-19.396675
21
11.750802
31
0.0
0
LINE
8
0
6
CONTINUOUS
10
-21.546674
20
11.750802
30
0.0
11
-19.446675
21
11.750802
31
0.0
0
LINE
8
0
6
CONTINUOUS
10
-19.446675
20
11.750802
30
0.0
11
-19.396675
21
11.750802
31
0.0
0
LINE
8
0
6
CONTINUOUS
10
-21.596674
20
11.700800
30
0.0
11
-21.596674
21
5.548274
31
0.0
0
LINE
8
0
6
CONTINUOUS
10
-21.596674
20
11.750802
30
0.0
11
-21.596674
21
11.700800
31
0.0
0
LINE
8
0
6
CONTINUOUS
10
-21.546674
20
11.750802
30
0.0
11
-21.596674
21
11.750802
31
0.0
0
LINE
8
0
6
CONTINUOUS
10
-16.545626
20
7.503294
30
0.0
11
-16.545626
21
7.426217
31
0.0
0
LINE
8
0
6
CONTINUOUS
10
-18.145626
20
7.503293
30
0.0
11
-18.145626
21
7.426217
31
0.0
0
LINE
8
0
6
CONTINUOUS
10
-16.545626
20
8.171980
30
0.0
11
-16.545626
21
7.503294
31
0.0
0
LINE
8
0
6
CONTINUOUS
10
-18.145626
20
8.171978
30
0.0
11
-18.145626
21
7.503293
31
0.0
0
LINE
8
0
6
CONTINUOUS
10
-16.545626
20
8.665913
30
0.0
11
-16.545626
21
8.171980
31
0.0
0
LINE
8
0
6
CONTINUOUS
10
-18.145626
20
8.665911
30
0.0
11
-18.145626
21
8.171978
31
0.0
0
LINE
8
0
6
CONTINUOUS
10
-16.545626
20
9.010670
30
0.0
11
-16.545626
21
8.665913
31
0.0
0
LINE
8
0
6
CONTINUOUS
10
-18.145626
20
9.010668
30
0.0
11
-18.145626
21
8.665911
31
0.0
0
LINE
8
0
6
CONTINUOUS
10
-16.545626
20
9.231825
30
0.0
11
-16.545626
21
9.010670
31
0.0
0
LINE
8
0
6
CONTINUOUS
10
-18.145626
20
9.231823
30
0.0
11
-18.145626
21
9.010668
31
0.0
0
LINE
8
0
6
CONTINUOUS
10
-16.545626
20
9.354954
30
0.0
11
-16.545626
21
9.231825
31
0.0
0
LINE
8
0
6
CONTINUOUS
10
-18.145626
20
9.354952
30
0.0
11
-18.145626
21
9.231823
31
0.0
0
LINE
8
0
6
CONTINUOUS
10
-16.545626
20
9.405631
30
0.0
11
-16.545626
21
9.354954
31
0.0
0
LINE
8
0
6
CONTINUOUS
10
-18.145626
20
9.405629
30
0.0
11
-18.145626
21
9.354952
31
0.0
0
LINE
8
0
6
CONTINUOUS
10
-17.345627
20
10.209426
30
0.0
11
-16.945626
21
10.102247
31
0.0
0
LINE
8
0
6
CONTINUOUS
10
-16.945626
20
10.102247
30
0.0
11
-16.652807
21
9.809429
31
0.0
0
LINE
8
0
6
CONTINUOUS
10
-16.652807
20
9.809429
30
0.0
11
-16.545626
21
9.409431
31
0.0
0
LINE
8
0
6
CONTINUOUS
10
-18.145626
20
9.409429
30
0.0
11
-18.038448
21
9.809427
31
0.0
0
LINE
8
0
6
CONTINUOUS
10
-18.038448
20
9.809427
30
0.0
11
-17.745628
21
10.102246
31
0.0
0
LINE
8
0
6
CONTINUOUS
10
-17.745628
20
10.102246
30
0.0
11
-17.345627
21
10.209426
31
0.0
0
LINE
8
0
6
CONTINUOUS
10
15.502600
20
9.058703
30
0.0
11
15.363698
21
9.058703
31
0.0
0
LINE
8
0
6
CONTINUOUS
10
16.882552
20
9.058703
30
0.0
11
16.605246
21
9.058703
31
0.0
0
LINE
8
0
6
CONTINUOUS
10
15.363698
20
9.058703
30
0.0
11
15.179675
21
8.991428
31
0.0
0
LINE
8
0
6
CONTINUOUS
10
15.150161
20
8.941098
30
0.0
11
15.150161
21
8.304745
31
0.0
0
LINE
8
0
6
CONTINUOUS
10
15.150161
20
8.976508
30
0.0
11
15.150161
21
8.941098
31
0.0
0
LINE
8
0
6
CONTINUOUS
10
15.150161
20
8.976508
30
0.0
11
15.170802
21
8.984454
31
0.0
0
LINE
8
0
6
CONTINUOUS
10
15.159983
20
8.984228
30
0.0
11
15.150161
21
8.976508
31
0.0
0
LINE
8
0
6
CONTINUOUS
10
15.179675
20
8.991428
30
0.0
11
15.159983
21
8.984228
31
0.0
0
LINE
8
0
6
CONTINUOUS
10
15.363698
20
9.058703
30
0.0
11
15.170802
21
8.984454
31
0.0
0
LINE
8
0
6
CONTINUOUS
10
16.605246
20
9.058703
30
0.0
11
15.502600
21
9.058703
31
0.0
0
LINE
8
0
6
CONTINUOUS
10
16.178171
20
8.976508
30
0.0
11
16.219455
21
8.984454
31
0.0
0
LINE
8
0
6
CONTINUOUS
10
15.686624
20
8.991428
30
0.0
11
15.706316
21
8.984228
31
0.0
0
LINE
8
0
6
CONTINUOUS
10
16.605246
20
9.058703
30
0.0
11
16.219455
21
8.984454
31
0.0
0
LINE
8
0
6
CONTINUOUS
10
15.686624
20
8.991428
30
0.0
11
15.502600
21
9.058703
31
0.0
0
LINE
8
0
6
CONTINUOUS
10
16.178171
20
8.976508
30
0.0
11
15.706316
21
8.984228
31
0.0
0
LINE
8
0
6
CONTINUOUS
10
17.247864
20
9.058703
30
0.0
11
16.893652
21
9.058703
31
0.0
0
LINE
8
0
6
CONTINUOUS
10
16.893652
20
9.058703
30
0.0
11
16.882552
21
9.058703
31
0.0
0
LINE
8
0
6
CONTINUOUS
10
17.250600
20
8.991428
30
0.0
11
17.289984
21
8.984228
31
0.0
0
LINE
8
0
6
CONTINUOUS
10
17.250600
20
8.991428
30
0.0
11
16.893929
21
9.056623
31
0.0
0
LINE
8
0
6
CONTINUOUS
10
16.893929
20
9.056623
30
0.0
11
16.882552
21
9.058703
31
0.0
0
LINE
8
0
6
CONTINUOUS
10
15.363698
20
7.550787
30
0.0
11
15.502600
21
7.550787
31
0.0
0
LINE
8
0
6
CONTINUOUS
10
16.605246
20
7.550787
30
0.0
11
16.882552
21
7.550787
31
0.0
0
LINE
8
0
6
CONTINUOUS
10
15.179675
20
7.618063
30
0.0
11
15.363698
21
7.550787
31
0.0
0
LINE
8
0
6
CONTINUOUS
10
15.150161
20
8.304745
30
0.0
11
15.150161
21
7.668392
31
0.0
0
LINE
8
0
6
CONTINUOUS
10
15.150161
20
7.668392
30
0.0
11
15.150161
21
7.632982
31
0.0
0
LINE
8
0
6
CONTINUOUS
10
15.159983
20
7.625262
30
0.0
11
15.179675
21
7.618063
31
0.0
0
LINE
8
0
6
CONTINUOUS
10
15.150161
20
7.632982
30
0.0
11
15.159983
21
7.625262
31
0.0
0
LINE
8
0
6
CONTINUOUS
10
15.170802
20
7.625037
30
0.0
11
15.150161
21
7.632982
31
0.0
0
LINE
8
0
6
CONTINUOUS
10
15.170802
20
7.625037
30
0.0
11
15.363698
21
7.550787
31
0.0
0
LINE
8
0
6
CONTINUOUS
10
15.502600
20
7.550787
30
0.0
11
16.605246
21
7.550787
31
0.0
0
LINE
8
0
6
CONTINUOUS
10
15.706316
20
7.625262
30
0.0
11
15.686624
21
7.618063
31
0.0
0
LINE
8
0
6
CONTINUOUS
10
16.219455
20
7.625037
30
0.0
11
16.178171
21
7.632982
31
0.0
0
LINE
8
0
6
CONTINUOUS
10
16.219455
20
7.625037
30
0.0
11
16.605246
21
7.550787
31
0.0
0
LINE
8
0
6
CONTINUOUS
10
15.502600
20
7.550787
30
0.0
11
15.686624
21
7.618063
31
0.0
0
LINE
8
0
6
CONTINUOUS
10
15.706316
20
7.625262
30
0.0
11
16.178171
21
7.632982
31
0.0
0
LINE
8
0
6
CONTINUOUS
10
17.289984
20
7.625262
30
0.0
11
17.250600
21
7.618063
31
0.0
0
LINE
8
0
6
CONTINUOUS
10
16.882552
20
7.550787
30
0.0
11
16.893929
21
7.552867
31
0.0
0
LINE
8
0
6
CONTINUOUS
10
16.893929
20
7.552867
30
0.0
11
17.250600
21
7.618063
31
0.0
0
LINE
8
0
6
CONTINUOUS
10
0.283048
20
9.058703
30
0.0
11
0.099026
21
8.991428
31
0.0
0
LINE
8
0
6
CONTINUOUS
10
1.801405
20
9.058703
30
0.0
11
1.524099
21
9.058703
31
0.0
0
LINE
8
0
6
CONTINUOUS
10
0.069510
20
8.941098
30
0.0
11
0.069510
21
8.304745
31
0.0
0
LINE
8
0
6
CONTINUOUS
10
0.099026
20
8.991428
30
0.0
11
0.079333
21
8.984228
31
0.0
0
LINE
8
0
6
CONTINUOUS
10
0.069510
20
8.976508
30
0.0
11
0.069510
21
8.941098
31
0.0
0
LINE
8
0
6
CONTINUOUS
10
0.079333
20
8.984228
30
0.0
11
0.069510
21
8.976508
31
0.0
0
LINE
8
0
6
CONTINUOUS
10
2.187197
20
8.984454
30
0.0
11
2.228479
21
8.976508
31
0.0
0
LINE
8
0
6
CONTINUOUS
10
2.187197
20
8.984454
30
0.0
11
1.812703
21
9.056529
31
0.0
0
LINE
8
0
6
CONTINUOUS
10
1.812703
20
9.056529
30
0.0
11
1.801405
21
9.058703
31
0.0
0
LINE
8
0
6
CONTINUOUS
10
1.524099
20
9.058703
30
0.0
11
0.421452
21
9.058703
31
0.0
0
LINE
8
0
6
CONTINUOUS
10
1.116666
20
8.984228
30
0.0
11
1.156052
21
8.991428
31
0.0
0
LINE
8
0
6
CONTINUOUS
10
0.614348
20
8.984454
30
0.0
11
0.634990
21
8.976508
31
0.0
0
LINE
8
0
6
CONTINUOUS
10
0.421452
20
9.058703
30
0.0
11
0.283048
21
9.058703
31
0.0
0
LINE
8
0
6
CONTINUOUS
10
0.614348
20
8.984454
30
0.0
11
0.421452
21
9.058703
31
0.0
0
LINE
8
0
6
CONTINUOUS
10
1.524099
20
9.058703
30
0.0
11
1.156052
21
8.991428
31
0.0
0
LINE
8
0
6
CONTINUOUS
10
1.116666
20
8.984228
30
0.0
11
0.634990
21
8.976508
31
0.0
0
LINE
8
0
6
CONTINUOUS
10
0.099026
20
7.618063
30
0.0
11
0.283048
21
7.550787
31
0.0
0
LINE
8
0
6
CONTINUOUS
10
1.524099
20
7.550787
30
0.0
11
1.801405
21
7.550787
31
0.0
0
LINE
8
0
6
CONTINUOUS
10
0.069510
20
8.304745
30
0.0
11
0.069510
21
7.668392
31
0.0
0
LINE
8
0
6
CONTINUOUS
10
0.079333
20
7.625262
30
0.0
11
0.099026
21
7.618063
31
0.0
0
LINE
8
0
6
CONTINUOUS
10
0.069510
20
7.632982
30
0.0
11
0.079333
21
7.625262
31
0.0
0
LINE
8
0
6
CONTINUOUS
10
0.069510
20
7.668392
30
0.0
11
0.069510
21
7.632982
31
0.0
0
LINE
8
0
6
CONTINUOUS
10
1.801405
20
7.550787
30
0.0
11
1.813001
21
7.550787
31
0.0
0
LINE
8
0
6
CONTINUOUS
10
2.228479
20
7.632982
30
0.0
11
2.187197
21
7.625037
31
0.0
0
LINE
8
0
6
CONTINUOUS
10
1.801405
20
7.550787
30
0.0
11
1.812703
21
7.552961
31
0.0
0
LINE
8
0
6
CONTINUOUS
10
1.812703
20
7.552961
30
0.0
11
2.187197
21
7.625037
31
0.0
0
LINE
8
0
6
CONTINUOUS
10
0.421452
20
7.550787
30
0.0
11
1.524099
21
7.550787
31
0.0
0
LINE
8
0
6
CONTINUOUS
10
0.634990
20
7.632982
30
0.0
11
0.614348
21
7.625037
31
0.0
0
LINE
8
0
6
CONTINUOUS
10
1.156052
20
7.618063
30
0.0
11
1.116666
21
7.625262
31
0.0
0
LINE
8
0
6
CONTINUOUS
10
0.283048
20
7.550787
30
0.0
11
0.421452
21
7.550787
31
0.0
0
LINE
8
0
6
CONTINUOUS
10
0.421452
20
7.550787
30
0.0
11
0.614348
21
7.625037
31
0.0
0
LINE
8
0
6
CONTINUOUS
10
1.156052
20
7.618063
30
0.0
11
1.524099
21
7.550787
31
0.0
0
LINE
8
0
6
CONTINUOUS
10
0.634990
20
7.632982
30
0.0
11
1.116666
21
7.625262
31
0.0
0
LINE
8
0
6
CONTINUOUS
10
5.378902
20
9.616951
30
0.0
11
5.378902
21
9.552758
31
0.0
0
LINE
8
0
6
CONTINUOUS
10
-1.413858
20
9.616951
30
0.0
11
-1.413858
21
9.552758
31
0.0
0
LINE
8
0
6
CONTINUOUS
10
2.643835
20
11.750800
30
0.0
11
1.979760
21
11.750799
31
0.0
0
LINE
8
0
6
CONTINUOUS
10
3.284029
20
11.750799
30
0.0
11
2.643835
21
11.750800
31
0.0
0
LINE
8
0
6
CONTINUOUS
10
3.877877
20
11.750799
30
0.0
11
3.284029
21
11.750799
31
0.0
0
LINE
8
0
6
CONTINUOUS
10
4.390971
20
11.750800
30
0.0
11
3.877877
21
11.750799
31
0.0
0
LINE
8
0
6
CONTINUOUS
10
4.814009
20
11.750800
30
0.0
11
4.390971
21
11.750800
31
0.0
0
LINE
8
0
6
CONTINUOUS
10
5.129769
20
11.750801
30
0.0
11
4.814009
21
11.750800
31
0.0
0
LINE
8
0
6
CONTINUOUS
10
5.316134
20
11.750801
30
0.0
11
5.129769
21
11.750801
31
0.0
0
LINE
8
0
6
CONTINUOUS
10
5.378904
20
11.750802
30
0.0
11
5.316134
21
11.750801
31
0.0
0
LINE
8
0
6
CONTINUOUS
10
5.311930
20
11.750805
30
0.0
11
5.378904
21
11.750802
31
0.0
0
LINE
8
0
6
CONTINUOUS
10
5.111024
20
11.750803
30
0.0
11
5.311930
21
11.750805
31
0.0
0
LINE
8
0
6
CONTINUOUS
10
4.796362
20
11.750804
30
0.0
11
5.111024
21
11.750803
31
0.0
0
LINE
8
0
6
CONTINUOUS
10
4.374182
20
11.750804
30
0.0
11
4.796362
21
11.750804
31
0.0
0
LINE
8
0
6
CONTINUOUS
10
3.854940
20
11.750805
30
0.0
11
4.374182
21
11.750804
31
0.0
0
LINE
8
0
6
CONTINUOUS
10
3.272612
20
11.750805
30
0.0
11
3.854940
21
11.750805
31
0.0
0
LINE
8
0
6
CONTINUOUS
10
2.643225
20
11.750806
30
0.0
11
3.272612
21
11.750805
31
0.0
0
LINE
8
0
6
CONTINUOUS
10
1.975710
20
11.750806
30
0.0
11
2.643225
21
11.750806
31
0.0
0
LINE
8
0
6
CONTINUOUS
10
1.321513
20
11.750805
30
0.0
11
1.975710
21
11.750806
31
0.0
0
LINE
8
0
6
CONTINUOUS
10
0.690354
20
11.750805
30
0.0
11
1.321513
21
11.750805
31
0.0
0
LINE
8
0
6
CONTINUOUS
10
0.100101
20
11.750805
30
0.0
11
0.690354
21
11.750805
31
0.0
0
LINE
8
0
6
CONTINUOUS
10
-0.408619
20
11.750804
30
0.0
11
0.100101
21
11.750805
31
0.0
0
LINE
8
0
6
CONTINUOUS
10
-0.831725
20
11.750803
30
0.0
11
-0.408619
21
11.750804
31
0.0
0
LINE
8
0
6
CONTINUOUS
10
-1.149221
20
11.750803
30
0.0
11
-0.831725
21
11.750803
31
0.0
0
LINE
8
0
6
CONTINUOUS
10
-1.341988
20
11.750803
30
0.0
11
-1.149221
21
11.750803
31
0.0
0
LINE
8
0
6
CONTINUOUS
10
-1.413855
20
11.750802
30
0.0
11
-1.341988
21
11.750803
31
0.0
0
LINE
8
0
6
CONTINUOUS
10
-1.351853
20
11.750801
30
0.0
11
-1.413855
21
11.750802
31
0.0
0
LINE
8
0
6
CONTINUOUS
10
-1.160387
20
11.750801
30
0.0
11
-1.351853
21
11.750801
31
0.0
0
LINE
8
0
6
CONTINUOUS
10
-0.852869
20
11.750800
30
0.0
11
-1.160387
21
11.750801
31
0.0
0
LINE
8
0
6
CONTINUOUS
10
-0.429903
20
11.750801
30
0.0
11
-0.852869
21
11.750800
31
0.0
0
LINE
8
0
6
CONTINUOUS
10
0.085277
20
11.750799
30
0.0
11
-0.429903
21
11.750801
31
0.0
0
LINE
8
0
6
CONTINUOUS
10
0.671057
20
11.750800
30
0.0
11
0.085277
21
11.750799
31
0.0
0
LINE
8
0
6
CONTINUOUS
10
1.314040
20
11.750799
30
0.0
11
0.671057
21
11.750800
31
0.0
0
LINE
8
0
6
CONTINUOUS
10
1.979760
20
11.750799
30
0.0
11
1.314040
21
11.750799
31
0.0
0
LINE
8
0
6
CONTINUOUS
10
5.378902
20
9.552758
30
0.0
11
5.329553
21
9.440211
31
0.0
0
LINE
8
0
6
CONTINUOUS
10
-1.413858
20
9.552758
30
0.0
11
-1.375151
21
9.448094
31
0.0
0
LINE
8
0
6
CONTINUOUS
10
0.670485
20
7.300807
30
0.0
11
0.770031
21
7.300807
31
0.0
0
LINE
8
0
6
CONTINUOUS
10
1.978224
20
7.300806
30
0.0
11
2.478677
21
7.300806
31
0.0
0
LINE
8
0
6
CONTINUOUS
10
2.902937
20
7.300806
30
0.0
11
3.186419
21
7.300806
31
0.0
0
LINE
8
0
6
CONTINUOUS
10
1.477776
20
7.300807
30
0.0
11
1.978224
21
7.300806
31
0.0
0
LINE
8
0
6
CONTINUOUS
10
0.770031
20
7.300807
30
0.0
11
1.053515
21
7.300807
31
0.0
0
LINE
8
0
6
CONTINUOUS
10
0.670485
20
7.300807
30
0.0
11
0.665088
21
7.550787
31
0.0
0
LINE
8
0
6
CONTINUOUS
10
0.632532
20
9.058703
30
0.0
11
0.627652
21
9.284758
31
0.0
0
LINE
8
0
6
CONTINUOUS
10
3.285966
20
7.300806
30
0.0
11
3.292191
21
7.550787
31
0.0
0
LINE
8
0
6
CONTINUOUS
10
3.329744
20
9.058703
30
0.0
11
3.335363
21
9.284356
31
0.0
0
LINE
8
0
6
CONTINUOUS
10
3.186419
20
7.300806
30
0.0
11
3.285966
21
7.300806
31
0.0
0
LINE
8
0
6
CONTINUOUS
10
2.478677
20
7.300806
30
0.0
11
2.902937
21
7.300806
31
0.0
0
LINE
8
0
6
CONTINUOUS
10
1.070906
20
1.944656
30
0.0
11
2.028435
21
1.931969
31
0.0
0
LINE
8
0
6
CONTINUOUS
10
3.554625
20
7.246143
30
0.0
11
3.570458
21
6.892089
31
0.0
0
LINE
8
0
6
CONTINUOUS
10
2.632498
20
9.435098
30
0.0
11
1.978049
21
9.435103
31
0.0
0
LINE
8
0
6
CONTINUOUS
10
3.261951
20
9.434010
30
0.0
11
2.632498
21
9.435098
31
0.0
0
LINE
8
0
6
CONTINUOUS
10
3.841010
20
9.435018
30
0.0
11
3.261951
21
9.434010
31
0.0
0
LINE
8
0
6
CONTINUOUS
10
4.349045
20
9.436217
30
0.0
11
3.841010
21
9.435018
31
0.0
0
LINE
8
0
6
CONTINUOUS
10
4.766118
20
9.436305
30
0.0
11
4.349045
21
9.436217
31
0.0
0
LINE
8
0
6
CONTINUOUS
10
5.075422
20
9.437087
30
0.0
11
4.766118
21
9.436305
31
0.0
0
LINE
8
0
6
CONTINUOUS
10
5.265493
20
9.439285
30
0.0
11
5.075422
21
9.437087
31
0.0
0
LINE
8
0
6
CONTINUOUS
10
5.329553
20
9.440211
30
0.0
11
5.265493
21
9.439285
31
0.0
0
LINE
8
0
6
CONTINUOUS
10
5.329553
20
9.440211
30
0.0
11
5.171114
21
9.427828
31
0.0
0
LINE
8
0
6
CONTINUOUS
10
-1.375151
20
9.448094
30
0.0
11
-1.216549
21
9.435159
31
0.0
0
LINE
8
0
6
CONTINUOUS
10
-1.312973
20
9.446120
30
0.0
11
-1.375151
21
9.448094
31
0.0
0
LINE
8
0
6
CONTINUOUS
10
-1.122888
20
9.445266
30
0.0
11
-1.312973
21
9.446120
31
0.0
0
LINE
8
0
6
CONTINUOUS
10
-0.808512
20
9.439264
30
0.0
11
-1.122888
21
9.445266
31
0.0
0
LINE
8
0
6
CONTINUOUS
10
-0.392502
20
9.437403
30
0.0
11
-0.808512
21
9.439264
31
0.0
0
LINE
8
0
6
CONTINUOUS
10
0.115659
20
9.437421
30
0.0
11
-0.392502
21
9.437403
31
0.0
0
LINE
8
0
6
CONTINUOUS
10
0.695288
20
9.436244
30
0.0
11
0.115659
21
9.437421
31
0.0
0
LINE
8
0
6
CONTINUOUS
10
1.323519
20
9.434061
30
0.0
11
0.695288
21
9.436244
31
0.0
0
LINE
8
0
6
CONTINUOUS
10
1.978049
20
9.435103
30
0.0
11
1.323519
21
9.434061
31
0.0
0
LINE
8
0
6
CONTINUOUS
10
1.053515
20
7.300807
30
0.0
11
1.477776
21
7.300807
31
0.0
0
LINE
8
0
6
CONTINUOUS
10
9.503325
20
6.650834
30
0.0
11
15.094664
21
6.660039
31
0.0
0
LINE
8
0
6
CONTINUOUS
10
2.787855
20
1.928815
30
0.0
11
9.503325
21
1.901643
31
0.0
0
LINE
8
0
6
CONTINUOUS
10
-1.069832
20
1.971229
30
0.0
11
1.070906
21
1.944656
31
0.0
0
LINE
8
0
6
CONTINUOUS
10
-0.207974
20
5.724170
30
0.0
11
-1.069832
21
5.714378
31
0.0
0
LINE
8
0
6
CONTINUOUS
10
2.028435
20
1.931969
30
0.0
11
2.787855
21
1.928815
31
0.0
0
LINE
8
0
6
CONTINUOUS
10
0.412732
20
7.246031
30
0.0
11
0.392191
21
6.052622
31
0.0
0
LINE
8
0
6
CONTINUOUS
10
0.272446
20
5.823702
30
0.0
11
0.392191
21
6.052622
31
0.0
0
LINE
8
0
6
CONTINUOUS
10
3.686388
20
6.687106
30
0.0
11
3.570458
21
6.892089
31
0.0
0
LINE
8
0
6
CONTINUOUS
10
-0.207974
20
5.724170
30
0.0
11
0.055221
21
5.750661
31
0.0
0
LINE
8
0
6
CONTINUOUS
10
0.303943
20
5.846933
30
0.0
11
0.055221
21
5.750661
31
0.0
0
LINE
8
0
6
CONTINUOUS
10
0.441430
20
5.803281
30
0.0
11
0.303943
21
5.846933
31
0.0
0
LINE
8
0
6
CONTINUOUS
10
0.666771
20
5.707572
30
0.0
11
0.441430
21
5.803281
31
0.0
0
LINE
8
0
6
CONTINUOUS
10
1.000815
20
5.602356
30
0.0
11
0.666771
21
5.707572
31
0.0
0
LINE
8
0
6
CONTINUOUS
10
3.912000
20
6.660037
30
0.0
11
3.983294
21
6.650934
31
0.0
0
LINE
8
0
6
CONTINUOUS
10
3.606709
20
6.772106
30
0.0
11
3.911019
21
6.599261
31
0.0
0
LINE
8
0
6
CONTINUOUS
10
3.686388
20
6.687106
30
0.0
11
3.637697
21
6.508379
31
0.0
0
LINE
8
0
6
CONTINUOUS
10
3.637697
20
6.508379
30
0.0
11
3.508313
21
6.218492
31
0.0
0
LINE
8
0
6
CONTINUOUS
10
3.508313
20
6.218492
30
0.0
11
3.311766
21
5.876771
31
0.0
0
LINE
8
0
6
CONTINUOUS
10
3.311766
20
5.876771
30
0.0
11
2.978153
21
5.575938
31
0.0
0
LINE
8
0
6
CONTINUOUS
10
3.553818
20
7.299808
30
0.0
11
3.554625
21
7.246143
31
0.0
0
LINE
8
0
6
CONTINUOUS
10
0.413146
20
7.299727
30
0.0
11
0.412732
21
7.246031
31
0.0
0
LINE
8
0
6
CONTINUOUS
10
-1.095825
20
1.971398
30
0.0
11
-1.069832
21
1.971229
31
0.0
0
LINE
8
0
6
CONTINUOUS
10
-1.069832
20
5.714378
30
0.0
11
-1.095721
21
5.714315
31
0.0
0
LINE
8
0
6
CONTINUOUS
10
-3.625564
20
2.000267
30
0.0
11
-1.173790
21
1.971909
31
0.0
0
LINE
8
0
6
CONTINUOUS
10
-1.173790
20
1.971909
30
0.0
11
-1.147801
21
1.971739
31
0.0
0
LINE
8
0
6
CONTINUOUS
10
-1.147780
20
2.039529
30
0.0
11
-1.147801
21
1.971739
31
0.0
0
LINE
8
0
6
CONTINUOUS
10
-1.147801
20
1.971739
30
0.0
11
-1.121804
21
2.075289
31
0.0
0
LINE
8
0
6
CONTINUOUS
10
-1.121792
20
2.139368
30
0.0
11
-1.121804
21
2.075289
31
0.0
0
LINE
8
0
6
CONTINUOUS
10
-1.095825
20
1.971398
30
0.0
11
-1.095816
21
2.039212
31
0.0
0
LINE
8
0
6
CONTINUOUS
10
-1.121804
20
2.075289
30
0.0
11
-1.095825
21
1.971398
31
0.0
0
LINE
8
0
6
CONTINUOUS
10
-1.148329
20
2.228205
30
0.0
11
-1.147780
21
2.039529
31
0.0
0
LINE
8
0
6
CONTINUOUS
10
-1.122139
20
2.317735
30
0.0
11
-1.121792
21
2.139368
31
0.0
0
LINE
8
0
6
CONTINUOUS
10
-1.095816
20
2.039212
30
0.0
11
-1.095999
21
2.227994
31
0.0
0
LINE
8
0
6
CONTINUOUS
10
-1.147817
20
2.534471
30
0.0
11
-1.148329
21
2.228205
31
0.0
0
LINE
8
0
6
CONTINUOUS
10
-1.121815
20
2.607202
30
0.0
11
-1.122139
21
2.317735
31
0.0
0
LINE
8
0
6
CONTINUOUS
10
-1.095999
20
2.227994
30
0.0
11
-1.095826
21
2.534287
31
0.0
0
LINE
8
0
6
CONTINUOUS
10
-1.147639
20
2.933291
30
0.0
11
-1.147817
21
2.534471
31
0.0
0
LINE
8
0
6
CONTINUOUS
10
-1.121706
20
2.984143
30
0.0
11
-1.121815
21
2.607202
31
0.0
0
LINE
8
0
6
CONTINUOUS
10
-1.095826
20
2.534287
30
0.0
11
-1.095768
21
2.933145
31
0.0
0
LINE
8
0
6
CONTINUOUS
10
-1.147566
20
3.392716
30
0.0
11
-1.147639
21
2.933291
31
0.0
0
LINE
8
0
6
CONTINUOUS
10
-1.121657
20
3.418384
30
0.0
11
-1.121706
21
2.984143
31
0.0
0
LINE
8
0
6
CONTINUOUS
10
-1.095768
20
2.933145
30
0.0
11
-1.095746
21
3.392652
31
0.0
0
LINE
8
0
6
CONTINUOUS
10
-1.147507
20
3.880845
30
0.0
11
-1.147566
21
3.392716
31
0.0
0
LINE
8
0
6
CONTINUOUS
10
-1.121622
20
3.879747
30
0.0
11
-1.121657
21
3.418384
31
0.0
0
LINE
8
0
6
CONTINUOUS
10
-1.095746
20
3.392652
30
0.0
11
-1.095725
21
3.880850
31
0.0
0
LINE
8
0
6
CONTINUOUS
10
-1.147503
20
4.365552
30
0.0
11
-1.147507
21
3.880845
31
0.0
0
LINE
8
0
6
CONTINUOUS
10
-1.121617
20
4.337872
30
0.0
11
-1.121622
21
3.879747
31
0.0
0
LINE
8
0
6
CONTINUOUS
10
-1.095725
20
3.880850
30
0.0
11
-1.095721
21
4.365620
31
0.0
0
LINE
8
0
6
CONTINUOUS
10
-1.147503
20
4.810786
30
0.0
11
-1.147503
21
4.365552
31
0.0
0
LINE
8
0
6
CONTINUOUS
10
-1.121617
20
4.758693
30
0.0
11
-1.121617
21
4.337872
31
0.0
0
LINE
8
0
6
CONTINUOUS
10
-1.095721
20
4.365620
30
0.0
11
-1.095721
21
4.810916
31
0.0
0
LINE
8
0
6
CONTINUOUS
10
-1.147503
20
5.187900
30
0.0
11
-1.147503
21
4.810786
31
0.0
0
LINE
8
0
6
CONTINUOUS
10
-1.121617
20
5.115110
30
0.0
11
-1.121617
21
4.758693
31
0.0
0
LINE
8
0
6
CONTINUOUS
10
-1.095721
20
4.810916
30
0.0
11
-1.095721
21
5.188045
31
0.0
0
LINE
8
0
6
CONTINUOUS
10
-1.147503
20
5.480609
30
0.0
11
-1.147503
21
5.187900
31
0.0
0
LINE
8
0
6
CONTINUOUS
10
-1.121617
20
5.391767
30
0.0
11
-1.121617
21
5.115110
31
0.0
0
LINE
8
0
6
CONTINUOUS
10
-1.095721
20
5.188045
30
0.0
11
-1.095721
21
5.480794
31
0.0
0
LINE
8
0
6
CONTINUOUS
10
-1.147503
20
5.714190
30
0.0
11
-1.173391
21
5.714128
31
0.0
0
LINE
8
0
6
CONTINUOUS
10
-1.147503
20
5.714190
30
0.0
11
-1.147503
21
5.649477
31
0.0
0
LINE
8
0
6
CONTINUOUS
10
-1.121617
20
5.612497
30
0.0
11
-1.147503
21
5.714190
31
0.0
0
LINE
8
0
6
CONTINUOUS
10
-1.121617
20
5.612497
30
0.0
11
-1.121617
21
5.551330
31
0.0
0
LINE
8
0
6
CONTINUOUS
10
-1.095721
20
5.714315
30
0.0
11
-1.121617
21
5.612497
31
0.0
0
LINE
8
0
6
CONTINUOUS
10
-1.095721
20
5.649588
30
0.0
11
-1.095721
21
5.714315
31
0.0
0
LINE
8
0
6
CONTINUOUS
10
-1.147503
20
5.649477
30
0.0
11
-1.147503
21
5.480609
31
0.0
0
LINE
8
0
6
CONTINUOUS
10
-1.121617
20
5.551330
30
0.0
11
-1.121617
21
5.391767
31
0.0
0
LINE
8
0
6
CONTINUOUS
10
-1.095721
20
5.480794
30
0.0
11
-1.095721
21
5.649588
31
0.0
0
LINE
8
0
6
CONTINUOUS
10
-5.601351
20
5.695258
30
0.0
11
-5.682281
21
5.694913
31
0.0
0
LINE
8
0
6
CONTINUOUS
10
-5.601351
20
5.695258
30
0.0
11
-1.173391
21
5.714128
31
0.0
0
LINE
8
0
6
CONTINUOUS
10
2.643835
20
11.750800
30
0.0
11
1.979760
21
11.750799
31
0.0
0
LINE
8
0
6
CONTINUOUS
10
3.284029
20
11.750799
30
0.0
11
2.643835
21
11.750800
31
0.0
0
LINE
8
0
6
CONTINUOUS
10
3.877877
20
11.750799
30
0.0
11
3.284029
21
11.750799
31
0.0
0
LINE
8
0
6
CONTINUOUS
10
4.390971
20
11.750800
30
0.0
11
3.877877
21
11.750799
31
0.0
0
LINE
8
0
6
CONTINUOUS
10
4.814009
20
11.750800
30
0.0
11
4.390971
21
11.750800
31
0.0
0
LINE
8
0
6
CONTINUOUS
10
5.129769
20
11.750801
30
0.0
11
4.814009
21
11.750800
31
0.0
0
LINE
8
0
6
CONTINUOUS
10
5.316134
20
11.750801
30
0.0
11
5.129769
21
11.750801
31
0.0
0
LINE
8
0
6
CONTINUOUS
10
5.378904
20
11.750802
30
0.0
11
5.316134
21
11.750801
31
0.0
0
LINE
8
0
6
CONTINUOUS
10
5.311930
20
11.750805
30
0.0
11
5.378904
21
11.750802
31
0.0
0
LINE
8
0
6
CONTINUOUS
10
5.378904
20
11.750802
30
0.0
11
5.378902
21
9.616951
31
0.0
0
LINE
8
0
6
CONTINUOUS
10
5.111024
20
11.750803
30
0.0
11
5.311930
21
11.750805
31
0.0
0
LINE
8
0
6
CONTINUOUS
10
4.796362
20
11.750804
30
0.0
11
5.111024
21
11.750803
31
0.0
0
LINE
8
0
6
CONTINUOUS
10
4.374182
20
11.750804
30
0.0
11
4.796362
21
11.750804
31
0.0
0
LINE
8
0
6
CONTINUOUS
10
3.854940
20
11.750805
30
0.0
11
4.374182
21
11.750804
31
0.0
0
LINE
8
0
6
CONTINUOUS
10
3.272612
20
11.750805
30
0.0
11
3.854940
21
11.750805
31
0.0
0
LINE
8
0
6
CONTINUOUS
10
2.643225
20
11.750806
30
0.0
11
3.272612
21
11.750805
31
0.0
0
LINE
8
0
6
CONTINUOUS
10
1.975710
20
11.750806
30
0.0
11
2.643225
21
11.750806
31
0.0
0
LINE
8
0
6
CONTINUOUS
10
1.321513
20
11.750805
30
0.0
11
1.975710
21
11.750806
31
0.0
0
LINE
8
0
6
CONTINUOUS
10
0.690354
20
11.750805
30
0.0
11
1.321513
21
11.750805
31
0.0
0
LINE
8
0
6
CONTINUOUS
10
0.100101
20
11.750805
30
0.0
11
0.690354
21
11.750805
31
0.0
0
LINE
8
0
6
CONTINUOUS
10
-0.408619
20
11.750804
30
0.0
11
0.100101
21
11.750805
31
0.0
0
LINE
8
0
6
CONTINUOUS
10
-0.831725
20
11.750803
30
0.0
11
-0.408619
21
11.750804
31
0.0
0
LINE
8
0
6
CONTINUOUS
10
-1.149221
20
11.750803
30
0.0
11
-0.831725
21
11.750803
31
0.0
0
LINE
8
0
6
CONTINUOUS
10
-1.341988
20
11.750803
30
0.0
11
-1.149221
21
11.750803
31
0.0
0
LINE
8
0
6
CONTINUOUS
10
-1.413855
20
11.750802
30
0.0
11
-1.341988
21
11.750803
31
0.0
0
LINE
8
0
6
CONTINUOUS
10
-1.351853
20
11.750801
30
0.0
11
-1.413855
21
11.750802
31
0.0
0
LINE
8
0
6
CONTINUOUS
10
-1.413855
20
11.750802
30
0.0
11
-1.413858
21
9.616951
31
0.0
0
LINE
8
0
6
CONTINUOUS
10
-1.160387
20
11.750801
30
0.0
11
-1.351853
21
11.750801
31
0.0
0
LINE
8
0
6
CONTINUOUS
10
-0.852869
20
11.750800
30
0.0
11
-1.160387
21
11.750801
31
0.0
0
LINE
8
0
6
CONTINUOUS
10
-0.429903
20
11.750801
30
0.0
11
-0.852869
21
11.750800
31
0.0
0
LINE
8
0
6
CONTINUOUS
10
0.085277
20
11.750799
30
0.0
11
-0.429903
21
11.750801
31
0.0
0
LINE
8
0
6
CONTINUOUS
10
0.671057
20
11.750800
30
0.0
11
0.085277
21
11.750799
31
0.0
0
LINE
8
0
6
CONTINUOUS
10
1.979760
20
11.750799
30
0.0
11
1.314040
21
11.750799
31
0.0
0
LINE
8
0
6
CONTINUOUS
10
1.314040
20
11.750799
30
0.0
11
0.671057
21
11.750800
31
0.0
0
LINE
8
0
6
CONTINUOUS
10
5.171114
20
9.427828
30
0.0
11
3.335363
21
9.284356
31
0.0
0
LINE
8
0
6
CONTINUOUS
10
-1.216549
20
9.435159
30
0.0
11
0.627652
21
9.284758
31
0.0
0
LINE
8
0
6
CONTINUOUS
10
0.413146
20
7.299727
30
0.0
11
0.456130
21
7.299809
31
0.0
0
LINE
8
0
6
CONTINUOUS
10
3.351347
20
7.299937
30
0.0
11
3.509676
21
7.299880
31
0.0
0
LINE
8
0
6
CONTINUOUS
10
3.102356
20
7.299991
30
0.0
11
3.351347
21
7.299937
31
0.0
0
LINE
8
0
6
CONTINUOUS
10
2.775458
20
7.299918
30
0.0
11
3.102356
21
7.299991
31
0.0
0
LINE
8
0
6
CONTINUOUS
10
2.390003
20
7.299930
30
0.0
11
2.775458
21
7.299918
31
0.0
0
LINE
8
0
6
CONTINUOUS
10
1.976525
20
7.300037
30
0.0
11
2.390003
21
7.299930
31
0.0
0
LINE
8
0
6
CONTINUOUS
10
3.509676
20
7.299880
30
0.0
11
3.553818
21
7.299808
31
0.0
0
LINE
8
0
6
CONTINUOUS
10
0.456130
20
7.299809
30
0.0
11
0.612868
21
7.299820
31
0.0
0
LINE
8
0
6
CONTINUOUS
10
0.612868
20
7.299820
30
0.0
11
0.858841
21
7.299894
31
0.0
0
LINE
8
0
6
CONTINUOUS
10
0.858841
20
7.299894
30
0.0
11
1.183956
21
7.299870
31
0.0
0
LINE
8
0
6
CONTINUOUS
10
1.183956
20
7.299870
30
0.0
11
1.567053
21
7.299960
31
0.0
0
LINE
8
0
6
CONTINUOUS
10
1.567053
20
7.299960
30
0.0
11
1.976525
21
7.300037
31
0.0
0
LINE
8
0
6
CONTINUOUS
10
-5.682281
20
2.562718
30
0.0
11
-5.682281
21
2.955928
31
0.0
0
LINE
8
0
6
CONTINUOUS
10
-5.682281
20
2.955928
30
0.0
11
-5.682281
21
3.402869
31
0.0
0
LINE
8
0
6
CONTINUOUS
10
-5.682281
20
3.402869
30
0.0
11
-5.682281
21
3.880110
31
0.0
0
LINE
8
0
6
CONTINUOUS
10
-5.682281
20
3.880110
30
0.0
11
-5.682281
21
4.355199
31
0.0
0
LINE
8
0
6
CONTINUOUS
10
-5.682281
20
4.355199
30
0.0
11
-5.682281
21
4.790692
31
0.0
0
LINE
8
0
6
CONTINUOUS
10
-5.682281
20
4.790692
30
0.0
11
-5.682281
21
5.165386
31
0.0
0
LINE
8
0
6
CONTINUOUS
10
-5.682281
20
5.165386
30
0.0
11
-5.682281
21
5.452008
31
0.0
0
LINE
8
0
6
CONTINUOUS
10
-5.682281
20
5.452008
30
0.0
11
-5.682281
21
5.632338
31
0.0
0
LINE
8
0
6
CONTINUOUS
10
-5.682281
20
5.632338
30
0.0
11
-5.682281
21
5.694913
31
0.0
0
LINE
8
0
6
CONTINUOUS
10
-3.686688
20
1.338675
30
0.0
11
-3.630501
21
1.337776
31
0.0
0
LINE
8
0
6
CONTINUOUS
10
-5.712132
20
1.371077
30
0.0
11
-5.657625
21
1.370641
31
0.0
0
LINE
8
0
6
CONTINUOUS
10
-5.657625
20
1.370641
30
0.0
11
-3.686688
21
1.338675
31
0.0
0
LINE
8
0
6
CONTINUOUS
10
-3.630574
20
1.389540
30
0.0
11
-3.630501
21
1.337776
31
0.0
0
LINE
8
0
6
CONTINUOUS
10
-3.629486
20
1.653421
30
0.0
11
-3.630189
21
1.512534
31
0.0
0
LINE
8
0
6
CONTINUOUS
10
-3.628634
20
1.786221
30
0.0
11
-3.629486
21
1.653421
31
0.0
0
LINE
8
0
6
CONTINUOUS
10
-3.629242
20
1.448468
30
0.0
11
-3.623956
21
2.241614
31
0.0
0
LINE
8
0
6
CONTINUOUS
10
-3.623349
20
2.579362
30
0.0
11
-3.628634
21
1.786221
31
0.0
0
LINE
8
0
6
CONTINUOUS
10
-3.630189
20
1.512534
30
0.0
11
-3.630574
21
1.389540
31
0.0
0
LINE
8
0
6
CONTINUOUS
10
-5.712132
20
1.371077
30
0.0
11
-5.712367
21
1.423567
31
0.0
0
LINE
8
0
6
CONTINUOUS
10
-5.712165
20
1.540649
30
0.0
11
-5.711583
21
1.682069
31
0.0
0
LINE
8
0
6
CONTINUOUS
10
-5.711583
20
1.682069
30
0.0
11
-5.710775
21
1.815061
31
0.0
0
LINE
8
0
6
CONTINUOUS
10
-5.710775
20
1.815061
30
0.0
11
-5.705488
21
2.608202
31
0.0
0
LINE
8
0
6
CONTINUOUS
10
-5.712367
20
1.423567
30
0.0
11
-5.712165
21
1.540649
31
0.0
0
LINE
8
0
6
CONTINUOUS
10
13.627750
20
9.552758
30
0.0
11
13.627750
21
9.616951
31
0.0
0
LINE
8
0
6
CONTINUOUS
10
20.420508
20
9.552758
30
0.0
11
20.420508
21
9.616951
31
0.0
0
LINE
8
0
6
CONTINUOUS
10
17.692610
20
11.750799
30
0.0
11
17.026893
21
11.750799
31
0.0
0
LINE
8
0
6
CONTINUOUS
10
18.335593
20
11.750800
30
0.0
11
17.692610
21
11.750799
31
0.0
0
LINE
8
0
6
CONTINUOUS
10
18.921375
20
11.750799
30
0.0
11
18.335593
21
11.750800
31
0.0
0
LINE
8
0
6
CONTINUOUS
10
19.436553
20
11.750801
30
0.0
11
18.921375
21
11.750799
31
0.0
0
LINE
8
0
6
CONTINUOUS
10
19.859519
20
11.750800
30
0.0
11
19.436553
21
11.750801
31
0.0
0
LINE
8
0
6
CONTINUOUS
10
20.167038
20
11.750801
30
0.0
11
19.859519
21
11.750800
31
0.0
0
LINE
8
0
6
CONTINUOUS
10
20.358505
20
11.750801
30
0.0
11
20.167038
21
11.750801
31
0.0
0
LINE
8
0
6
CONTINUOUS
10
20.420508
20
11.750802
30
0.0
11
20.358505
21
11.750801
31
0.0
0
LINE
8
0
6
CONTINUOUS
10
20.348639
20
11.750803
30
0.0
11
20.420508
21
11.750802
31
0.0
0
LINE
8
0
6
CONTINUOUS
10
20.155871
20
11.750803
30
0.0
11
20.348639
21
11.750803
31
0.0
0
LINE
8
0
6
CONTINUOUS
10
19.838378
20
11.750803
30
0.0
11
20.155871
21
11.750803
31
0.0
0
LINE
8
0
6
CONTINUOUS
10
19.415271
20
11.750804
30
0.0
11
19.838378
21
11.750803
31
0.0
0
LINE
8
0
6
CONTINUOUS
10
18.906550
20
11.750805
30
0.0
11
19.415271
21
11.750804
31
0.0
0
LINE
8
0
6
CONTINUOUS
10
18.316298
20
11.750805
30
0.0
11
18.906550
21
11.750805
31
0.0
0
LINE
8
0
6
CONTINUOUS
10
17.685137
20
11.750805
30
0.0
11
18.316298
21
11.750805
31
0.0
0
LINE
8
0
6
CONTINUOUS
10
17.030940
20
11.750806
30
0.0
11
17.685137
21
11.750805
31
0.0
0
LINE
8
0
6
CONTINUOUS
10
16.363425
20
11.750806
30
0.0
11
17.030940
21
11.750806
31
0.0
0
LINE
8
0
6
CONTINUOUS
10
15.734038
20
11.750805
30
0.0
11
16.363425
21
11.750806
31
0.0
0
LINE
8
0
6
CONTINUOUS
10
15.151714
20
11.750805
30
0.0
11
15.734038
21
11.750805
31
0.0
0
LINE
8
0
6
CONTINUOUS
10
14.632468
20
11.750804
30
0.0
11
15.151714
21
11.750805
31
0.0
0
LINE
8
0
6
CONTINUOUS
10
14.210289
20
11.750804
30
0.0
11
14.632468
21
11.750804
31
0.0
0
LINE
8
0
6
CONTINUOUS
10
13.895626
20
11.750803
30
0.0
11
14.210289
21
11.750804
31
0.0
0
LINE
8
0
6
CONTINUOUS
10
13.694721
20
11.750805
30
0.0
11
13.895626
21
11.750803
31
0.0
0
LINE
8
0
6
CONTINUOUS
10
13.627746
20
11.750802
30
0.0
11
13.694721
21
11.750805
31
0.0
0
LINE
8
0
6
CONTINUOUS
10
13.690516
20
11.750801
30
0.0
11
13.627746
21
11.750802
31
0.0
0
LINE
8
0
6
CONTINUOUS
10
13.876883
20
11.750801
30
0.0
11
13.690516
21
11.750801
31
0.0
0
LINE
8
0
6
CONTINUOUS
10
14.192641
20
11.750800
30
0.0
11
13.876883
21
11.750801
31
0.0
0
LINE
8
0
6
CONTINUOUS
10
14.615680
20
11.750800
30
0.0
11
14.192641
21
11.750800
31
0.0
0
LINE
8
0
6
CONTINUOUS
10
15.128775
20
11.750799
30
0.0
11
14.615680
21
11.750800
31
0.0
0
LINE
8
0
6
CONTINUOUS
10
15.722622
20
11.750799
30
0.0
11
15.128775
21
11.750799
31
0.0
0
LINE
8
0
6
CONTINUOUS
10
16.362815
20
11.750800
30
0.0
11
15.722622
21
11.750799
31
0.0
0
LINE
8
0
6
CONTINUOUS
10
17.026893
20
11.750799
30
0.0
11
16.362815
21
11.750800
31
0.0
0
LINE
8
0
6
CONTINUOUS
10
13.677100
20
9.440211
30
0.0
11
13.627750
21
9.552758
31
0.0
0
LINE
8
0
6
CONTINUOUS
10
20.381804
20
9.448094
30
0.0
11
20.420508
21
9.552758
31
0.0
0
LINE
8
0
6
CONTINUOUS
10
18.236617
20
7.300807
30
0.0
11
18.336166
21
7.300807
31
0.0
0
LINE
8
0
6
CONTINUOUS
10
16.527977
20
7.300806
30
0.0
11
17.028426
21
7.300806
31
0.0
0
LINE
8
0
6
CONTINUOUS
10
15.820231
20
7.300806
30
0.0
11
16.103713
21
7.300806
31
0.0
0
LINE
8
0
6
CONTINUOUS
10
17.028426
20
7.300806
30
0.0
11
17.528877
21
7.300807
31
0.0
0
LINE
8
0
6
CONTINUOUS
10
17.953135
20
7.300807
30
0.0
11
18.236617
21
7.300807
31
0.0
0
LINE
8
0
6
CONTINUOUS
10
18.378999
20
9.284758
30
0.0
11
18.374119
21
9.058703
31
0.0
0
LINE
8
0
6
CONTINUOUS
10
18.341563
20
7.550787
30
0.0
11
18.336166
21
7.300807
31
0.0
0
LINE
8
0
6
CONTINUOUS
10
15.720686
20
7.300806
30
0.0
11
15.820231
21
7.300806
31
0.0
0
LINE
8
0
6
CONTINUOUS
10
15.671290
20
9.284356
30
0.0
11
15.676909
21
9.058703
31
0.0
0
LINE
8
0
6
CONTINUOUS
10
15.714461
20
7.550787
30
0.0
11
15.720686
21
7.300806
31
0.0
0
LINE
8
0
6
CONTINUOUS
10
16.103713
20
7.300806
30
0.0
11
16.527977
21
7.300806
31
0.0
0
LINE
8
0
6
CONTINUOUS
10
16.978217
20
1.931969
30
0.0
11
17.935744
21
1.944656
31
0.0
0
LINE
8
0
6
CONTINUOUS
10
15.436195
20
6.892089
30
0.0
11
15.452026
21
7.246143
31
0.0
0
LINE
8
0
6
CONTINUOUS
10
17.028601
20
9.435103
30
0.0
11
16.374152
21
9.435098
31
0.0
0
LINE
8
0
6
CONTINUOUS
10
16.374152
20
9.435098
30
0.0
11
15.744701
21
9.434010
31
0.0
0
LINE
8
0
6
CONTINUOUS
10
15.744701
20
9.434010
30
0.0
11
15.165641
21
9.435018
31
0.0
0
LINE
8
0
6
CONTINUOUS
10
15.165641
20
9.435018
30
0.0
11
14.657607
21
9.436217
31
0.0
0
LINE
8
0
6
CONTINUOUS
10
14.657607
20
9.436217
30
0.0
11
14.240535
21
9.436305
31
0.0
0
LINE
8
0
6
CONTINUOUS
10
14.240535
20
9.436305
30
0.0
11
13.931228
21
9.437087
31
0.0
0
LINE
8
0
6
CONTINUOUS
10
13.931228
20
9.437087
30
0.0
11
13.741156
21
9.439285
31
0.0
0
LINE
8
0
6
CONTINUOUS
10
13.741156
20
9.439285
30
0.0
11
13.677100
21
9.440211
31
0.0
0
LINE
8
0
6
CONTINUOUS
10
13.835539
20
9.427828
30
0.0
11
13.677100
21
9.440211
31
0.0
0
LINE
8
0
6
CONTINUOUS
10
20.381804
20
9.448094
30
0.0
11
20.319624
21
9.446120
31
0.0
0
LINE
8
0
6
CONTINUOUS
10
20.223201
20
9.435159
30
0.0
11
20.381804
21
9.448094
31
0.0
0
LINE
8
0
6
CONTINUOUS
10
20.319624
20
9.446120
30
0.0
11
20.129538
21
9.445266
31
0.0
0
LINE
8
0
6
CONTINUOUS
10
20.129538
20
9.445266
30
0.0
11
19.815161
21
9.439264
31
0.0
0
LINE
8
0
6
CONTINUOUS
10
19.815161
20
9.439264
30
0.0
11
19.399153
21
9.437403
31
0.0
0
LINE
8
0
6
CONTINUOUS
10
19.399153
20
9.437403
30
0.0
11
18.890990
21
9.437421
31
0.0
0
LINE
8
0
6
CONTINUOUS
10
18.890990
20
9.437421
30
0.0
11
18.311362
21
9.436244
31
0.0
0
LINE
8
0
6
CONTINUOUS
10
18.311362
20
9.436244
30
0.0
11
17.683131
21
9.434061
31
0.0
0
LINE
8
0
6
CONTINUOUS
10
17.683131
20
9.434061
30
0.0
11
17.028601
21
9.435103
31
0.0
0
LINE
8
0
6
CONTINUOUS
10
17.528877
20
7.300807
30
0.0
11
17.953135
21
7.300807
31
0.0
0
LINE
8
0
6
CONTINUOUS
10
9.503325
20
1.901643
30
0.0
11
16.218799
21
1.928815
31
0.0
0
LINE
8
0
6
CONTINUOUS
10
17.935744
20
1.944656
30
0.0
11
20.076483
21
1.971229
31
0.0
0
LINE
8
0
6
CONTINUOUS
10
20.076483
20
5.714378
30
0.0
11
19.214625
21
5.724170
31
0.0
0
LINE
8
0
6
CONTINUOUS
10
16.218799
20
1.928815
30
0.0
11
16.978217
21
1.931969
31
0.0
0
LINE
8
0
6
CONTINUOUS
10
18.614459
20
6.052622
30
0.0
11
18.593916
21
7.246031
31
0.0
0
LINE
8
0
6
CONTINUOUS
10
18.614459
20
6.052622
30
0.0
11
18.734206
21
5.823702
31
0.0
0
LINE
8
0
6
CONTINUOUS
10
15.436195
20
6.892089
30
0.0
11
15.320262
21
6.687106
31
0.0
0
LINE
8
0
6
CONTINUOUS
10
18.951431
20
5.750661
30
0.0
11
19.214625
21
5.724170
31
0.0
0
LINE
8
0
6
CONTINUOUS
10
18.702709
20
5.846933
30
0.0
11
18.565223
21
5.803281
31
0.0
0
LINE
8
0
6
CONTINUOUS
10
18.951431
20
5.750661
30
0.0
11
18.702709
21
5.846933
31
0.0
0
LINE
8
0
6
CONTINUOUS
10
18.565223
20
5.803281
30
0.0
11
18.339880
21
5.707572
31
0.0
0
LINE
8
0
6
CONTINUOUS
10
18.339880
20
5.707572
30
0.0
11
18.005836
21
5.602356
31
0.0
0
LINE
8
0
6
CONTINUOUS
10
15.094664
20
6.660039
30
0.0
11
15.023356
21
6.650934
31
0.0
0
LINE
8
0
6
CONTINUOUS
10
15.399939
20
6.772106
30
0.0
11
15.095633
21
6.599261
31
0.0
0
LINE
8
0
6
CONTINUOUS
10
15.368953
20
6.508379
30
0.0
11
15.320262
21
6.687106
31
0.0
0
LINE
8
0
6
CONTINUOUS
10
15.498335
20
6.218492
30
0.0
11
15.368953
21
6.508379
31
0.0
0
LINE
8
0
6
CONTINUOUS
10
15.694884
20
5.876771
30
0.0
11
15.498335
21
6.218492
31
0.0
0
LINE
8
0
6
CONTINUOUS
10
16.028499
20
5.575938
30
0.0
11
15.694884
21
5.876771
31
0.0
0
LINE
8
0
6
CONTINUOUS
10
15.452026
20
7.246143
30
0.0
11
15.452835
21
7.299808
31
0.0
0
LINE
8
0
6
CONTINUOUS
10
18.593916
20
7.246031
30
0.0
11
18.593505
21
7.299727
31
0.0
0
LINE
8
0
6
CONTINUOUS
10
20.076483
20
1.971229
30
0.0
11
20.102478
21
1.971398
31
0.0
0
LINE
8
0
6
CONTINUOUS
10
20.102370
20
5.714315
30
0.0
11
20.076483
21
5.714378
31
0.0
0
LINE
8
0
6
CONTINUOUS
10
20.180441
20
1.971909
30
0.0
11
22.632215
21
2.000267
31
0.0
0
LINE
8
0
6
CONTINUOUS
10
20.154452
20
1.971739
30
0.0
11
20.180441
21
1.971909
31
0.0
0
LINE
8
0
6
CONTINUOUS
10
20.128455
20
2.075289
30
0.0
11
20.154452
21
1.971739
31
0.0
0
LINE
8
0
6
CONTINUOUS
10
20.154452
20
1.971739
30
0.0
11
20.154434
21
2.039529
31
0.0
0
LINE
8
0
6
CONTINUOUS
10
20.102478
20
1.971398
30
0.0
11
20.128455
21
2.075289
31
0.0
0
LINE
8
0
6
CONTINUOUS
10
20.102469
20
2.039212
30
0.0
11
20.102478
21
1.971398
31
0.0
0
LINE
8
0
6
CONTINUOUS
10
20.128455
20
2.075289
30
0.0
11
20.128443
21
2.139368
31
0.0
0
LINE
8
0
6
CONTINUOUS
10
20.154434
20
2.039529
30
0.0
11
20.154983
21
2.228205
31
0.0
0
LINE
8
0
6
CONTINUOUS
10
20.102653
20
2.227994
30
0.0
11
20.102469
21
2.039212
31
0.0
0
LINE
8
0
6
CONTINUOUS
10
20.128443
20
2.139368
30
0.0
11
20.128791
21
2.317735
31
0.0
0
LINE
8
0
6
CONTINUOUS
10
20.154983
20
2.228205
30
0.0
11
20.154468
21
2.534471
31
0.0
0
LINE
8
0
6
CONTINUOUS
10
20.102478
20
2.534287
30
0.0
11
20.102653
21
2.227994
31
0.0
0
LINE
8
0
6
CONTINUOUS
10
20.128791
20
2.317735
30
0.0
11
20.128466
21
2.607202
31
0.0
0
LINE
8
0
6
CONTINUOUS
10
20.154468
20
2.534471
30
0.0
11
20.154289
21
2.933291
31
0.0
0
LINE
8
0
6
CONTINUOUS
10
20.102420
20
2.933145
30
0.0
11
20.102478
21
2.534287
31
0.0
0
LINE
8
0
6
CONTINUOUS
10
20.128466
20
2.607202
30
0.0
11
20.128356
21
2.984143
31
0.0
0
LINE
8
0
6
CONTINUOUS
10
20.154289
20
2.933291
30
0.0
11
20.154220
21
3.392716
31
0.0
0
LINE
8
0
6
CONTINUOUS
10
20.102397
20
3.392652
30
0.0
11
20.102420
21
2.933145
31
0.0
0
LINE
8
0
6
CONTINUOUS
10
20.128356
20
2.984143
30
0.0
11
20.128310
21
3.418384
31
0.0
0
LINE
8
0
6
CONTINUOUS
10
20.154220
20
3.392716
30
0.0
11
20.154158
21
3.880845
31
0.0
0
LINE
8
0
6
CONTINUOUS
10
20.102377
20
3.880850
30
0.0
11
20.102397
21
3.392652
31
0.0
0
LINE
8
0
6
CONTINUOUS
10
20.128310
20
3.418384
30
0.0
11
20.128272
21
3.879747
31
0.0
0
LINE
8
0
6
CONTINUOUS
10
20.154158
20
3.880845
30
0.0
11
20.154154
21
4.365552
31
0.0
0
LINE
8
0
6
CONTINUOUS
10
20.102370
20
4.365620
30
0.0
11
20.102377
21
3.880850
31
0.0
0
LINE
8
0
6
CONTINUOUS
10
20.128272
20
3.879747
30
0.0
11
20.128268
21
4.337872
31
0.0
0
LINE
8
0
6
CONTINUOUS
10
20.154154
20
4.365552
30
0.0
11
20.154154
21
4.810786
31
0.0
0
LINE
8
0
6
CONTINUOUS
10
20.102370
20
4.810916
30
0.0
11
20.102370
21
4.365620
31
0.0
0
LINE
8
0
6
CONTINUOUS
10
20.128268
20
4.337872
30
0.0
11
20.128268
21
4.758693
31
0.0
0
LINE
8
0
6
CONTINUOUS
10
20.154154
20
4.810786
30
0.0
11
20.154154
21
5.187900
31
0.0
0
LINE
8
0
6
CONTINUOUS
10
20.102370
20
5.188045
30
0.0
11
20.102370
21
4.810916
31
0.0
0
LINE
8
0
6
CONTINUOUS
10
20.128268
20
4.758693
30
0.0
11
20.128268
21
5.115110
31
0.0
0
LINE
8
0
6
CONTINUOUS
10
20.154154
20
5.187900
30
0.0
11
20.154154
21
5.480609
31
0.0
0
LINE
8
0
6
CONTINUOUS
10
20.102370
20
5.480794
30
0.0
11
20.102370
21
5.188045
31
0.0
0
LINE
8
0
6
CONTINUOUS
10
20.128268
20
5.115110
30
0.0
11
20.128268
21
5.391767
31
0.0
0
LINE
8
0
6
CONTINUOUS
10
20.180041
20
5.714128
30
0.0
11
20.154154
21
5.714190
31
0.0
0
LINE
8
0
6
CONTINUOUS
10
20.154154
20
5.714190
30
0.0
11
20.128268
21
5.612497
31
0.0
0
LINE
8
0
6
CONTINUOUS
10
20.154154
20
5.649477
30
0.0
11
20.154154
21
5.714190
31
0.0
0
LINE
8
0
6
CONTINUOUS
10
20.102370
20
5.714315
30
0.0
11
20.102370
21
5.649588
31
0.0
0
LINE
8
0
6
CONTINUOUS
10
20.128268
20
5.612497
30
0.0
11
20.102370
21
5.714315
31
0.0
0
LINE
8
0
6
CONTINUOUS
10
20.128268
20
5.551330
30
0.0
11
20.128268
21
5.612497
31
0.0
0
LINE
8
0
6
CONTINUOUS
10
20.154154
20
5.480609
30
0.0
11
20.154154
21
5.649477
31
0.0
0
LINE
8
0
6
CONTINUOUS
10
20.102370
20
5.649588
30
0.0
11
20.102370
21
5.480794
31
0.0
0
LINE
8
0
6
CONTINUOUS
10
20.128268
20
5.391767
30
0.0
11
20.128268
21
5.551330
31
0.0
0
LINE
8
0
6
CONTINUOUS
10
24.688933
20
5.694913
30
0.0
11
24.608001
21
5.695258
31
0.0
0
LINE
8
0
6
CONTINUOUS
10
20.180041
20
5.714128
30
0.0
11
24.608001
21
5.695258
31
0.0
0
LINE
8
0
6
CONTINUOUS
10
17.026893
20
11.750799
30
0.0
11
16.362815
21
11.750800
31
0.0
0
LINE
8
0
6
CONTINUOUS
10
16.362815
20
11.750800
30
0.0
11
15.722622
21
11.750799
31
0.0
0
LINE
8
0
6
CONTINUOUS
10
15.722622
20
11.750799
30
0.0
11
15.128775
21
11.750799
31
0.0
0
LINE
8
0
6
CONTINUOUS
10
15.128775
20
11.750799
30
0.0
11
14.615680
21
11.750800
31
0.0
0
LINE
8
0
6
CONTINUOUS
10
14.615680
20
11.750800
30
0.0
11
14.192641
21
11.750800
31
0.0
0
LINE
8
0
6
CONTINUOUS
10
14.192641
20
11.750800
30
0.0
11
13.876883
21
11.750801
31
0.0
0
LINE
8
0
6
CONTINUOUS
10
13.876883
20
11.750801
30
0.0
11
13.690516
21
11.750801
31
0.0
0
LINE
8
0
6
CONTINUOUS
10
13.690516
20
11.750801
30
0.0
11
13.627746
21
11.750802
31
0.0
0
LINE
8
0
6
CONTINUOUS
10
13.627750
20
9.616951
30
0.0
11
13.627746
21
11.750802
31
0.0
0
LINE
8
0
6
CONTINUOUS
10
13.627746
20
11.750802
30
0.0
11
13.694721
21
11.750805
31
0.0
0
LINE
8
0
6
CONTINUOUS
10
13.694721
20
11.750805
30
0.0
11
13.895626
21
11.750803
31
0.0
0
LINE
8
0
6
CONTINUOUS
10
13.895626
20
11.750803
30
0.0
11
14.210289
21
11.750804
31
0.0
0
LINE
8
0
6
CONTINUOUS
10
14.210289
20
11.750804
30
0.0
11
14.632468
21
11.750804
31
0.0
0
LINE
8
0
6
CONTINUOUS
10
14.632468
20
11.750804
30
0.0
11
15.151714
21
11.750805
31
0.0
0
LINE
8
0
6
CONTINUOUS
10
15.151714
20
11.750805
30
0.0
11
15.734038
21
11.750805
31
0.0
0
LINE
8
0
6
CONTINUOUS
10
15.734038
20
11.750805
30
0.0
11
16.363425
21
11.750806
31
0.0
0
LINE
8
0
6
CONTINUOUS
10
16.363425
20
11.750806
30
0.0
11
17.030940
21
11.750806
31
0.0
0
LINE
8
0
6
CONTINUOUS
10
17.030940
20
11.750806
30
0.0
11
17.685137
21
11.750805
31
0.0
0
LINE
8
0
6
CONTINUOUS
10
17.685137
20
11.750805
30
0.0
11
18.316298
21
11.750805
31
0.0
0
LINE
8
0
6
CONTINUOUS
10
18.316298
20
11.750805
30
0.0
11
18.906550
21
11.750805
31
0.0
0
LINE
8
0
6
CONTINUOUS
10
18.906550
20
11.750805
30
0.0
11
19.415271
21
11.750804
31
0.0
0
LINE
8
0
6
CONTINUOUS
10
19.415271
20
11.750804
30
0.0
11
19.838378
21
11.750803
31
0.0
0
LINE
8
0
6
CONTINUOUS
10
19.838378
20
11.750803
30
0.0
11
20.155871
21
11.750803
31
0.0
0
LINE
8
0
6
CONTINUOUS
10
20.155871
20
11.750803
30
0.0
11
20.348639
21
11.750803
31
0.0
0
LINE
8
0
6
CONTINUOUS
10
20.348639
20
11.750803
30
0.0
11
20.420508
21
11.750802
31
0.0
0
LINE
8
0
6
CONTINUOUS
10
20.420508
20
9.616951
30
0.0
11
20.420508
21
11.750802
31
0.0
0
LINE
8
0
6
CONTINUOUS
10
20.420508
20
11.750802
30
0.0
11
20.358505
21
11.750801
31
0.0
0
LINE
8
0
6
CONTINUOUS
10
20.358505
20
11.750801
30
0.0
11
20.167038
21
11.750801
31
0.0
0
LINE
8
0
6
CONTINUOUS
10
20.167038
20
11.750801
30
0.0
11
19.859519
21
11.750800
31
0.0
0
LINE
8
0
6
CONTINUOUS
10
19.859519
20
11.750800
30
0.0
11
19.436553
21
11.750801
31
0.0
0
LINE
8
0
6
CONTINUOUS
10
19.436553
20
11.750801
30
0.0
11
18.921375
21
11.750799
31
0.0
0
LINE
8
0
6
CONTINUOUS
10
18.921375
20
11.750799
30
0.0
11
18.335593
21
11.750800
31
0.0
0
LINE
8
0
6
CONTINUOUS
10
17.692610
20
11.750799
30
0.0
11
17.026893
21
11.750799
31
0.0
0
LINE
8
0
6
CONTINUOUS
10
18.335593
20
11.750800
30
0.0
11
17.692610
21
11.750799
31
0.0
0
LINE
8
0
6
CONTINUOUS
10
15.671290
20
9.284356
30
0.0
11
13.835539
21
9.427828
31
0.0
0
LINE
8
0
6
CONTINUOUS
10
18.378999
20
9.284758
30
0.0
11
20.223201
21
9.435159
31
0.0
0
LINE
8
0
6
CONTINUOUS
10
18.550521
20
7.299809
30
0.0
11
18.593505
21
7.299727
31
0.0
0
LINE
8
0
6
CONTINUOUS
10
15.496974
20
7.299880
30
0.0
11
15.655303
21
7.299937
31
0.0
0
LINE
8
0
6
CONTINUOUS
10
15.655303
20
7.299937
30
0.0
11
15.904296
21
7.299991
31
0.0
0
LINE
8
0
6
CONTINUOUS
10
15.904296
20
7.299991
30
0.0
11
16.231192
21
7.299918
31
0.0
0
LINE
8
0
6
CONTINUOUS
10
16.231192
20
7.299918
30
0.0
11
16.616649
21
7.299930
31
0.0
0
LINE
8
0
6
CONTINUOUS
10
16.616649
20
7.299930
30
0.0
11
17.030127
21
7.300037
31
0.0
0
LINE
8
0
6
CONTINUOUS
10
15.452835
20
7.299808
30
0.0
11
15.496974
21
7.299880
31
0.0
0
LINE
8
0
6
CONTINUOUS
10
18.393783
20
7.299820
30
0.0
11
18.550521
21
7.299809
31
0.0
0
LINE
8
0
6
CONTINUOUS
10
18.147810
20
7.299894
30
0.0
11
18.393783
21
7.299820
31
0.0
0
LINE
8
0
6
CONTINUOUS
10
17.822695
20
7.299870
30
0.0
11
18.147810
21
7.299894
31
0.0
0
LINE
8
0
6
CONTINUOUS
10
17.439597
20
7.299960
30
0.0
11
17.822695
21
7.299870
31
0.0
0
LINE
8
0
6
CONTINUOUS
10
17.030127
20
7.300037
30
0.0
11
17.439597
21
7.299960
31
0.0
0
LINE
8
0
6
CONTINUOUS
10
24.688933
20
2.562718
30
0.0
11
24.688933
21
2.553363
31
0.0
0
LINE
8
0
6
CONTINUOUS
10
24.688933
20
2.955928
30
0.0
11
24.688933
21
2.562718
31
0.0
0
LINE
8
0
6
CONTINUOUS
10
24.688933
20
3.402869
30
0.0
11
24.688933
21
2.955928
31
0.0
0
LINE
8
0
6
CONTINUOUS
10
24.688933
20
3.880110
30
0.0
11
24.688933
21
3.402869
31
0.0
0
LINE
8
0
6
CONTINUOUS
10
24.688933
20
4.355199
30
0.0
11
24.688933
21
3.880110
31
0.0
0
LINE
8
0
6
CONTINUOUS
10
24.688933
20
4.790692
30
0.0
11
24.688933
21
4.355199
31
0.0
0
LINE
8
0
6
CONTINUOUS
10
24.688933
20
5.165386
30
0.0
11
24.688933
21
4.790692
31
0.0
0
LINE
8
0
6
CONTINUOUS
10
24.688933
20
5.452008
30
0.0
11
24.688933
21
5.165386
31
0.0
0
LINE
8
0
6
CONTINUOUS
10
24.688933
20
5.632338
30
0.0
11
24.688933
21
5.452008
31
0.0
0
LINE
8
0
6
CONTINUOUS
10
24.688933
20
5.694913
30
0.0
11
24.688933
21
5.632338
31
0.0
0
LINE
8
0
6
CONTINUOUS
10
24.712138
20
2.608202
30
0.0
11
24.688933
21
2.608096
31
0.0
0
LINE
8
0
6
CONTINUOUS
10
22.637152
20
1.337776
30
0.0
11
22.693339
21
1.338675
31
0.0
0
LINE
8
0
6
CONTINUOUS
10
24.664275
20
1.370641
30
0.0
11
24.718783
21
1.371077
31
0.0
0
LINE
8
0
6
CONTINUOUS
10
22.693339
20
1.338675
30
0.0
11
24.664275
21
1.370641
31
0.0
0
LINE
8
0
6
CONTINUOUS
10
22.637152
20
1.337776
30
0.0
11
22.637226
21
1.389540
31
0.0
0
LINE
8
0
6
CONTINUOUS
10
22.636840
20
1.512534
30
0.0
11
22.636137
21
1.653421
31
0.0
0
LINE
8
0
6
CONTINUOUS
10
22.636137
20
1.653421
30
0.0
11
22.635284
21
1.786221
31
0.0
0
LINE
8
0
6
CONTINUOUS
10
22.630607
20
2.241614
30
0.0
11
22.635894
21
1.448468
31
0.0
0
LINE
8
0
6
CONTINUOUS
10
22.635284
20
1.786221
30
0.0
11
22.630001
21
2.579362
31
0.0
0
LINE
8
0
6
CONTINUOUS
10
22.637226
20
1.389540
30
0.0
11
22.636840
21
1.512534
31
0.0
0
LINE
8
0
6
CONTINUOUS
10
24.719016
20
1.423567
30
0.0
11
24.718783
21
1.371077
31
0.0
0
LINE
8
0
6
CONTINUOUS
10
24.718235
20
1.682069
30
0.0
11
24.718817
21
1.540649
31
0.0
0
LINE
8
0
6
CONTINUOUS
10
24.717425
20
1.815061
30
0.0
11
24.718235
21
1.682069
31
0.0
0
LINE
8
0
6
CONTINUOUS
10
24.712138
20
2.608202
30
0.0
11
24.717425
21
1.815061
31
0.0
0
LINE
8
0
6
CONTINUOUS
10
24.718817
20
1.540649
30
0.0
11
24.719016
21
1.423567
31
0.0
0
LINE
8
0
6
CONTINUOUS
10
3.983294
20
6.650934
30
0.0
11
9.503325
21
6.650834
31
0.0
0
LINE
8
0
6
CONTINUOUS
10
9.503325
20
6.650802
30
0.0
11
3.912000
21
6.660037
31
0.0
0
LINE
8
0
6
CONTINUOUS
10
1.416667
20
7.625262
30
0.0
11
1.456054
21
7.618063
31
0.0
0
LINE
8
0
6
CONTINUOUS
10
1.824100
20
7.550787
30
0.0
11
1.456054
21
7.618063
31
0.0
0
LINE
8
0
6
CONTINUOUS
10
3.000337
20
7.625262
30
0.0
11
2.528481
21
7.632982
31
0.0
0
LINE
8
0
6
CONTINUOUS
10
3.000337
20
7.625262
30
0.0
11
3.020030
21
7.618063
31
0.0
0
LINE
8
0
6
CONTINUOUS
10
2.487197
20
7.625037
30
0.0
11
2.528481
21
7.632982
31
0.0
0
LINE
8
0
6
CONTINUOUS
10
2.487197
20
7.625037
30
0.0
11
2.101407
21
7.550787
31
0.0
0
LINE
8
0
6
CONTINUOUS
10
3.204053
20
7.550787
30
0.0
11
3.020030
21
7.618063
31
0.0
0
LINE
8
0
6
CONTINUOUS
10
3.204053
20
7.550787
30
0.0
11
2.101407
21
7.550787
31
0.0
0
LINE
8
0
6
CONTINUOUS
10
3.546670
20
7.625262
30
0.0
11
3.556491
21
7.632982
31
0.0
0
LINE
8
0
6
CONTINUOUS
10
3.546670
20
7.625262
30
0.0
11
3.526976
21
7.618063
31
0.0
0
LINE
8
0
6
CONTINUOUS
10
3.535850
20
7.625037
30
0.0
11
3.556491
21
7.632982
31
0.0
0
LINE
8
0
6
CONTINUOUS
10
3.556491
20
7.632982
30
0.0
11
3.556491
21
7.668392
31
0.0
0
LINE
8
0
6
CONTINUOUS
10
3.535850
20
7.625037
30
0.0
11
3.342956
21
7.550787
31
0.0
0
LINE
8
0
6
CONTINUOUS
10
3.526976
20
7.618063
30
0.0
11
3.342956
21
7.550787
31
0.0
0
LINE
8
0
6
CONTINUOUS
10
3.556492
20
8.304745
30
0.0
11
3.556491
21
7.668392
31
0.0
0
LINE
8
0
6
CONTINUOUS
10
2.101407
20
7.550787
30
0.0
11
1.824100
21
7.550787
31
0.0
0
LINE
8
0
6
CONTINUOUS
10
3.342956
20
7.550787
30
0.0
11
3.204053
21
7.550787
31
0.0
0
LINE
8
0
6
CONTINUOUS
10
1.456054
20
8.991428
30
0.0
11
1.416667
21
8.984228
31
0.0
0
LINE
8
0
6
CONTINUOUS
10
1.456054
20
8.991428
30
0.0
11
1.812724
21
9.056624
31
0.0
0
LINE
8
0
6
CONTINUOUS
10
1.812724
20
9.056624
30
0.0
11
1.824100
21
9.058703
31
0.0
0
LINE
8
0
6
CONTINUOUS
10
0.583048
20
9.058703
30
0.0
11
0.721453
21
9.058703
31
0.0
0
LINE
8
0
6
CONTINUOUS
10
0.721453
20
9.058703
30
0.0
11
1.813001
21
9.058703
31
0.0
0
LINE
8
0
6
CONTINUOUS
10
1.813001
20
9.058703
30
0.0
11
1.824100
21
9.058703
31
0.0
0
LINE
8
0
6
CONTINUOUS
10
2.528481
20
8.976508
30
0.0
11
3.000337
21
8.984228
31
0.0
0
LINE
8
0
6
CONTINUOUS
10
3.020030
20
8.991428
30
0.0
11
3.000337
21
8.984228
31
0.0
0
LINE
8
0
6
CONTINUOUS
10
2.528481
20
8.976508
30
0.0
11
2.487197
21
8.984454
31
0.0
0
LINE
8
0
6
CONTINUOUS
10
3.020030
20
8.991428
30
0.0
11
3.204053
21
9.058703
31
0.0
0
LINE
8
0
6
CONTINUOUS
10
2.101407
20
9.058703
30
0.0
11
2.487197
21
8.984454
31
0.0
0
LINE
8
0
6
CONTINUOUS
10
2.101407
20
9.058703
30
0.0
11
3.204053
21
9.058703
31
0.0
0
LINE
8
0
6
CONTINUOUS
10
3.556491
20
8.976508
30
0.0
11
3.546670
21
8.984228
31
0.0
0
LINE
8
0
6
CONTINUOUS
10
3.526976
20
8.991428
30
0.0
11
3.546670
21
8.984228
31
0.0
0
LINE
8
0
6
CONTINUOUS
10
3.556491
20
8.941098
30
0.0
11
3.556491
21
8.976508
31
0.0
0
LINE
8
0
6
CONTINUOUS
10
3.556491
20
8.976508
30
0.0
11
3.535850
21
8.984454
31
0.0
0
LINE
8
0
6
CONTINUOUS
10
3.526976
20
8.991428
30
0.0
11
3.342956
21
9.058703
31
0.0
0
LINE
8
0
6
CONTINUOUS
10
3.342956
20
9.058703
30
0.0
11
3.535850
21
8.984454
31
0.0
0
LINE
8
0
6
CONTINUOUS
10
3.556491
20
8.941098
30
0.0
11
3.556492
21
8.304745
31
0.0
0
LINE
8
0
6
CONTINUOUS
10
1.824100
20
9.058703
30
0.0
11
2.101407
21
9.058703
31
0.0
0
LINE
8
0
6
CONTINUOUS
10
3.204053
20
9.058703
30
0.0
11
3.342956
21
9.058703
31
0.0
0
LINE
8
0
6
CONTINUOUS
10
3.342953
20
9.058703
30
0.0
11
3.329744
21
9.058703
31
0.0
0
LINE
8
0
6
CONTINUOUS
10
0.632532
20
9.058703
30
0.0
11
0.583048
21
9.058703
31
0.0
0
LINE
8
0
6
CONTINUOUS
10
18.071661
20
7.632982
30
0.0
11
17.589987
21
7.625262
31
0.0
0
LINE
8
0
6
CONTINUOUS
10
17.550601
20
7.618063
30
0.0
11
17.589987
21
7.625262
31
0.0
0
LINE
8
0
6
CONTINUOUS
10
18.071661
20
7.632982
30
0.0
11
18.092307
21
7.625037
31
0.0
0
LINE
8
0
6
CONTINUOUS
10
17.550601
20
7.618063
30
0.0
11
17.182555
21
7.550787
31
0.0
0
LINE
8
0
6
CONTINUOUS
10
18.285201
20
7.550787
30
0.0
11
18.092307
21
7.625037
31
0.0
0
LINE
8
0
6
CONTINUOUS
10
18.423605
20
7.550787
30
0.0
11
18.285201
21
7.550787
31
0.0
0
LINE
8
0
6
CONTINUOUS
10
18.285201
20
7.550787
30
0.0
11
17.182555
21
7.550787
31
0.0
0
LINE
8
0
6
CONTINUOUS
10
16.478171
20
7.632982
30
0.0
11
16.519458
21
7.625037
31
0.0
0
LINE
8
0
6
CONTINUOUS
10
16.905250
20
7.550787
30
0.0
11
16.893950
21
7.552962
31
0.0
0
LINE
8
0
6
CONTINUOUS
10
16.893950
20
7.552962
30
0.0
11
16.519458
21
7.625037
31
0.0
0
LINE
8
0
6
CONTINUOUS
10
16.905250
20
7.550787
30
0.0
11
16.893652
21
7.550787
31
0.0
0
LINE
8
0
6
CONTINUOUS
10
18.637145
20
7.632982
30
0.0
11
18.627319
21
7.625262
31
0.0
0
LINE
8
0
6
CONTINUOUS
10
18.607626
20
7.618063
30
0.0
11
18.627319
21
7.625262
31
0.0
0
LINE
8
0
6
CONTINUOUS
10
18.637145
20
7.668392
30
0.0
11
18.637145
21
7.632982
31
0.0
0
LINE
8
0
6
CONTINUOUS
10
18.637145
20
7.668392
30
0.0
11
18.637145
21
8.304745
31
0.0
0
LINE
8
0
6
CONTINUOUS
10
17.182555
20
7.550787
30
0.0
11
16.905250
21
7.550787
31
0.0
0
LINE
8
0
6
CONTINUOUS
10
18.607626
20
7.618063
30
0.0
11
18.423605
21
7.550787
31
0.0
0
LINE
8
0
6
CONTINUOUS
10
17.589987
20
8.984228
30
0.0
11
18.071661
21
8.976508
31
0.0
0
LINE
8
0
6
CONTINUOUS
10
17.589987
20
8.984228
30
0.0
11
17.550601
21
8.991428
31
0.0
0
LINE
8
0
6
CONTINUOUS
10
18.092307
20
8.984454
30
0.0
11
18.071661
21
8.976508
31
0.0
0
LINE
8
0
6
CONTINUOUS
10
18.092307
20
8.984454
30
0.0
11
18.285201
21
9.058703
31
0.0
0
LINE
8
0
6
CONTINUOUS
10
17.182555
20
9.058703
30
0.0
11
17.550601
21
8.991428
31
0.0
0
LINE
8
0
6
CONTINUOUS
10
18.285201
20
9.058703
30
0.0
11
18.423605
21
9.058703
31
0.0
0
LINE
8
0
6
CONTINUOUS
10
17.182555
20
9.058703
30
0.0
11
18.285201
21
9.058703
31
0.0
0
LINE
8
0
6
CONTINUOUS
10
16.519458
20
8.984454
30
0.0
11
16.478171
21
8.976508
31
0.0
0
LINE
8
0
6
CONTINUOUS
10
16.519458
20
8.984454
30
0.0
11
16.905250
21
9.058703
31
0.0
0
LINE
8
0
6
CONTINUOUS
10
15.802604
20
9.058703
30
0.0
11
16.905250
21
9.058703
31
0.0
0
LINE
8
0
6
CONTINUOUS
10
18.627319
20
8.984228
30
0.0
11
18.637145
21
8.976508
31
0.0
0
LINE
8
0
6
CONTINUOUS
10
18.627319
20
8.984228
30
0.0
11
18.607626
21
8.991428
31
0.0
0
LINE
8
0
6
CONTINUOUS
10
18.637145
20
8.976508
30
0.0
11
18.637145
21
8.941098
31
0.0
0
LINE
8
0
6
CONTINUOUS
10
18.637145
20
8.304745
30
0.0
11
18.637145
21
8.941098
31
0.0
0
LINE
8
0
6
CONTINUOUS
10
16.905250
20
9.058703
30
0.0
11
17.182555
21
9.058703
31
0.0
0
LINE
8
0
6
CONTINUOUS
10
15.663699
20
9.058703
30
0.0
11
15.802604
21
9.058703
31
0.0
0
LINE
8
0
6
CONTINUOUS
10
15.676909
20
9.058703
30
0.0
11
15.663703
21
9.058703
31
0.0
0
LINE
8
0
6
CONTINUOUS
10
18.423605
20
9.058703
30
0.0
11
18.607626
21
8.991428
31
0.0
0
LINE
8
0
6
CONTINUOUS
10
18.423605
20
9.058703
30
0.0
11
18.374119
21
9.058703
31
0.0
0
LINE
8
0
6
CONTINUOUS
10
-12.017707
20
-7.967792
30
0.0
11
-12.015139
21
-7.954648
31
0.0
0
LINE
8
0
6
CONTINUOUS
10
-12.392386
20
-9.063727
30
0.0
11
-12.017707
21
-7.967792
31
0.0
0
LINE
8
0
6
CONTINUOUS
10
-17.284992
20
-11.750806
30
0.0
11
-15.964250
21
-11.610501
31
0.0
0
LINE
8
0
6
CONTINUOUS
10
-15.964250
20
-11.610501
30
0.0
11
-14.689296
21
-11.192685
31
0.0
0
LINE
8
0
6
CONTINUOUS
10
-14.689296
20
-11.192685
30
0.0
11
-13.567479
21
-10.498481
31
0.0
0
LINE
8
0
6
CONTINUOUS
10
-12.426238
20
-9.130397
30
0.0
11
-12.392386
21
-9.063727
31
0.0
0
LINE
8
0
6
CONTINUOUS
10
-12.916331
20
-9.859548
30
0.0
11
-12.426238
21
-9.130397
31
0.0
0
LINE
8
0
6
CONTINUOUS
10
-13.567479
20
-10.498481
30
0.0
11
-12.916331
21
-9.859548
31
0.0
0
LINE
8
0
6
CONTINUOUS
10
-13.383769
20
-3.456498
30
0.0
11
-13.892764
21
-3.055078
31
0.0
0
LINE
8
0
6
CONTINUOUS
10
-16.283898
20
4.883040
30
0.0
11
-16.581519
21
5.047179
31
0.0
0
LINE
8
0
6
CONTINUOUS
10
-16.011018
20
4.624753
30
0.0
11
-16.043413
21
4.662301
31
0.0
0
LINE
8
0
6
CONTINUOUS
10
-15.770140
20
2.040596
30
0.0
11
-15.931291
21
3.767070
31
0.0
0
LINE
8
0
6
CONTINUOUS
10
-15.784549
20
2.101170
30
0.0
11
-15.661051
21
0.758135
31
0.0
0
LINE
8
0
6
CONTINUOUS
10
-15.644707
20
0.683501
30
0.0
11
-15.770140
21
2.040596
31
0.0
0
LINE
8
0
6
CONTINUOUS
10
-15.661051
20
0.758135
30
0.0
11
-15.561125
21
-0.337980
31
0.0
0
LINE
8
0
6
CONTINUOUS
10
-15.543521
20
-0.426280
30
0.0
11
-15.644707
21
0.683501
31
0.0
0
LINE
8
0
6
CONTINUOUS
10
-15.453858
20
-1.088623
30
0.0
11
-15.543521
21
-0.426280
31
0.0
0
LINE
8
0
6
CONTINUOUS
10
-15.463852
20
-1.062975
30
0.0
11
-15.561125
21
-0.337980
31
0.0
0
LINE
8
0
6
CONTINUOUS
10
-14.850392
20
-2.195408
30
0.0
11
-15.244395
21
-1.626161
31
0.0
0
LINE
8
0
6
CONTINUOUS
10
-11.994784
20
-7.065639
30
0.0
11
-12.375262
21
-8.143180
31
0.0
0
LINE
8
0
6
CONTINUOUS
10
-11.906015
20
-7.124328
30
0.0
11
-11.897705
21
-5.953229
31
0.0
0
LINE
8
0
6
CONTINUOUS
10
-11.945562
20
-7.598565
30
0.0
11
-11.909338
21
-7.164197
31
0.0
0
LINE
8
0
6
CONTINUOUS
10
-11.897705
20
-5.953229
30
0.0
11
-12.261115
21
-4.835864
31
0.0
0
LINE
8
0
6
CONTINUOUS
10
-12.975290
20
-3.857622
30
0.0
11
-12.263833
21
-4.835074
31
0.0
0
LINE
8
0
6
CONTINUOUS
10
-12.261115
20
-4.835864
30
0.0
11
-12.972107
21
-3.843704
31
0.0
0
LINE
8
0
6
CONTINUOUS
10
-12.972107
20
-3.843704
30
0.0
11
-13.383769
21
-3.456498
31
0.0
0
LINE
8
0
6
CONTINUOUS
10
-13.383769
20
-3.456498
30
0.0
11
-12.975290
21
-3.857622
31
0.0
0
LINE
8
0
6
CONTINUOUS
10
-15.978747
20
-10.670068
30
0.0
11
-17.284994
21
-10.789228
31
0.0
0
LINE
8
0
6
CONTINUOUS
10
-14.741842
20
-10.285230
30
0.0
11
-15.978747
21
-10.670068
31
0.0
0
LINE
8
0
6
CONTINUOUS
10
-13.618609
20
-9.611239
30
0.0
11
-14.741842
21
-10.285230
31
0.0
0
LINE
8
0
6
CONTINUOUS
10
-12.375262
20
-8.143180
30
0.0
11
-12.891544
21
-8.901940
31
0.0
0
LINE
8
0
6
CONTINUOUS
10
-12.891544
20
-8.901940
30
0.0
11
-13.618609
21
-9.611239
31
0.0
0
LINE
8
0
6
CONTINUOUS
10
-14.405326
20
-2.622430
30
0.0
11
-14.850392
21
-2.195408
31
0.0
0
LINE
8
0
6
CONTINUOUS
10
-13.892764
20
-3.055078
30
0.0
11
-14.405326
21
-2.622430
31
0.0
0
LINE
8
0
6
CONTINUOUS
10
-15.244395
20
-1.626161
30
0.0
11
-15.463852
21
-1.062975
31
0.0
0
LINE
8
0
6
CONTINUOUS
10
-11.994784
20
-7.065639
30
0.0
11
-11.940682
21
-5.927882
31
0.0
0
LINE
8
0
6
CONTINUOUS
10
-11.940682
20
-5.927882
30
0.0
11
-12.263833
21
-4.835074
31
0.0
0
LINE
8
0
6
CONTINUOUS
10
-11.909338
20
-7.164197
30
0.0
11
-11.906015
21
-7.124328
31
0.0
0
LINE
8
0
6
CONTINUOUS
10
-12.015139
20
-7.954648
30
0.0
11
-11.945562
21
-7.598565
31
0.0
0
LINE
8
0
6
CONTINUOUS
10
-16.581519
20
5.047179
30
0.0
11
-16.925453
21
5.150249
31
0.0
0
LINE
8
0
6
CONTINUOUS
10
-16.925453
20
5.150249
30
0.0
11
-17.284957
21
5.185263
31
0.0
0
LINE
8
0
6
CONTINUOUS
10
-16.043413
20
4.662301
30
0.0
11
-16.283898
21
4.883040
31
0.0
0
LINE
8
0
6
CONTINUOUS
10
-15.931291
20
3.767070
30
0.0
11
-16.004396
21
4.556709
31
0.0
0
LINE
8
0
6
CONTINUOUS
10
-22.552266
20
-7.967786
30
0.0
11
-22.177590
21
-9.063724
31
0.0
0
LINE
8
0
6
CONTINUOUS
10
-22.554832
20
-7.954644
30
0.0
11
-22.552266
21
-7.967786
31
0.0
0
LINE
8
0
6
CONTINUOUS
10
-18.605733
20
-11.610499
30
0.0
11
-17.284992
21
-11.750806
31
0.0
0
LINE
8
0
6
CONTINUOUS
10
-19.880685
20
-11.192683
30
0.0
11
-18.605733
21
-11.610499
31
0.0
0
LINE
8
0
6
CONTINUOUS
10
-21.002500
20
-10.498477
30
0.0
11
-19.880685
21
-11.192683
31
0.0
0
LINE
8
0
6
CONTINUOUS
10
-22.143738
20
-9.130393
30
0.0
11
-21.653647
21
-9.859544
31
0.0
0
LINE
8
0
6
CONTINUOUS
10
-22.177590
20
-9.063724
30
0.0
11
-22.143738
21
-9.130393
31
0.0
0
LINE
8
0
6
CONTINUOUS
10
-21.653647
20
-9.859544
30
0.0
11
-21.002500
21
-10.498477
31
0.0
0
LINE
8
0
6
CONTINUOUS
10
-20.677197
20
-3.055075
30
0.0
11
-21.186194
21
-3.456494
31
0.0
0
LINE
8
0
6
CONTINUOUS
10
-17.988396
20
5.047180
30
0.0
11
-18.286017
21
4.883041
31
0.0
0
LINE
8
0
6
CONTINUOUS
10
-18.526501
20
4.662302
30
0.0
11
-18.558896
21
4.624754
31
0.0
0
LINE
8
0
6
CONTINUOUS
10
-18.638629
20
3.767072
30
0.0
11
-18.799792
21
2.040598
31
0.0
0
LINE
8
0
6
CONTINUOUS
10
-18.799792
20
2.040598
30
0.0
11
-18.925234
21
0.683503
31
0.0
0
LINE
8
0
6
CONTINUOUS
10
-18.908889
20
0.758137
30
0.0
11
-18.785383
21
2.101171
31
0.0
0
LINE
8
0
6
CONTINUOUS
10
-18.925234
20
0.683503
30
0.0
11
-19.026427
21
-0.426278
31
0.0
0
LINE
8
0
6
CONTINUOUS
10
-19.008823
20
-0.337978
30
0.0
11
-18.908889
21
0.758137
31
0.0
0
LINE
8
0
6
CONTINUOUS
10
-19.026427
20
-0.426278
30
0.0
11
-19.116094
21
-1.088620
31
0.0
0
LINE
8
0
6
CONTINUOUS
10
-19.008823
20
-0.337978
30
0.0
11
-19.106100
21
-1.062974
31
0.0
0
LINE
8
0
6
CONTINUOUS
10
-19.325561
20
-1.626159
30
0.0
11
-19.719566
21
-2.195405
31
0.0
0
LINE
8
0
6
CONTINUOUS
10
-22.194718
20
-8.143176
30
0.0
11
-22.575192
21
-7.065633
31
0.0
0
LINE
8
0
6
CONTINUOUS
10
-22.672266
20
-5.953223
30
0.0
11
-22.663961
21
-7.124324
31
0.0
0
LINE
8
0
6
CONTINUOUS
10
-22.660636
20
-7.164191
30
0.0
11
-22.624412
21
-7.598561
31
0.0
0
LINE
8
0
6
CONTINUOUS
10
-22.308852
20
-4.835858
30
0.0
11
-22.672266
21
-5.953223
31
0.0
0
LINE
8
0
6
CONTINUOUS
10
-21.597858
20
-3.843700
30
0.0
11
-22.308852
21
-4.835858
31
0.0
0
LINE
8
0
6
CONTINUOUS
10
-22.306135
20
-4.835069
30
0.0
11
-21.594675
21
-3.857618
31
0.0
0
LINE
8
0
6
CONTINUOUS
10
-21.186194
20
-3.456494
30
0.0
11
-21.597858
21
-3.843700
31
0.0
0
LINE
8
0
6
CONTINUOUS
10
-21.594675
20
-3.857618
30
0.0
11
-21.186194
21
-3.456494
31
0.0
0
LINE
8
0
6
CONTINUOUS
10
-17.284994
20
-10.789228
30
0.0
11
-18.591239
21
-10.670066
31
0.0
0
LINE
8
0
6
CONTINUOUS
10
-18.591239
20
-10.670066
30
0.0
11
-19.828143
21
-10.285228
31
0.0
0
LINE
8
0
6
CONTINUOUS
10
-19.828143
20
-10.285228
30
0.0
11
-20.951375
21
-9.611238
31
0.0
0
LINE
8
0
6
CONTINUOUS
10
-21.678438
20
-8.901937
30
0.0
11
-22.194718
21
-8.143176
31
0.0
0
LINE
8
0
6
CONTINUOUS
10
-20.951375
20
-9.611238
30
0.0
11
-21.678438
21
-8.901937
31
0.0
0
LINE
8
0
6
CONTINUOUS
10
-19.719566
20
-2.195405
30
0.0
11
-20.164634
21
-2.622427
31
0.0
0
LINE
8
0
6
CONTINUOUS
10
-20.164634
20
-2.622427
30
0.0
11
-20.677197
21
-3.055075
31
0.0
0
LINE
8
0
6
CONTINUOUS
10
-19.106100
20
-1.062974
30
0.0
11
-19.325561
21
-1.626159
31
0.0
0
LINE
8
0
6
CONTINUOUS
10
-22.629290
20
-5.927877
30
0.0
11
-22.575192
21
-7.065633
31
0.0
0
LINE
8
0
6
CONTINUOUS
10
-22.306135
20
-4.835069
30
0.0
11
-22.629290
21
-5.927877
31
0.0
0
LINE
8
0
6
CONTINUOUS
10
-22.663961
20
-7.124324
30
0.0
11
-22.660636
21
-7.164191
31
0.0
0
LINE
8
0
6
CONTINUOUS
10
-22.624412
20
-7.598561
30
0.0
11
-22.554832
21
-7.954644
31
0.0
0
LINE
8
0
6
CONTINUOUS
10
-17.644462
20
5.150250
30
0.0
11
-17.988396
21
5.047180
31
0.0
0
LINE
8
0
6
CONTINUOUS
10
-17.284957
20
5.185263
30
0.0
11
-17.644462
21
5.150250
31
0.0
0
LINE
8
0
6
CONTINUOUS
10
-18.286017
20
4.883041
30
0.0
11
-18.526501
21
4.662302
31
0.0
0
LINE
8
0
6
CONTINUOUS
10
-18.565518
20
4.556710
30
0.0
11
-18.638629
21
3.767072
31
0.0
0
LINE
8
0
6
CONTINUOUS
10
-16.159465
20
4.768823
30
0.0
11
-16.257901
21
5.679131
31
0.0
0
LINE
8
0
6
CONTINUOUS
10
-16.396877
20
6.143826
30
0.0
11
-16.453695
21
6.207882
31
0.0
0
LINE
8
0
6
CONTINUOUS
10
-16.257901
20
5.679131
30
0.0
11
-16.260560
21
5.703733
31
0.0
0
LINE
8
0
6
CONTINUOUS
10
-16.260560
20
5.703733
30
0.0
11
-16.295230
21
5.931542
31
0.0
0
LINE
8
0
6
CONTINUOUS
10
-16.295230
20
5.931542
30
0.0
11
-16.396877
21
6.143826
31
0.0
0
LINE
8
0
6
CONTINUOUS
10
-17.759644
20
5.465346
30
0.0
11
-17.637497
21
5.502754
31
0.0
0
LINE
8
0
6
CONTINUOUS
10
-18.327233
20
4.885610
30
0.0
11
-18.293597
21
4.946358
31
0.0
0
LINE
8
0
6
CONTINUOUS
10
-17.278041
20
5.574812
30
0.0
11
-17.261209
21
5.572494
31
0.0
0
LINE
8
0
6
CONTINUOUS
10
-17.637497
20
5.502754
30
0.0
11
-17.572834
21
5.531802
31
0.0
0
LINE
8
0
6
CONTINUOUS
10
-18.271931
20
4.996411
30
0.0
11
-18.119876
21
5.188469
31
0.0
0
LINE
8
0
6
CONTINUOUS
10
-18.293597
20
4.946358
30
0.0
11
-18.271931
21
4.996411
31
0.0
0
LINE
8
0
6
CONTINUOUS
10
-16.703325
20
5.399719
30
0.0
11
-16.639617
21
5.347509
31
0.0
0
LINE
8
0
6
CONTINUOUS
10
-16.983144
20
5.528368
30
0.0
11
-16.949154
21
5.512692
31
0.0
0
LINE
8
0
6
CONTINUOUS
10
-18.119876
20
5.188469
30
0.0
11
-18.087201
21
5.230703
31
0.0
0
ENDSEC
0
EOF
