999
unknown String-ID: 20550
0
SECTION
2
HEADER
9
$ACADVER
1
AC1009
9
$DWGCODEPAGE
3
unknown String-ID: 20561
0
ENDSEC
0
SECTION
2
TABLES
0
TABLE
2
LAYER
70
1
0
LAYER
2
0
70
0
62
7
6
CONTINUOUS
0
ENDTAB
0
ENDSEC
0
SECTION
2
ENTITIES
0
LINE
8
0
6
CONTINUOUS
10
-24.647751
20
20.534146
30
0.0
11
-24.719016
21
20.534146
31
0.0
0
LINE
8
0
6
CONTINUOUS
10
-24.647751
20
20.534146
30
0.0
11
-22.621679
21
20.534146
31
0.0
0
LINE
8
0
6
CONTINUOUS
10
-23.072350
20
24.308621
30
0.0
11
-22.621674
21
24.308621
31
0.0
0
LINE
8
0
6
CONTINUOUS
10
-22.621679
20
20.534146
30
0.0
11
-22.592615
21
20.534146
31
0.0
0
LINE
8
0
6
CONTINUOUS
10
-22.621674
20
24.308621
30
0.0
11
-22.592611
21
24.308621
31
0.0
0
LINE
8
0
6
CONTINUOUS
10
-24.719016
20
20.534146
30
0.0
11
-24.719016
21
20.598454
31
0.0
0
LINE
8
0
6
CONTINUOUS
10
-24.719016
20
20.598454
30
0.0
11
-24.719016
21
20.786992
31
0.0
0
LINE
8
0
6
CONTINUOUS
10
-24.719016
20
20.786992
30
0.0
11
-24.719016
21
21.086911
31
0.0
0
LINE
8
0
6
CONTINUOUS
10
-24.719016
20
21.086911
30
0.0
11
-24.719016
21
21.477765
31
0.0
0
LINE
8
0
6
CONTINUOUS
10
-24.719016
20
21.477765
30
0.0
11
-24.719015
21
21.932927
31
0.0
0
LINE
8
0
6
CONTINUOUS
10
-24.719015
20
21.932927
30
0.0
11
-24.719015
21
22.421384
31
0.0
0
LINE
8
0
6
CONTINUOUS
10
-24.719015
20
22.421384
30
0.0
11
-24.719015
21
22.909833
31
0.0
0
LINE
8
0
6
CONTINUOUS
10
-24.719015
20
22.909833
30
0.0
11
-24.719013
21
23.365002
31
0.0
0
LINE
8
0
6
CONTINUOUS
10
-24.719013
20
23.365002
30
0.0
11
-24.719013
21
23.755856
31
0.0
0
LINE
8
0
6
CONTINUOUS
10
-24.719013
20
23.755856
30
0.0
11
-24.719013
21
24.055775
31
0.0
0
LINE
8
0
6
CONTINUOUS
10
-24.719013
20
24.055775
30
0.0
11
-24.719013
21
24.244313
31
0.0
0
LINE
8
0
6
CONTINUOUS
10
-24.719013
20
24.244313
30
0.0
11
-24.719013
21
24.308621
31
0.0
0
LINE
8
0
6
CONTINUOUS
10
-24.627622
20
25.138142
30
0.0
11
-24.638942
21
25.138768
31
0.0
0
LINE
8
0
6
CONTINUOUS
10
-24.627622
20
25.138142
30
0.0
11
-23.083592
21
25.139516
31
0.0
0
LINE
8
0
6
CONTINUOUS
10
-23.072350
20
23.951772
30
0.0
11
-23.072350
21
24.740117
31
0.0
0
LINE
8
0
6
CONTINUOUS
10
-23.083592
20
25.139516
30
0.0
11
-23.072350
21
25.139539
31
0.0
0
LINE
8
0
6
CONTINUOUS
10
-24.654058
20
24.740063
30
0.0
11
-24.649368
21
24.816663
31
0.0
0
LINE
8
0
6
CONTINUOUS
10
-24.649368
20
24.816663
30
0.0
11
-24.645142
21
24.894841
31
0.0
0
LINE
8
0
6
CONTINUOUS
10
-24.645142
20
24.894841
30
0.0
11
-24.641668
21
24.969258
31
0.0
0
LINE
8
0
6
CONTINUOUS
10
-24.641668
20
24.969258
30
0.0
11
-24.639181
21
25.034863
31
0.0
0
LINE
8
0
6
CONTINUOUS
10
-24.639181
20
25.034863
30
0.0
11
-24.637852
21
25.087170
31
0.0
0
LINE
8
0
6
CONTINUOUS
10
-24.637852
20
25.087170
30
0.0
11
-24.637771
21
25.122601
31
0.0
0
LINE
8
0
6
CONTINUOUS
10
-24.637771
20
25.122601
30
0.0
11
-24.638942
21
25.138768
31
0.0
0
LINE
8
0
6
CONTINUOUS
10
-24.638942
20
25.138768
30
0.0
11
-24.641289
21
25.134549
31
0.0
0
LINE
8
0
6
CONTINUOUS
10
-24.641289
20
25.134549
30
0.0
11
-24.644648
21
25.110257
31
0.0
0
LINE
8
0
6
CONTINUOUS
10
-24.644648
20
25.110257
30
0.0
11
-24.648794
21
25.067517
31
0.0
0
LINE
8
0
6
CONTINUOUS
10
-24.648794
20
25.067517
30
0.0
11
-24.653439
21
25.009267
31
0.0
0
LINE
8
0
6
CONTINUOUS
10
-24.653439
20
25.009267
30
0.0
11
-24.658272
21
24.939465
31
0.0
0
LINE
8
0
6
CONTINUOUS
10
-24.712965
20
24.152425
30
0.0
11
-24.658272
21
24.939465
31
0.0
0
LINE
8
0
6
CONTINUOUS
10
-23.072350
20
24.816830
30
0.0
11
-23.072350
21
24.740117
31
0.0
0
LINE
8
0
6
CONTINUOUS
10
-23.072350
20
24.895131
30
0.0
11
-23.072350
21
24.816830
31
0.0
0
LINE
8
0
6
CONTINUOUS
10
-23.072350
20
24.969670
30
0.0
11
-23.072350
21
24.895131
31
0.0
0
LINE
8
0
6
CONTINUOUS
10
-23.072350
20
25.035390
30
0.0
11
-23.072350
21
24.969670
31
0.0
0
LINE
8
0
6
CONTINUOUS
10
-23.072350
20
25.087796
30
0.0
11
-23.072350
21
25.035390
31
0.0
0
LINE
8
0
6
CONTINUOUS
10
-23.072350
20
25.123318
30
0.0
11
-23.072350
21
25.087796
31
0.0
0
LINE
8
0
6
CONTINUOUS
10
-23.072350
20
25.139539
30
0.0
11
-23.072350
21
25.123318
31
0.0
0
LINE
8
0
6
CONTINUOUS
10
-24.696031
20
24.136097
30
0.0
11
-24.654058
21
24.740063
31
0.0
0
LINE
8
0
6
CONTINUOUS
10
-22.592615
20
20.598454
30
0.0
11
-22.592615
21
20.534146
31
0.0
0
LINE
8
0
6
CONTINUOUS
10
-22.592615
20
20.786992
30
0.0
11
-22.592615
21
20.598454
31
0.0
0
LINE
8
0
6
CONTINUOUS
10
-22.592615
20
21.086911
30
0.0
11
-22.592615
21
20.786992
31
0.0
0
LINE
8
0
6
CONTINUOUS
10
-22.592615
20
21.477765
30
0.0
11
-22.592615
21
21.086911
31
0.0
0
LINE
8
0
6
CONTINUOUS
10
-22.592613
20
21.932927
30
0.0
11
-22.592615
21
21.477765
31
0.0
0
LINE
8
0
6
CONTINUOUS
10
-22.592613
20
22.421391
30
0.0
11
-22.592613
21
21.932927
31
0.0
0
LINE
8
0
6
CONTINUOUS
10
-22.592613
20
22.909840
30
0.0
11
-22.592613
21
22.421391
31
0.0
0
LINE
8
0
6
CONTINUOUS
10
-22.592612
20
23.365002
30
0.0
11
-22.592613
21
22.909840
31
0.0
0
LINE
8
0
6
CONTINUOUS
10
-22.592611
20
23.755864
30
0.0
11
-22.592612
21
23.365002
31
0.0
0
LINE
8
0
6
CONTINUOUS
10
-22.592611
20
24.055783
30
0.0
11
-22.592611
21
23.755864
31
0.0
0
LINE
8
0
6
CONTINUOUS
10
-22.592611
20
24.244313
30
0.0
11
-22.592611
21
24.055783
31
0.0
0
LINE
8
0
6
CONTINUOUS
10
-22.592611
20
24.308621
30
0.0
11
-22.592611
21
24.244313
31
0.0
0
LINE
8
0
6
CONTINUOUS
10
-18.455976
20
23.972325
30
0.0
11
-18.423208
21
23.902115
31
0.0
0
LINE
8
0
6
CONTINUOUS
10
-16.453694
20
22.448422
30
0.0
11
-16.453695
21
22.817502
31
0.0
0
LINE
8
0
6
CONTINUOUS
10
-16.453694
20
22.078297
30
0.0
11
-16.453694
21
22.448422
31
0.0
0
LINE
8
0
6
CONTINUOUS
10
-18.376637
20
23.780125
30
0.0
11
-18.484681
21
24.011639
31
0.0
0
LINE
8
0
6
CONTINUOUS
10
-16.453694
20
21.391331
30
0.0
11
-16.453694
21
21.721364
31
0.0
0
LINE
8
0
6
CONTINUOUS
10
-16.453694
20
21.721364
30
0.0
11
-16.453694
21
22.078297
31
0.0
0
LINE
8
0
6
CONTINUOUS
10
-16.453695
20
22.817502
30
0.0
11
-16.453695
21
23.171361
31
0.0
0
LINE
8
0
6
CONTINUOUS
10
-16.453695
20
23.171361
30
0.0
11
-16.453694
21
23.380711
31
0.0
0
LINE
8
0
6
CONTINUOUS
10
-22.502512
20
24.315900
30
0.0
11
-22.534488
21
24.315900
31
0.0
0
LINE
8
0
6
CONTINUOUS
10
-18.484681
20
24.011639
30
0.0
11
-18.434991
21
24.090004
31
0.0
0
LINE
8
0
6
CONTINUOUS
10
-18.449158
20
24.315900
30
0.0
11
-19.396675
21
24.315900
31
0.0
0
LINE
8
0
6
CONTINUOUS
10
-21.596674
20
24.315900
30
0.0
11
-22.502512
21
24.315900
31
0.0
0
LINE
8
0
6
CONTINUOUS
10
-22.502512
20
20.526860
30
0.0
11
-22.534488
21
20.526860
31
0.0
0
LINE
8
0
6
CONTINUOUS
10
-16.809900
20
20.526868
30
0.0
11
-17.271466
21
20.459538
31
0.0
0
LINE
8
0
6
CONTINUOUS
10
-17.762369
20
20.460271
30
0.0
11
-17.271459
21
20.457860
31
0.0
0
LINE
8
0
6
CONTINUOUS
10
-17.762369
20
20.460271
30
0.0
11
-18.118519
21
20.526860
31
0.0
0
LINE
8
0
6
CONTINUOUS
10
-16.453694
20
20.568539
30
0.0
11
-16.453694
21
20.681424
31
0.0
0
LINE
8
0
6
CONTINUOUS
10
-16.453694
20
20.681424
30
0.0
11
-16.453694
21
20.861172
31
0.0
0
LINE
8
0
6
CONTINUOUS
10
-16.453694
20
21.100873
30
0.0
11
-16.453694
21
21.391331
31
0.0
0
LINE
8
0
6
CONTINUOUS
10
-16.453694
20
20.861172
30
0.0
11
-16.453694
21
21.100873
31
0.0
0
LINE
8
0
6
CONTINUOUS
10
-16.453694
20
20.526868
30
0.0
11
-16.453694
21
20.568539
31
0.0
0
LINE
8
0
6
CONTINUOUS
10
-16.453694
20
20.526868
30
0.0
11
-16.493751
21
20.526868
31
0.0
0
LINE
8
0
6
CONTINUOUS
10
-18.118519
20
20.526860
30
0.0
11
-19.396675
21
20.526860
31
0.0
0
LINE
8
0
6
CONTINUOUS
10
-21.596674
20
20.526860
30
0.0
11
-22.502512
21
20.526860
31
0.0
0
LINE
8
0
6
CONTINUOUS
10
-16.493751
20
20.526868
30
0.0
11
-16.809900
21
20.526868
31
0.0
0
LINE
8
0
6
CONTINUOUS
10
-22.534488
20
22.448422
30
0.0
11
-22.534488
21
22.817502
31
0.0
0
LINE
8
0
6
CONTINUOUS
10
-22.534488
20
22.817502
30
0.0
11
-22.534488
21
23.171361
31
0.0
0
LINE
8
0
6
CONTINUOUS
10
-22.534488
20
21.391331
30
0.0
11
-22.534488
21
21.721364
31
0.0
0
LINE
8
0
6
CONTINUOUS
10
-22.534488
20
22.078297
30
0.0
11
-22.534488
21
22.448422
31
0.0
0
LINE
8
0
6
CONTINUOUS
10
-22.534488
20
23.780125
30
0.0
11
-22.534488
21
24.011639
31
0.0
0
LINE
8
0
6
CONTINUOUS
10
-22.534488
20
20.568547
30
0.0
11
-22.534488
21
20.681424
31
0.0
0
LINE
8
0
6
CONTINUOUS
10
-22.534488
20
23.171361
30
0.0
11
-22.534488
21
23.496404
31
0.0
0
LINE
8
0
6
CONTINUOUS
10
-22.534488
20
21.721364
30
0.0
11
-22.534488
21
22.078297
31
0.0
0
LINE
8
0
6
CONTINUOUS
10
-22.534488
20
21.100880
30
0.0
11
-22.534488
21
21.391331
31
0.0
0
LINE
8
0
6
CONTINUOUS
10
-22.534488
20
24.011639
30
0.0
11
-22.534488
21
24.182034
31
0.0
0
LINE
8
0
6
CONTINUOUS
10
-22.534488
20
24.284772
30
0.0
11
-22.534488
21
24.315900
31
0.0
0
LINE
8
0
6
CONTINUOUS
10
-22.534488
20
23.496404
30
0.0
11
-22.534488
21
23.780125
31
0.0
0
LINE
8
0
6
CONTINUOUS
10
-22.534488
20
20.526860
30
0.0
11
-22.534488
21
20.568547
31
0.0
0
LINE
8
0
6
CONTINUOUS
10
-22.534488
20
20.861172
30
0.0
11
-22.534488
21
21.100880
31
0.0
0
LINE
8
0
6
CONTINUOUS
10
-22.534488
20
20.681424
30
0.0
11
-22.534488
21
20.861172
31
0.0
0
LINE
8
0
6
CONTINUOUS
10
-22.534488
20
24.182034
30
0.0
11
-22.534488
21
24.284772
31
0.0
0
LINE
8
0
6
CONTINUOUS
10
-20.776674
20
-42.749995
30
0.0
11
-20.496675
21
-42.749995
31
0.0
0
LINE
8
0
6
CONTINUOUS
10
-21.596674
20
-47.894584
30
0.0
11
-21.596674
21
-47.950000
31
0.0
0
LINE
8
0
6
CONTINUOUS
10
-21.556675
20
-47.950000
30
0.0
11
-21.596674
21
-47.950000
31
0.0
0
LINE
8
0
6
CONTINUOUS
10
-21.446675
20
-47.950000
30
0.0
11
-21.556675
21
-47.950000
31
0.0
0
LINE
8
0
6
CONTINUOUS
10
-21.276674
20
-47.950000
30
0.0
11
-21.446675
21
-47.950000
31
0.0
0
LINE
8
0
6
CONTINUOUS
10
-21.046674
20
-47.950000
30
0.0
11
-21.276674
21
-47.950000
31
0.0
0
LINE
8
0
6
CONTINUOUS
10
-20.776674
20
-47.950000
30
0.0
11
-21.046674
21
-47.950000
31
0.0
0
LINE
8
0
6
CONTINUOUS
10
-20.496675
20
-47.950000
30
0.0
11
-20.776674
21
-47.950000
31
0.0
0
LINE
8
0
6
CONTINUOUS
10
-20.776674
20
-42.749995
30
0.0
11
-21.046674
21
-42.749995
31
0.0
0
LINE
8
0
6
CONTINUOUS
10
-21.046674
20
-42.749995
30
0.0
11
-21.276674
21
-42.749995
31
0.0
0
LINE
8
0
6
CONTINUOUS
10
-21.446675
20
-42.749995
30
0.0
11
-21.556675
21
-42.749995
31
0.0
0
LINE
8
0
6
CONTINUOUS
10
-19.396675
20
-47.950000
30
0.0
11
-19.436675
21
-47.950000
31
0.0
0
LINE
8
0
6
CONTINUOUS
10
-19.436675
20
-47.950000
30
0.0
11
-19.546674
21
-47.950000
31
0.0
0
LINE
8
0
6
CONTINUOUS
10
-19.546674
20
-47.950000
30
0.0
11
-19.716674
21
-47.950000
31
0.0
0
LINE
8
0
6
CONTINUOUS
10
-19.716674
20
-47.950000
30
0.0
11
-19.946675
21
-47.950000
31
0.0
0
LINE
8
0
6
CONTINUOUS
10
-19.946675
20
-47.950000
30
0.0
11
-20.216674
21
-47.950000
31
0.0
0
LINE
8
0
6
CONTINUOUS
10
-20.216674
20
-47.950000
30
0.0
11
-20.496675
21
-47.950000
31
0.0
0
LINE
8
0
6
CONTINUOUS
10
-21.556675
20
-42.749995
30
0.0
11
-21.596674
21
-42.749995
31
0.0
0
LINE
8
0
6
CONTINUOUS
10
-21.596674
20
-42.805412
30
0.0
11
-21.596674
21
-42.749995
31
0.0
0
LINE
8
0
6
CONTINUOUS
10
-21.596674
20
-47.894584
30
0.0
11
-21.596674
21
-42.805412
31
0.0
0
LINE
8
0
6
CONTINUOUS
10
-21.276674
20
-42.749995
30
0.0
11
-21.446675
21
-42.749995
31
0.0
0
LINE
8
0
6
CONTINUOUS
10
-19.436675
20
47.950002
30
0.0
11
-19.396675
21
47.950002
31
0.0
0
LINE
8
0
6
CONTINUOUS
10
-19.546674
20
47.950002
30
0.0
11
-19.436675
21
47.950002
31
0.0
0
LINE
8
0
6
CONTINUOUS
10
-19.716674
20
47.950002
30
0.0
11
-19.546674
21
47.950002
31
0.0
0
LINE
8
0
6
CONTINUOUS
10
-19.946675
20
47.950002
30
0.0
11
-19.716674
21
47.950002
31
0.0
0
LINE
8
0
6
CONTINUOUS
10
-20.216674
20
47.950002
30
0.0
11
-19.946675
21
47.950002
31
0.0
0
LINE
8
0
6
CONTINUOUS
10
-20.496675
20
47.950002
30
0.0
11
-20.216674
21
47.950002
31
0.0
0
LINE
8
0
6
CONTINUOUS
10
-21.596674
20
47.950002
30
0.0
11
-21.596674
21
47.879170
31
0.0
0
LINE
8
0
6
CONTINUOUS
10
-21.596674
20
47.950002
30
0.0
11
-21.556675
21
47.950002
31
0.0
0
LINE
8
0
6
CONTINUOUS
10
-21.556675
20
47.950002
30
0.0
11
-21.446675
21
47.950002
31
0.0
0
LINE
8
0
6
CONTINUOUS
10
-21.446675
20
47.950002
30
0.0
11
-21.276674
21
47.950002
31
0.0
0
LINE
8
0
6
CONTINUOUS
10
-21.276674
20
47.950002
30
0.0
11
-21.046674
21
47.950002
31
0.0
0
LINE
8
0
6
CONTINUOUS
10
-21.046674
20
47.950002
30
0.0
11
-20.776674
21
47.950002
31
0.0
0
LINE
8
0
6
CONTINUOUS
10
-20.776674
20
47.950002
30
0.0
11
-20.496675
21
47.950002
31
0.0
0
LINE
8
0
6
CONTINUOUS
10
-21.596674
20
42.699994
30
0.0
11
-21.556675
21
42.699994
31
0.0
0
LINE
8
0
6
CONTINUOUS
10
-21.556675
20
42.699994
30
0.0
11
-21.446675
21
42.699994
31
0.0
0
LINE
8
0
6
CONTINUOUS
10
-21.446675
20
42.699994
30
0.0
11
-21.276674
21
42.699994
31
0.0
0
LINE
8
0
6
CONTINUOUS
10
-21.276674
20
42.699994
30
0.0
11
-21.046674
21
42.699994
31
0.0
0
LINE
8
0
6
CONTINUOUS
10
-21.046674
20
42.699994
30
0.0
11
-20.776674
21
42.699994
31
0.0
0
LINE
8
0
6
CONTINUOUS
10
-20.776674
20
42.699994
30
0.0
11
-20.496675
21
42.699994
31
0.0
0
LINE
8
0
6
CONTINUOUS
10
-19.436675
20
42.699994
30
0.0
11
-19.396675
21
42.699994
31
0.0
0
LINE
8
0
6
CONTINUOUS
10
-19.546674
20
42.699994
30
0.0
11
-19.436675
21
42.699994
31
0.0
0
LINE
8
0
6
CONTINUOUS
10
-19.716674
20
42.699994
30
0.0
11
-19.546674
21
42.699994
31
0.0
0
LINE
8
0
6
CONTINUOUS
10
-19.946675
20
42.699994
30
0.0
11
-19.716674
21
42.699994
31
0.0
0
LINE
8
0
6
CONTINUOUS
10
-20.216674
20
42.699994
30
0.0
11
-19.946675
21
42.699994
31
0.0
0
LINE
8
0
6
CONTINUOUS
10
-20.496675
20
42.699994
30
0.0
11
-20.216674
21
42.699994
31
0.0
0
LINE
8
0
6
CONTINUOUS
10
-19.396675
20
-42.700000
30
0.0
11
-19.446675
21
-42.749995
31
0.0
0
LINE
8
0
6
CONTINUOUS
10
-19.396675
20
42.699994
30
0.0
11
-19.396675
21
42.668683
31
0.0
0
LINE
8
0
6
CONTINUOUS
10
-19.446675
20
42.749997
30
0.0
11
-19.396675
21
42.699994
31
0.0
0
LINE
8
0
6
CONTINUOUS
10
-19.946675
20
42.699994
30
0.0
11
-20.216674
21
42.699994
31
0.0
0
LINE
8
0
6
CONTINUOUS
10
-21.546674
20
-42.749995
30
0.0
11
-21.596674
21
-42.700000
31
0.0
0
LINE
8
0
6
CONTINUOUS
10
-21.596674
20
42.668683
30
0.0
11
-21.596674
21
42.699994
31
0.0
0
LINE
8
0
6
CONTINUOUS
10
-20.776674
20
42.699994
30
0.0
11
-20.496675
21
42.699994
31
0.0
0
LINE
8
0
6
CONTINUOUS
10
-21.596674
20
42.699994
30
0.0
11
-21.546674
21
42.749997
31
0.0
0
LINE
8
0
6
CONTINUOUS
10
-19.436675
20
42.749997
30
0.0
11
-19.396675
21
42.749997
31
0.0
0
LINE
8
0
6
CONTINUOUS
10
-19.546674
20
42.749997
30
0.0
11
-19.436675
21
42.749997
31
0.0
0
LINE
8
0
6
CONTINUOUS
10
-19.716674
20
42.749997
30
0.0
11
-19.546674
21
42.749997
31
0.0
0
LINE
8
0
6
CONTINUOUS
10
-19.946675
20
42.749997
30
0.0
11
-19.716674
21
42.749997
31
0.0
0
LINE
8
0
6
CONTINUOUS
10
-20.216674
20
42.749997
30
0.0
11
-19.946675
21
42.749997
31
0.0
0
LINE
8
0
6
CONTINUOUS
10
-20.496675
20
42.749997
30
0.0
11
-20.216674
21
42.749997
31
0.0
0
LINE
8
0
6
CONTINUOUS
10
-21.596674
20
42.820767
30
0.0
11
-21.596674
21
42.749997
31
0.0
0
LINE
8
0
6
CONTINUOUS
10
-21.596674
20
42.749997
30
0.0
11
-21.556675
21
42.749997
31
0.0
0
LINE
8
0
6
CONTINUOUS
10
-21.596674
20
47.879170
30
0.0
11
-21.596674
21
42.820767
31
0.0
0
LINE
8
0
6
CONTINUOUS
10
-21.556675
20
42.749997
30
0.0
11
-21.446675
21
42.749997
31
0.0
0
LINE
8
0
6
CONTINUOUS
10
-21.446675
20
42.749997
30
0.0
11
-21.276674
21
42.749997
31
0.0
0
LINE
8
0
6
CONTINUOUS
10
-21.276674
20
42.749997
30
0.0
11
-21.046674
21
42.749997
31
0.0
0
LINE
8
0
6
CONTINUOUS
10
-21.046674
20
42.749997
30
0.0
11
-20.776674
21
42.749997
31
0.0
0
LINE
8
0
6
CONTINUOUS
10
-20.776674
20
42.749997
30
0.0
11
-20.496675
21
42.749997
31
0.0
0
LINE
8
0
6
CONTINUOUS
10
-19.396675
20
47.950002
30
0.0
11
-19.396675
21
47.879170
31
0.0
0
LINE
8
0
6
CONTINUOUS
10
-19.396675
20
42.820767
30
0.0
11
-19.396675
21
42.749997
31
0.0
0
LINE
8
0
6
CONTINUOUS
10
-19.396675
20
47.879170
30
0.0
11
-19.396675
21
42.820767
31
0.0
0
LINE
8
0
6
CONTINUOUS
10
-19.396675
20
42.668683
30
0.0
11
-19.396675
21
42.614499
31
0.0
0
LINE
8
0
6
CONTINUOUS
10
-21.596674
20
42.614499
30
0.0
11
-21.596674
21
42.668683
31
0.0
0
LINE
8
0
6
CONTINUOUS
10
-19.396675
20
-42.749995
30
0.0
11
-19.436675
21
-42.749995
31
0.0
0
LINE
8
0
6
CONTINUOUS
10
-19.436675
20
-42.749995
30
0.0
11
-19.546674
21
-42.749995
31
0.0
0
LINE
8
0
6
CONTINUOUS
10
-19.546674
20
-42.749995
30
0.0
11
-19.716674
21
-42.749995
31
0.0
0
LINE
8
0
6
CONTINUOUS
10
-19.716674
20
-42.749995
30
0.0
11
-19.946675
21
-42.749995
31
0.0
0
LINE
8
0
6
CONTINUOUS
10
-19.946675
20
-42.749995
30
0.0
11
-20.216674
21
-42.749995
31
0.0
0
LINE
8
0
6
CONTINUOUS
10
-20.216674
20
-42.749995
30
0.0
11
-20.496675
21
-42.749995
31
0.0
0
LINE
8
0
6
CONTINUOUS
10
-19.396675
20
-42.749995
30
0.0
11
-19.396675
21
-42.805412
31
0.0
0
LINE
8
0
6
CONTINUOUS
10
-19.396675
20
-42.805412
30
0.0
11
-19.396675
21
-47.894584
31
0.0
0
LINE
8
0
6
CONTINUOUS
10
-19.396675
20
-47.894584
30
0.0
11
-19.396675
21
-47.950000
31
0.0
0
LINE
8
0
6
CONTINUOUS
10
-19.716674
20
-42.700000
30
0.0
11
-19.546674
21
-42.700000
31
0.0
0
LINE
8
0
6
CONTINUOUS
10
-19.436675
20
-42.700000
30
0.0
11
-19.396675
21
-42.700000
31
0.0
0
LINE
8
0
6
CONTINUOUS
10
-21.046674
20
-42.700000
30
0.0
11
-20.776674
21
-42.700000
31
0.0
0
LINE
8
0
6
CONTINUOUS
10
-21.596674
20
-42.700000
30
0.0
11
-21.556675
21
-42.700000
31
0.0
0
LINE
8
0
6
CONTINUOUS
10
-21.596674
20
-42.678569
30
0.0
11
-21.596674
21
-42.700000
31
0.0
0
LINE
8
0
6
CONTINUOUS
10
-20.496675
20
-42.700000
30
0.0
11
-20.216674
21
-42.700000
31
0.0
0
LINE
8
0
6
CONTINUOUS
10
-19.396675
20
-42.678569
30
0.0
11
-19.396675
21
-42.700000
31
0.0
0
LINE
8
0
6
CONTINUOUS
10
-20.216674
20
-42.700000
30
0.0
11
-19.946675
21
-42.700000
31
0.0
0
LINE
8
0
6
CONTINUOUS
10
-19.546674
20
-42.700000
30
0.0
11
-19.436675
21
-42.700000
31
0.0
0
LINE
8
0
6
CONTINUOUS
10
-20.776674
20
-42.700000
30
0.0
11
-20.496675
21
-42.700000
31
0.0
0
LINE
8
0
6
CONTINUOUS
10
-21.276674
20
-42.700000
30
0.0
11
-21.046674
21
-42.700000
31
0.0
0
LINE
8
0
6
CONTINUOUS
10
-21.556675
20
-42.700000
30
0.0
11
-21.446675
21
-42.700000
31
0.0
0
LINE
8
0
6
CONTINUOUS
10
-21.446675
20
-42.700000
30
0.0
11
-21.276674
21
-42.700000
31
0.0
0
LINE
8
0
6
CONTINUOUS
10
-19.946675
20
-42.700000
30
0.0
11
-19.716674
21
-42.700000
31
0.0
0
LINE
8
0
6
CONTINUOUS
10
-19.396675
20
42.614499
30
0.0
11
-19.396675
21
42.180282
31
0.0
0
LINE
8
0
6
CONTINUOUS
10
-19.396675
20
34.709124
30
0.0
11
-19.396675
21
24.315900
31
0.0
0
LINE
8
0
6
CONTINUOUS
10
-19.396675
20
20.526860
30
0.0
11
-19.396675
21
-42.620574
31
0.0
0
LINE
8
0
6
CONTINUOUS
10
-21.596674
20
-42.620574
30
0.0
11
-21.596674
21
20.526860
31
0.0
0
LINE
8
0
6
CONTINUOUS
10
-21.596674
20
24.315900
30
0.0
11
-21.596674
21
36.247627
31
0.0
0
LINE
8
0
6
CONTINUOUS
10
-21.596674
20
41.190894
30
0.0
11
-21.596674
21
42.614499
31
0.0
0
LINE
8
0
6
CONTINUOUS
10
-19.396675
20
-42.620574
30
0.0
11
-19.396675
21
-42.678569
31
0.0
0
LINE
8
0
6
CONTINUOUS
10
-21.596674
20
-42.678569
30
0.0
11
-21.596674
21
-42.620574
31
0.0
0
LINE
8
0
6
CONTINUOUS
10
-16.545626
20
20.382291
30
0.0
11
-16.545626
21
20.526868
31
0.0
0
LINE
8
0
6
CONTINUOUS
10
-18.145626
20
20.382291
30
0.0
11
-18.145626
21
20.526860
31
0.0
0
LINE
8
0
6
CONTINUOUS
10
-16.545626
20
18.521535
30
0.0
11
-16.545626
21
20.382291
31
0.0
0
LINE
8
0
6
CONTINUOUS
10
-18.145626
20
18.521535
30
0.0
11
-18.145626
21
20.382291
31
0.0
0
LINE
8
0
6
CONTINUOUS
10
-16.545626
20
16.789044
30
0.0
11
-16.545626
21
18.521535
31
0.0
0
LINE
8
0
6
CONTINUOUS
10
-18.145626
20
16.789044
30
0.0
11
-18.145626
21
18.521535
31
0.0
0
LINE
8
0
6
CONTINUOUS
10
-16.545626
20
15.143079
30
0.0
11
-16.545626
21
16.789044
31
0.0
0
LINE
8
0
6
CONTINUOUS
10
-18.145626
20
15.143079
30
0.0
11
-18.145626
21
16.789044
31
0.0
0
LINE
8
0
6
CONTINUOUS
10
-16.545626
20
13.541909
30
0.0
11
-16.545626
21
15.143079
31
0.0
0
LINE
8
0
6
CONTINUOUS
10
-18.145626
20
13.541909
30
0.0
11
-18.145626
21
15.143079
31
0.0
0
LINE
8
0
6
CONTINUOUS
10
-16.545626
20
11.943791
30
0.0
11
-16.545626
21
13.541909
31
0.0
0
LINE
8
0
6
CONTINUOUS
10
-18.145626
20
11.943791
30
0.0
11
-18.145626
21
13.541909
31
0.0
0
LINE
8
0
6
CONTINUOUS
10
-16.545626
20
10.306989
30
0.0
11
-16.545626
21
11.943791
31
0.0
0
LINE
8
0
6
CONTINUOUS
10
-18.145626
20
10.306989
30
0.0
11
-18.145626
21
11.943791
31
0.0
0
LINE
8
0
6
CONTINUOUS
10
-16.545626
20
8.589761
30
0.0
11
-16.545626
21
10.306989
31
0.0
0
LINE
8
0
6
CONTINUOUS
10
-18.145626
20
8.589761
30
0.0
11
-18.145626
21
10.306989
31
0.0
0
LINE
8
0
6
CONTINUOUS
10
-16.545626
20
6.750375
30
0.0
11
-16.545626
21
8.589761
31
0.0
0
LINE
8
0
6
CONTINUOUS
10
-18.145626
20
6.750375
30
0.0
11
-18.145626
21
8.589761
31
0.0
0
LINE
8
0
6
CONTINUOUS
10
-16.545626
20
4.747086
30
0.0
11
-16.545626
21
6.750375
31
0.0
0
LINE
8
0
6
CONTINUOUS
10
-18.145626
20
4.747086
30
0.0
11
-18.145626
21
6.750375
31
0.0
0
LINE
8
0
6
CONTINUOUS
10
-16.545626
20
0.073575
30
0.0
11
-16.545626
21
4.747086
31
0.0
0
LINE
8
0
6
CONTINUOUS
10
-18.145626
20
0.073575
30
0.0
11
-18.145626
21
4.747086
31
0.0
0
LINE
8
0
6
CONTINUOUS
10
-16.545626
20
-5.561443
30
0.0
11
-16.545626
21
0.073575
31
0.0
0
LINE
8
0
6
CONTINUOUS
10
-18.145626
20
-5.561443
30
0.0
11
-18.145626
21
0.073575
31
0.0
0
LINE
8
0
6
CONTINUOUS
10
-16.545626
20
-11.847076
30
0.0
11
-16.545626
21
-5.561443
31
0.0
0
LINE
8
0
6
CONTINUOUS
10
-18.145626
20
-11.847079
30
0.0
11
-18.145626
21
-5.561443
31
0.0
0
LINE
8
0
6
CONTINUOUS
10
-16.545626
20
-18.472455
30
0.0
11
-16.545626
21
-11.847076
31
0.0
0
LINE
8
0
6
CONTINUOUS
10
-18.145626
20
-18.472455
30
0.0
11
-18.145626
21
-11.847079
31
0.0
0
LINE
8
0
6
CONTINUOUS
10
-16.545626
20
-25.126693
30
0.0
11
-16.545626
21
-18.472455
31
0.0
0
LINE
8
0
6
CONTINUOUS
10
-18.145626
20
-25.126695
30
0.0
11
-18.145626
21
-18.472455
31
0.0
0
LINE
8
0
6
CONTINUOUS
10
-16.545626
20
-31.498912
30
0.0
11
-16.545626
21
-25.126693
31
0.0
0
LINE
8
0
6
CONTINUOUS
10
-18.145626
20
-31.498914
30
0.0
11
-18.145626
21
-25.126695
31
0.0
0
LINE
8
0
6
CONTINUOUS
10
-16.545626
20
-37.278232
30
0.0
11
-16.545626
21
-31.498912
31
0.0
0
LINE
8
0
6
CONTINUOUS
10
-18.145626
20
-37.278234
30
0.0
11
-18.145626
21
-31.498914
31
0.0
0
LINE
8
0
6
CONTINUOUS
10
-16.545626
20
-42.153773
30
0.0
11
-16.545626
21
-37.278232
31
0.0
0
LINE
8
0
6
CONTINUOUS
10
-18.145626
20
-42.153775
30
0.0
11
-18.145626
21
-37.278234
31
0.0
0
LINE
8
0
6
CONTINUOUS
10
-16.545626
20
-45.814655
30
0.0
11
-16.545626
21
-42.153773
31
0.0
0
LINE
8
0
6
CONTINUOUS
10
-18.145626
20
-45.814656
30
0.0
11
-18.145626
21
-42.153775
31
0.0
0
LINE
8
0
6
CONTINUOUS
10
-16.545626
20
-47.950000
30
0.0
11
-16.545626
21
-45.814655
31
0.0
0
LINE
8
0
6
CONTINUOUS
10
-16.652805
20
-47.950000
30
0.0
11
-16.545626
21
-47.950000
31
0.0
0
LINE
8
0
6
CONTINUOUS
10
-16.945625
20
-47.950001
30
0.0
11
-16.652805
21
-47.950000
31
0.0
0
LINE
8
0
6
CONTINUOUS
10
-17.345626
20
-47.950001
30
0.0
11
-16.945625
21
-47.950001
31
0.0
0
LINE
8
0
6
CONTINUOUS
10
-17.745625
20
-47.950001
30
0.0
11
-17.345626
21
-47.950001
31
0.0
0
LINE
8
0
6
CONTINUOUS
10
-18.038446
20
-47.950002
30
0.0
11
-17.745625
21
-47.950001
31
0.0
0
LINE
8
0
6
CONTINUOUS
10
-18.145626
20
-47.950002
30
0.0
11
-18.038446
21
-47.950002
31
0.0
0
LINE
8
0
6
CONTINUOUS
10
-18.145626
20
-47.950002
30
0.0
11
-18.145626
21
-45.814656
31
0.0
0
LINE
8
0
6
CONTINUOUS
10
10.518259
20
-44.333068
30
0.0
11
10.518259
21
-44.252730
31
0.0
0
LINE
8
0
6
CONTINUOUS
10
8.488396
20
-44.252730
30
0.0
11
8.488396
21
-44.333068
31
0.0
0
LINE
8
0
6
CONTINUOUS
10
9.263791
20
-44.333068
30
0.0
11
8.826138
21
-44.333068
31
0.0
0
LINE
8
0
6
CONTINUOUS
10
10.501076
20
-44.333068
30
0.0
11
10.180516
21
-44.333068
31
0.0
0
LINE
8
0
6
CONTINUOUS
10
8.505577
20
-44.333068
30
0.0
11
8.357536
21
-44.333068
31
0.0
0
LINE
8
0
6
CONTINUOUS
10
9.742862
20
-44.333068
30
0.0
11
9.263791
21
-44.333068
31
0.0
0
LINE
8
0
6
CONTINUOUS
10
10.649119
20
-44.333068
30
0.0
11
10.501076
21
-44.333068
31
0.0
0
LINE
8
0
6
CONTINUOUS
10
10.649119
20
-44.471113
30
0.0
11
10.649119
21
-44.333068
31
0.0
0
LINE
8
0
6
CONTINUOUS
10
8.826138
20
-44.333068
30
0.0
11
8.505577
21
-44.333068
31
0.0
0
LINE
8
0
6
CONTINUOUS
10
10.180516
20
-44.333068
30
0.0
11
9.742862
21
-44.333068
31
0.0
0
LINE
8
0
6
CONTINUOUS
10
8.357536
20
-44.471113
30
0.0
11
8.357536
21
-44.333068
31
0.0
0
LINE
8
0
6
CONTINUOUS
10
8.477680
20
-46.597860
30
0.0
11
8.610197
21
-46.597860
31
0.0
0
LINE
8
0
6
CONTINUOUS
10
8.473484
20
-46.523585
30
0.0
11
8.477680
21
-46.597860
31
0.0
0
LINE
8
0
6
CONTINUOUS
10
8.610197
20
-46.597860
30
0.0
11
8.897145
21
-46.597860
31
0.0
0
LINE
8
0
6
CONTINUOUS
10
8.897145
20
-46.597860
30
0.0
11
9.288908
21
-46.597860
31
0.0
0
LINE
8
0
6
CONTINUOUS
10
9.288908
20
-46.597860
30
0.0
11
9.717745
21
-46.597860
31
0.0
0
LINE
8
0
6
CONTINUOUS
10
9.717745
20
-46.597860
30
0.0
11
10.109509
21
-46.597860
31
0.0
0
LINE
8
0
6
CONTINUOUS
10
10.109509
20
-46.597860
30
0.0
11
10.396456
21
-46.597860
31
0.0
0
LINE
8
0
6
CONTINUOUS
10
10.396456
20
-46.597860
30
0.0
11
10.528975
21
-46.597860
31
0.0
0
LINE
8
0
6
CONTINUOUS
10
10.533171
20
-46.523585
30
0.0
11
10.528975
21
-46.597860
31
0.0
0
LINE
8
0
6
CONTINUOUS
10
8.357536
20
-44.471113
30
0.0
11
8.473484
21
-46.523585
31
0.0
0
LINE
8
0
6
CONTINUOUS
10
10.649119
20
-44.471113
30
0.0
11
10.533171
21
-46.523585
31
0.0
0
LINE
8
0
6
CONTINUOUS
10
1.975710
20
-46.026757
30
0.0
11
2.643225
21
-45.966193
31
0.0
0
LINE
8
0
6
CONTINUOUS
10
2.643833
20
-39.301730
30
0.0
11
1.979760
21
-39.236285
31
0.0
0
LINE
8
0
6
CONTINUOUS
10
3.284031
20
-39.491859
30
0.0
11
2.643833
21
-39.301730
31
0.0
0
LINE
8
0
6
CONTINUOUS
10
3.877879
20
-39.812786
30
0.0
11
3.284031
21
-39.491859
31
0.0
0
LINE
8
0
6
CONTINUOUS
10
4.390973
20
-40.238937
30
0.0
11
3.877879
21
-39.812786
31
0.0
0
LINE
8
0
6
CONTINUOUS
10
4.509293
20
-40.382986
30
0.0
11
4.390973
21
-40.238937
31
0.0
0
LINE
8
0
6
CONTINUOUS
10
4.796357
20
-44.532163
30
0.0
11
4.953691
21
-44.241457
31
0.0
0
LINE
8
0
6
CONTINUOUS
10
4.374180
20
-45.048749
30
0.0
11
4.796357
21
-44.532163
31
0.0
0
LINE
8
0
6
CONTINUOUS
10
3.854936
20
-45.463900
30
0.0
11
4.374180
21
-45.048749
31
0.0
0
LINE
8
0
6
CONTINUOUS
10
3.272608
20
-45.771702
30
0.0
11
3.854936
21
-45.463900
31
0.0
0
LINE
8
0
6
CONTINUOUS
10
2.643225
20
-45.966193
30
0.0
11
3.272608
21
-45.771702
31
0.0
0
LINE
8
0
6
CONTINUOUS
10
1.975710
20
-46.026757
30
0.0
11
2.643225
21
-45.966193
31
0.0
0
LINE
8
0
6
CONTINUOUS
10
1.321511
20
-45.960806
30
0.0
11
1.975710
21
-46.026757
31
0.0
0
LINE
8
0
6
CONTINUOUS
10
0.690357
20
-45.774655
30
0.0
11
1.321511
21
-45.960806
31
0.0
0
LINE
8
0
6
CONTINUOUS
10
0.100105
20
-45.457167
30
0.0
11
0.690357
21
-45.774655
31
0.0
0
LINE
8
0
6
CONTINUOUS
10
-0.408617
20
-45.039884
30
0.0
11
0.100105
21
-45.457167
31
0.0
0
LINE
8
0
6
CONTINUOUS
10
-0.831722
20
-44.534740
30
0.0
11
-0.408617
21
-45.039884
31
0.0
0
LINE
8
0
6
CONTINUOUS
10
-1.013337
20
-44.196608
30
0.0
11
-0.831722
21
-44.534740
31
0.0
0
LINE
8
0
6
CONTINUOUS
10
-0.429910
20
-40.238737
30
0.0
11
-0.577360
21
-40.421534
31
0.0
0
LINE
8
0
6
CONTINUOUS
10
0.085273
20
-39.817080
30
0.0
11
-0.429910
21
-40.238737
31
0.0
0
LINE
8
0
6
CONTINUOUS
10
0.671050
20
-39.500004
30
0.0
11
0.085273
21
-39.817080
31
0.0
0
LINE
8
0
6
CONTINUOUS
10
1.314040
20
-39.297888
30
0.0
11
0.671050
21
-39.500004
31
0.0
0
LINE
8
0
6
CONTINUOUS
10
1.979760
20
-39.236285
30
0.0
11
1.314040
21
-39.297888
31
0.0
0
LINE
8
0
6
CONTINUOUS
10
2.028415
20
-40.397228
30
0.0
11
1.071311
21
-40.405796
31
0.0
0
LINE
8
0
6
CONTINUOUS
10
2.632498
20
-39.363458
30
0.0
11
1.978049
21
-39.299026
31
0.0
0
LINE
8
0
6
CONTINUOUS
10
3.261951
20
-39.554047
30
0.0
11
2.632498
21
-39.363458
31
0.0
0
LINE
8
0
6
CONTINUOUS
10
3.841010
20
-39.863987
30
0.0
11
3.261951
21
-39.554047
31
0.0
0
LINE
8
0
6
CONTINUOUS
10
4.349045
20
-40.281484
30
0.0
11
3.841010
21
-39.863987
31
0.0
0
LINE
8
0
6
CONTINUOUS
10
4.432601
20
-40.383317
30
0.0
11
4.349045
21
-40.281484
31
0.0
0
LINE
8
0
6
CONTINUOUS
10
4.764324
20
-44.514032
30
0.0
11
4.911225
21
-44.241322
31
0.0
0
LINE
8
0
6
CONTINUOUS
10
4.347838
20
-45.022372
30
0.0
11
4.764324
21
-44.514032
31
0.0
0
LINE
8
0
6
CONTINUOUS
10
3.837655
20
-45.435066
30
0.0
11
4.347838
21
-45.022372
31
0.0
0
LINE
8
0
6
CONTINUOUS
10
3.258372
20
-45.742771
30
0.0
11
3.837655
21
-45.435066
31
0.0
0
LINE
8
0
6
CONTINUOUS
10
2.631045
20
-45.934356
30
0.0
11
3.258372
21
-45.742771
31
0.0
0
LINE
8
0
6
CONTINUOUS
10
1.978163
20
-45.995784
30
0.0
11
2.631045
21
-45.934356
31
0.0
0
LINE
8
0
6
CONTINUOUS
10
1.326125
20
-45.930774
30
0.0
11
1.978163
21
-45.995784
31
0.0
0
LINE
8
0
6
CONTINUOUS
10
0.698150
20
-45.742727
30
0.0
11
1.326125
21
-45.930774
31
0.0
0
LINE
8
0
6
CONTINUOUS
10
0.120300
20
-45.432730
30
0.0
11
0.698150
21
-45.742727
31
0.0
0
LINE
8
0
6
CONTINUOUS
10
-0.386648
20
-45.017134
30
0.0
11
0.120300
21
-45.432730
31
0.0
0
LINE
8
0
6
CONTINUOUS
10
-0.805403
20
-44.512117
30
0.0
11
-0.386648
21
-45.017134
31
0.0
0
LINE
8
0
6
CONTINUOUS
10
-0.974294
20
-44.197037
30
0.0
11
-0.805403
21
-44.512117
31
0.0
0
LINE
8
0
6
CONTINUOUS
10
-0.392502
20
-40.282004
30
0.0
11
-0.506206
21
-40.420855
31
0.0
0
LINE
8
0
6
CONTINUOUS
10
0.115659
20
-39.864910
30
0.0
11
-0.392502
21
-40.282004
31
0.0
0
LINE
8
0
6
CONTINUOUS
10
0.695288
20
-39.554607
30
0.0
11
0.115659
21
-39.864910
31
0.0
0
LINE
8
0
6
CONTINUOUS
10
1.323519
20
-39.363178
30
0.0
11
0.695288
21
-39.554607
31
0.0
0
LINE
8
0
6
CONTINUOUS
10
1.978049
20
-39.299026
30
0.0
11
1.323519
21
-39.363178
31
0.0
0
LINE
8
0
6
CONTINUOUS
10
2.787911
20
-44.234550
30
0.0
11
8.488396
21
-44.252730
31
0.0
0
LINE
8
0
6
CONTINUOUS
10
2.787783
20
-40.390430
30
0.0
11
9.503325
21
-40.361390
31
0.0
0
LINE
8
0
6
CONTINUOUS
10
-1.069832
20
-44.195988
30
0.0
11
1.071249
21
-44.219486
31
0.0
0
LINE
8
0
6
CONTINUOUS
10
-1.069832
20
-40.426235
30
0.0
11
1.071311
21
-40.405796
31
0.0
0
LINE
8
0
6
CONTINUOUS
10
2.028006
20
-44.229535
30
0.0
11
2.787911
21
-44.234550
31
0.0
0
LINE
8
0
6
CONTINUOUS
10
2.028415
20
-40.397228
30
0.0
11
2.787783
21
-40.390430
31
0.0
0
LINE
8
0
6
CONTINUOUS
10
2.028006
20
-44.229535
30
0.0
11
1.071249
21
-44.219486
31
0.0
0
LINE
8
0
6
CONTINUOUS
10
-1.095760
20
-44.195837
30
0.0
11
-1.069832
21
-44.195988
31
0.0
0
LINE
8
0
6
CONTINUOUS
10
-1.095725
20
-40.426366
30
0.0
11
-1.069832
21
-40.426235
31
0.0
0
LINE
8
0
6
CONTINUOUS
10
-5.601354
20
-44.150102
30
0.0
11
-1.173533
21
-44.195386
31
0.0
0
LINE
8
0
6
CONTINUOUS
10
-3.628652
20
-40.448599
30
0.0
11
-1.173399
21
-40.426758
31
0.0
0
LINE
8
0
6
CONTINUOUS
10
-1.173533
20
-44.195386
30
0.0
11
-1.147607
21
-44.195537
31
0.0
0
LINE
8
0
6
CONTINUOUS
10
-1.147668
20
-44.136564
30
0.0
11
-1.147607
21
-44.195537
31
0.0
0
LINE
8
0
6
CONTINUOUS
10
-1.147607
20
-44.195537
30
0.0
11
-1.121685
21
-44.091992
31
0.0
0
LINE
8
0
6
CONTINUOUS
10
-1.121725
20
-44.036258
30
0.0
11
-1.121685
21
-44.091992
31
0.0
0
LINE
8
0
6
CONTINUOUS
10
-1.095760
20
-44.195837
30
0.0
11
-1.095781
21
-44.136868
31
0.0
0
LINE
8
0
6
CONTINUOUS
10
-1.121685
20
-44.091992
30
0.0
11
-1.095760
21
-44.195837
31
0.0
0
LINE
8
0
6
CONTINUOUS
10
-1.147728
20
-43.950797
30
0.0
11
-1.147668
21
-44.136564
31
0.0
0
LINE
8
0
6
CONTINUOUS
10
-1.121762
20
-43.860677
30
0.0
11
-1.121725
21
-44.036258
31
0.0
0
LINE
8
0
6
CONTINUOUS
10
-1.095781
20
-44.136868
30
0.0
11
-1.095799
21
-43.951074
31
0.0
0
LINE
8
0
6
CONTINUOUS
10
-1.147787
20
-43.651402
30
0.0
11
-1.147728
21
-43.950797
31
0.0
0
LINE
8
0
6
CONTINUOUS
10
-1.121796
20
-43.577697
30
0.0
11
-1.121762
21
-43.860677
31
0.0
0
LINE
8
0
6
CONTINUOUS
10
-1.095799
20
-43.951074
30
0.0
11
-1.095816
21
-43.651632
31
0.0
0
LINE
8
0
6
CONTINUOUS
10
-1.147812
20
-43.257892
30
0.0
11
-1.147787
21
-43.651402
31
0.0
0
LINE
8
0
6
CONTINUOUS
10
-1.121813
20
-43.205756
30
0.0
11
-1.121796
21
-43.577697
31
0.0
0
LINE
8
0
6
CONTINUOUS
10
-1.095816
20
-43.651632
30
0.0
11
-1.095826
21
-43.258048
31
0.0
0
LINE
8
0
6
CONTINUOUS
10
-1.147810
20
-42.802087
30
0.0
11
-1.147812
21
-43.257892
31
0.0
0
LINE
8
0
6
CONTINUOUS
10
-1.121812
20
-42.774951
30
0.0
11
-1.121813
21
-43.205756
31
0.0
0
LINE
8
0
6
CONTINUOUS
10
-1.095826
20
-43.258048
30
0.0
11
-1.095826
21
-42.802192
31
0.0
0
LINE
8
0
6
CONTINUOUS
10
-1.147801
20
-42.305837
30
0.0
11
-1.147810
21
-42.802087
31
0.0
0
LINE
8
0
6
CONTINUOUS
10
-1.121804
20
-42.305897
30
0.0
11
-1.121812
21
-42.774951
31
0.0
0
LINE
8
0
6
CONTINUOUS
10
-1.095826
20
-42.802192
30
0.0
11
-1.095825
21
-42.305841
31
0.0
0
LINE
8
0
6
CONTINUOUS
10
-1.147780
20
-41.811273
30
0.0
11
-1.147801
21
-42.305837
31
0.0
0
LINE
8
0
6
CONTINUOUS
10
-1.121792
20
-41.838442
30
0.0
11
-1.121804
21
-42.305897
31
0.0
0
LINE
8
0
6
CONTINUOUS
10
-1.095825
20
-42.305841
30
0.0
11
-1.095816
21
-41.811184
31
0.0
0
LINE
8
0
6
CONTINUOUS
10
-1.148329
20
-41.349362
30
0.0
11
-1.147780
21
-41.811273
31
0.0
0
LINE
8
0
6
CONTINUOUS
10
-1.122139
20
-41.401867
30
0.0
11
-1.121792
21
-41.838442
31
0.0
0
LINE
8
0
6
CONTINUOUS
10
-1.095816
20
-41.811184
30
0.0
11
-1.095999
21
-41.349225
31
0.0
0
LINE
8
0
6
CONTINUOUS
10
-1.147817
20
-40.962799
30
0.0
11
-1.148329
21
-41.349362
31
0.0
0
LINE
8
0
6
CONTINUOUS
10
-1.121815
20
-41.036492
30
0.0
11
-1.122139
21
-41.401867
31
0.0
0
LINE
8
0
6
CONTINUOUS
10
-1.095999
20
-41.349225
30
0.0
11
-1.095826
21
-40.962589
31
0.0
0
LINE
8
0
6
CONTINUOUS
10
-1.147639
20
-40.667910
30
0.0
11
-1.147817
21
-40.962799
31
0.0
0
LINE
8
0
6
CONTINUOUS
10
-1.121706
20
-40.757773
30
0.0
11
-1.121815
21
-41.036492
31
0.0
0
LINE
8
0
6
CONTINUOUS
10
-1.095826
20
-40.962589
30
0.0
11
-1.095768
21
-40.667658
31
0.0
0
LINE
8
0
6
CONTINUOUS
10
-1.147566
20
-40.486787
30
0.0
11
-1.147639
21
-40.667910
31
0.0
0
LINE
8
0
6
CONTINUOUS
10
-1.121657
20
-40.586592
30
0.0
11
-1.121706
21
-40.757773
31
0.0
0
LINE
8
0
6
CONTINUOUS
10
-1.095768
20
-40.667658
30
0.0
11
-1.095746
21
-40.486531
31
0.0
0
LINE
8
0
6
CONTINUOUS
10
-1.147507
20
-40.426628
30
0.0
11
-1.147566
21
-40.486787
31
0.0
0
LINE
8
0
6
CONTINUOUS
10
-1.121622
20
-40.529733
30
0.0
11
-1.121657
21
-40.586592
31
0.0
0
LINE
8
0
6
CONTINUOUS
10
-1.095746
20
-40.486531
30
0.0
11
-1.095725
21
-40.426366
31
0.0
0
LINE
8
0
6
CONTINUOUS
10
-1.173399
20
-40.426758
30
0.0
11
-1.147507
21
-40.426628
31
0.0
0
LINE
8
0
6
CONTINUOUS
10
-1.147507
20
-40.426628
30
0.0
11
-1.121622
21
-40.529733
31
0.0
0
LINE
8
0
6
CONTINUOUS
10
-1.121622
20
-40.529733
30
0.0
11
-1.095725
21
-40.426366
31
0.0
0
LINE
8
0
6
CONTINUOUS
10
-5.601354
20
-44.150102
30
0.0
11
-5.682281
21
-44.149274
31
0.0
0
LINE
8
0
6
CONTINUOUS
10
1.975710
20
-46.026757
30
0.0
11
2.643225
21
-45.966193
31
0.0
0
LINE
8
0
6
CONTINUOUS
10
-5.682281
20
-44.149274
30
0.0
11
-5.682281
21
-44.089802
31
0.0
0
LINE
8
0
6
CONTINUOUS
10
-5.682281
20
-44.089802
30
0.0
11
-5.682281
21
-43.908045
31
0.0
0
LINE
8
0
6
CONTINUOUS
10
-5.682281
20
-43.908045
30
0.0
11
-5.682281
21
-43.615953
31
0.0
0
LINE
8
0
6
CONTINUOUS
10
-5.682281
20
-43.615953
30
0.0
11
-5.682281
21
-43.233771
31
0.0
0
LINE
8
0
6
CONTINUOUS
10
-5.682281
20
-43.233771
30
0.0
11
-5.682281
21
-42.785865
31
0.0
0
LINE
8
0
6
CONTINUOUS
10
-5.682281
20
-42.785865
30
0.0
11
-5.682281
21
-42.305222
31
0.0
0
LINE
8
0
6
CONTINUOUS
10
-5.682281
20
-42.305222
30
0.0
11
-5.682281
21
-41.825012
31
0.0
0
LINE
8
0
6
CONTINUOUS
10
-5.682281
20
-41.825012
30
0.0
11
-5.682281
21
-41.370359
31
0.0
0
LINE
8
0
6
CONTINUOUS
10
-3.685685
20
-40.398443
30
0.0
11
-3.629486
21
-40.397620
31
0.0
0
LINE
8
0
6
CONTINUOUS
10
-5.711583
20
-40.428102
30
0.0
11
-5.657056
21
-40.426819
31
0.0
0
LINE
8
0
6
CONTINUOUS
10
-5.657056
20
-40.426819
30
0.0
11
-3.685685
21
-40.398443
31
0.0
0
LINE
8
0
6
CONTINUOUS
10
-3.630015
20
-40.798950
30
0.0
11
-3.629242
21
-40.910609
31
0.0
0
LINE
8
0
6
CONTINUOUS
10
-3.630501
20
-40.657608
30
0.0
11
-3.630015
21
-40.798950
31
0.0
0
LINE
8
0
6
CONTINUOUS
10
-3.630574
20
-40.524457
30
0.0
11
-3.630501
21
-40.657608
31
0.0
0
LINE
8
0
6
CONTINUOUS
10
-3.629486
20
-40.397620
30
0.0
11
-3.630189
21
-40.419111
31
0.0
0
LINE
8
0
6
CONTINUOUS
10
-3.628634
20
-40.449680
30
0.0
11
-3.629486
21
-40.397620
31
0.0
0
LINE
8
0
6
CONTINUOUS
10
-3.629242
20
-40.910609
30
0.0
11
-3.623956
21
-41.476739
31
0.0
0
LINE
8
0
6
CONTINUOUS
10
-3.623349
20
-41.015807
30
0.0
11
-3.628634
21
-40.449680
31
0.0
0
LINE
8
0
6
CONTINUOUS
10
-3.630189
20
-40.419111
30
0.0
11
-3.630574
21
-40.524457
31
0.0
0
LINE
8
0
6
CONTINUOUS
10
-5.710709
20
-40.929934
30
0.0
11
-5.711526
21
-40.818418
31
0.0
0
LINE
8
0
6
CONTINUOUS
10
-5.711526
20
-40.818418
30
0.0
11
-5.712132
21
-40.677468
31
0.0
0
LINE
8
0
6
CONTINUOUS
10
-5.712132
20
-40.677468
30
0.0
11
-5.712367
21
-40.544853
31
0.0
0
LINE
8
0
6
CONTINUOUS
10
-5.712165
20
-40.449200
30
0.0
11
-5.711583
21
-40.428102
31
0.0
0
LINE
8
0
6
CONTINUOUS
10
-5.705423
20
-41.496064
30
0.0
11
-5.710709
21
-40.929934
31
0.0
0
LINE
8
0
6
CONTINUOUS
10
-5.712367
20
-40.544853
30
0.0
11
-5.712165
21
-40.449200
31
0.0
0
LINE
8
0
6
CONTINUOUS
10
16.363425
20
-45.966193
30
0.0
11
17.030940
21
-46.026757
31
0.0
0
LINE
8
0
6
CONTINUOUS
10
17.026893
20
-39.236285
30
0.0
11
16.362818
21
-39.301730
31
0.0
0
LINE
8
0
6
CONTINUOUS
10
16.362818
20
-39.301730
30
0.0
11
15.722622
21
-39.491859
31
0.0
0
LINE
8
0
6
CONTINUOUS
10
15.722622
20
-39.491859
30
0.0
11
15.128771
21
-39.812786
31
0.0
0
LINE
8
0
6
CONTINUOUS
10
15.128771
20
-39.812786
30
0.0
11
14.615675
21
-40.238937
31
0.0
0
LINE
8
0
6
CONTINUOUS
10
14.615675
20
-40.238937
30
0.0
11
14.497357
21
-40.382986
31
0.0
0
LINE
8
0
6
CONTINUOUS
10
14.052960
20
-44.241457
30
0.0
11
14.210295
21
-44.532163
31
0.0
0
LINE
8
0
6
CONTINUOUS
10
14.210295
20
-44.532163
30
0.0
11
14.632468
21
-45.048749
31
0.0
0
LINE
8
0
6
CONTINUOUS
10
14.632468
20
-45.048749
30
0.0
11
15.151717
21
-45.463900
31
0.0
0
LINE
8
0
6
CONTINUOUS
10
15.151717
20
-45.463900
30
0.0
11
15.734043
21
-45.771702
31
0.0
0
LINE
8
0
6
CONTINUOUS
10
15.734043
20
-45.771702
30
0.0
11
16.363425
21
-45.966193
31
0.0
0
LINE
8
0
6
CONTINUOUS
10
16.363425
20
-45.966193
30
0.0
11
17.030940
21
-46.026757
31
0.0
0
LINE
8
0
6
CONTINUOUS
10
17.030940
20
-46.026757
30
0.0
11
17.685142
21
-45.960806
31
0.0
0
LINE
8
0
6
CONTINUOUS
10
17.685142
20
-45.960806
30
0.0
11
18.316294
21
-45.774655
31
0.0
0
LINE
8
0
6
CONTINUOUS
10
18.316294
20
-45.774655
30
0.0
11
18.906547
21
-45.457167
31
0.0
0
LINE
8
0
6
CONTINUOUS
10
18.906547
20
-45.457167
30
0.0
11
19.415267
21
-45.039884
31
0.0
0
LINE
8
0
6
CONTINUOUS
10
19.415267
20
-45.039884
30
0.0
11
19.838371
21
-44.534740
31
0.0
0
LINE
8
0
6
CONTINUOUS
10
19.838371
20
-44.534740
30
0.0
11
20.019987
21
-44.196608
31
0.0
0
LINE
8
0
6
CONTINUOUS
10
19.584011
20
-40.421534
30
0.0
11
19.436560
21
-40.238737
31
0.0
0
LINE
8
0
6
CONTINUOUS
10
19.436560
20
-40.238737
30
0.0
11
18.921378
21
-39.817080
31
0.0
0
LINE
8
0
6
CONTINUOUS
10
18.921378
20
-39.817080
30
0.0
11
18.335600
21
-39.500004
31
0.0
0
LINE
8
0
6
CONTINUOUS
10
18.335600
20
-39.500004
30
0.0
11
17.692610
21
-39.297888
31
0.0
0
LINE
8
0
6
CONTINUOUS
10
17.692610
20
-39.297888
30
0.0
11
17.026893
21
-39.236285
31
0.0
0
LINE
8
0
6
CONTINUOUS
10
17.935339
20
-40.405796
30
0.0
11
16.978237
21
-40.397228
31
0.0
0
LINE
8
0
6
CONTINUOUS
10
17.028601
20
-39.299026
30
0.0
11
16.374152
21
-39.363458
31
0.0
0
LINE
8
0
6
CONTINUOUS
10
16.374152
20
-39.363458
30
0.0
11
15.744701
21
-39.554047
31
0.0
0
LINE
8
0
6
CONTINUOUS
10
15.744701
20
-39.554047
30
0.0
11
15.165641
21
-39.863987
31
0.0
0
LINE
8
0
6
CONTINUOUS
10
15.165641
20
-39.863987
30
0.0
11
14.657607
21
-40.281484
31
0.0
0
LINE
8
0
6
CONTINUOUS
10
14.657607
20
-40.281484
30
0.0
11
14.574052
21
-40.383317
31
0.0
0
LINE
8
0
6
CONTINUOUS
10
14.095426
20
-44.241322
30
0.0
11
14.242327
21
-44.514032
31
0.0
0
LINE
8
0
6
CONTINUOUS
10
14.242327
20
-44.514032
30
0.0
11
14.658812
21
-45.022372
31
0.0
0
LINE
8
0
6
CONTINUOUS
10
14.658812
20
-45.022372
30
0.0
11
15.168993
21
-45.435066
31
0.0
0
LINE
8
0
6
CONTINUOUS
10
15.168993
20
-45.435066
30
0.0
11
15.748279
21
-45.742771
31
0.0
0
LINE
8
0
6
CONTINUOUS
10
15.748279
20
-45.742771
30
0.0
11
16.375606
21
-45.934356
31
0.0
0
LINE
8
0
6
CONTINUOUS
10
16.375606
20
-45.934356
30
0.0
11
17.028488
21
-45.995784
31
0.0
0
LINE
8
0
6
CONTINUOUS
10
17.028488
20
-45.995784
30
0.0
11
17.680526
21
-45.930774
31
0.0
0
LINE
8
0
6
CONTINUOUS
10
17.680526
20
-45.930774
30
0.0
11
18.308501
21
-45.742727
31
0.0
0
LINE
8
0
6
CONTINUOUS
10
18.308501
20
-45.742727
30
0.0
11
18.886352
21
-45.432730
31
0.0
0
LINE
8
0
6
CONTINUOUS
10
18.886352
20
-45.432730
30
0.0
11
19.393298
21
-45.017134
31
0.0
0
LINE
8
0
6
CONTINUOUS
10
19.393298
20
-45.017134
30
0.0
11
19.812056
21
-44.512117
31
0.0
0
LINE
8
0
6
CONTINUOUS
10
19.812056
20
-44.512117
30
0.0
11
19.980946
21
-44.197037
31
0.0
0
LINE
8
0
6
CONTINUOUS
10
19.512856
20
-40.420855
30
0.0
11
19.399153
21
-40.282004
31
0.0
0
LINE
8
0
6
CONTINUOUS
10
19.399153
20
-40.282004
30
0.0
11
18.890990
21
-39.864910
31
0.0
0
LINE
8
0
6
CONTINUOUS
10
18.890990
20
-39.864910
30
0.0
11
18.311362
21
-39.554607
31
0.0
0
LINE
8
0
6
CONTINUOUS
10
18.311362
20
-39.554607
30
0.0
11
17.683131
21
-39.363178
31
0.0
0
LINE
8
0
6
CONTINUOUS
10
17.683131
20
-39.363178
30
0.0
11
17.028601
21
-39.299026
31
0.0
0
LINE
8
0
6
CONTINUOUS
10
10.518259
20
-44.252730
30
0.0
11
16.218737
21
-44.234550
31
0.0
0
LINE
8
0
6
CONTINUOUS
10
9.503325
20
-40.361390
30
0.0
11
16.218868
21
-40.390430
31
0.0
0
LINE
8
0
6
CONTINUOUS
10
17.935401
20
-44.219486
30
0.0
11
20.076483
21
-44.195988
31
0.0
0
LINE
8
0
6
CONTINUOUS
10
17.935339
20
-40.405796
30
0.0
11
20.076483
21
-40.426235
31
0.0
0
LINE
8
0
6
CONTINUOUS
10
16.218737
20
-44.234550
30
0.0
11
16.978644
21
-44.229535
31
0.0
0
LINE
8
0
6
CONTINUOUS
10
16.218868
20
-40.390430
30
0.0
11
16.978237
21
-40.397228
31
0.0
0
LINE
8
0
6
CONTINUOUS
10
17.935401
20
-44.219486
30
0.0
11
16.978644
21
-44.229535
31
0.0
0
LINE
8
0
6
CONTINUOUS
10
20.076483
20
-44.195988
30
0.0
11
20.102408
21
-44.195837
31
0.0
0
LINE
8
0
6
CONTINUOUS
10
20.076483
20
-40.426235
30
0.0
11
20.102377
21
-40.426366
31
0.0
0
LINE
8
0
6
CONTINUOUS
10
20.180182
20
-44.195386
30
0.0
11
24.608005
21
-44.150102
31
0.0
0
LINE
8
0
6
CONTINUOUS
10
20.180052
20
-40.426758
30
0.0
11
22.635301
21
-40.448599
31
0.0
0
LINE
8
0
6
CONTINUOUS
10
20.154258
20
-44.195537
30
0.0
11
20.180182
21
-44.195386
31
0.0
0
LINE
8
0
6
CONTINUOUS
10
20.128334
20
-44.091992
30
0.0
11
20.154258
21
-44.195537
31
0.0
0
LINE
8
0
6
CONTINUOUS
10
20.154258
20
-44.195537
30
0.0
11
20.154318
21
-44.136564
31
0.0
0
LINE
8
0
6
CONTINUOUS
10
20.102408
20
-44.195837
30
0.0
11
20.128334
21
-44.091992
31
0.0
0
LINE
8
0
6
CONTINUOUS
10
20.102432
20
-44.136868
30
0.0
11
20.102408
21
-44.195837
31
0.0
0
LINE
8
0
6
CONTINUOUS
10
20.128334
20
-44.091992
30
0.0
11
20.128376
21
-44.036258
31
0.0
0
LINE
8
0
6
CONTINUOUS
10
20.154318
20
-44.136564
30
0.0
11
20.154379
21
-43.950797
31
0.0
0
LINE
8
0
6
CONTINUOUS
10
20.102451
20
-43.951074
30
0.0
11
20.102432
21
-44.136868
31
0.0
0
LINE
8
0
6
CONTINUOUS
10
20.128376
20
-44.036258
30
0.0
11
20.128413
21
-43.860677
31
0.0
0
LINE
8
0
6
CONTINUOUS
10
20.154379
20
-43.950797
30
0.0
11
20.154437
21
-43.651402
31
0.0
0
LINE
8
0
6
CONTINUOUS
10
20.102469
20
-43.651632
30
0.0
11
20.102451
21
-43.951074
31
0.0
0
LINE
8
0
6
CONTINUOUS
10
20.128413
20
-43.860677
30
0.0
11
20.128448
21
-43.577697
31
0.0
0
LINE
8
0
6
CONTINUOUS
10
20.154437
20
-43.651402
30
0.0
11
20.154463
21
-43.257892
31
0.0
0
LINE
8
0
6
CONTINUOUS
10
20.102478
20
-43.258048
30
0.0
11
20.102469
21
-43.651632
31
0.0
0
LINE
8
0
6
CONTINUOUS
10
20.128448
20
-43.577697
30
0.0
11
20.128462
21
-43.205756
31
0.0
0
LINE
8
0
6
CONTINUOUS
10
20.154463
20
-43.257892
30
0.0
11
20.154463
21
-42.802087
31
0.0
0
LINE
8
0
6
CONTINUOUS
10
20.102478
20
-42.802192
30
0.0
11
20.102478
21
-43.258048
31
0.0
0
LINE
8
0
6
CONTINUOUS
10
20.128462
20
-43.205756
30
0.0
11
20.128462
21
-42.774951
31
0.0
0
LINE
8
0
6
CONTINUOUS
10
20.154463
20
-42.802087
30
0.0
11
20.154452
21
-42.305837
31
0.0
0
LINE
8
0
6
CONTINUOUS
10
20.102478
20
-42.305841
30
0.0
11
20.102478
21
-42.802192
31
0.0
0
LINE
8
0
6
CONTINUOUS
10
20.128462
20
-42.774951
30
0.0
11
20.128455
21
-42.305897
31
0.0
0
LINE
8
0
6
CONTINUOUS
10
20.154452
20
-42.305837
30
0.0
11
20.154434
21
-41.811273
31
0.0
0
LINE
8
0
6
CONTINUOUS
10
20.102469
20
-41.811184
30
0.0
11
20.102478
21
-42.305841
31
0.0
0
LINE
8
0
6
CONTINUOUS
10
20.128455
20
-42.305897
30
0.0
11
20.128443
21
-41.838442
31
0.0
0
LINE
8
0
6
CONTINUOUS
10
20.154434
20
-41.811273
30
0.0
11
20.154983
21
-41.349362
31
0.0
0
LINE
8
0
6
CONTINUOUS
10
20.102653
20
-41.349225
30
0.0
11
20.102469
21
-41.811184
31
0.0
0
LINE
8
0
6
CONTINUOUS
10
20.128443
20
-41.838442
30
0.0
11
20.128791
21
-41.401867
31
0.0
0
LINE
8
0
6
CONTINUOUS
10
20.154983
20
-41.349362
30
0.0
11
20.154468
21
-40.962799
31
0.0
0
LINE
8
0
6
CONTINUOUS
10
20.102478
20
-40.962589
30
0.0
11
20.102653
21
-41.349225
31
0.0
0
LINE
8
0
6
CONTINUOUS
10
20.128791
20
-41.401867
30
0.0
11
20.128466
21
-41.036492
31
0.0
0
LINE
8
0
6
CONTINUOUS
10
20.154468
20
-40.962799
30
0.0
11
20.154289
21
-40.667910
31
0.0
0
LINE
8
0
6
CONTINUOUS
10
20.102420
20
-40.667658
30
0.0
11
20.102478
21
-40.962589
31
0.0
0
LINE
8
0
6
CONTINUOUS
10
20.128466
20
-41.036492
30
0.0
11
20.128356
21
-40.757773
31
0.0
0
LINE
8
0
6
CONTINUOUS
10
20.154289
20
-40.667910
30
0.0
11
20.154220
21
-40.486787
31
0.0
0
LINE
8
0
6
CONTINUOUS
10
20.102397
20
-40.486531
30
0.0
11
20.102420
21
-40.667658
31
0.0
0
LINE
8
0
6
CONTINUOUS
10
20.128356
20
-40.757773
30
0.0
11
20.128310
21
-40.586592
31
0.0
0
LINE
8
0
6
CONTINUOUS
10
20.154220
20
-40.486787
30
0.0
11
20.154158
21
-40.426628
31
0.0
0
LINE
8
0
6
CONTINUOUS
10
20.102377
20
-40.426366
30
0.0
11
20.102397
21
-40.486531
31
0.0
0
LINE
8
0
6
CONTINUOUS
10
20.128310
20
-40.586592
30
0.0
11
20.128272
21
-40.529733
31
0.0
0
LINE
8
0
6
CONTINUOUS
10
20.154158
20
-40.426628
30
0.0
11
20.180052
21
-40.426758
31
0.0
0
LINE
8
0
6
CONTINUOUS
10
20.128272
20
-40.529733
30
0.0
11
20.154158
21
-40.426628
31
0.0
0
LINE
8
0
6
CONTINUOUS
10
20.102377
20
-40.426366
30
0.0
11
20.128272
21
-40.529733
31
0.0
0
LINE
8
0
6
CONTINUOUS
10
24.688933
20
-44.149274
30
0.0
11
24.608005
21
-44.150102
31
0.0
0
LINE
8
0
6
CONTINUOUS
10
16.363425
20
-45.966193
30
0.0
11
17.030940
21
-46.026757
31
0.0
0
LINE
8
0
6
CONTINUOUS
10
24.688933
20
-44.089802
30
0.0
11
24.688933
21
-44.149274
31
0.0
0
LINE
8
0
6
CONTINUOUS
10
24.688933
20
-43.908045
30
0.0
11
24.688933
21
-44.089802
31
0.0
0
LINE
8
0
6
CONTINUOUS
10
24.688933
20
-43.615953
30
0.0
11
24.688933
21
-43.908045
31
0.0
0
LINE
8
0
6
CONTINUOUS
10
24.688933
20
-43.233771
30
0.0
11
24.688933
21
-43.615953
31
0.0
0
LINE
8
0
6
CONTINUOUS
10
24.688933
20
-42.785865
30
0.0
11
24.688933
21
-43.233771
31
0.0
0
LINE
8
0
6
CONTINUOUS
10
24.688933
20
-42.305222
30
0.0
11
24.688933
21
-42.785865
31
0.0
0
LINE
8
0
6
CONTINUOUS
10
24.688933
20
-41.825012
30
0.0
11
24.688933
21
-42.305222
31
0.0
0
LINE
8
0
6
CONTINUOUS
10
24.688933
20
-41.461551
30
0.0
11
24.688933
21
-41.825012
31
0.0
0
LINE
8
0
6
CONTINUOUS
10
22.636137
20
-40.397620
30
0.0
11
22.692336
21
-40.398443
31
0.0
0
LINE
8
0
6
CONTINUOUS
10
24.688933
20
-41.495718
30
0.0
11
24.712073
21
-41.496064
31
0.0
0
LINE
8
0
6
CONTINUOUS
10
24.663707
20
-40.426819
30
0.0
11
24.718235
21
-40.428102
31
0.0
0
LINE
8
0
6
CONTINUOUS
10
22.692336
20
-40.398443
30
0.0
11
24.663707
21
-40.426819
31
0.0
0
LINE
8
0
6
CONTINUOUS
10
22.635894
20
-40.910609
30
0.0
11
22.636665
21
-40.798950
31
0.0
0
LINE
8
0
6
CONTINUOUS
10
22.636665
20
-40.798950
30
0.0
11
22.637152
21
-40.657608
31
0.0
0
LINE
8
0
6
CONTINUOUS
10
22.637152
20
-40.657608
30
0.0
11
22.637226
21
-40.524457
31
0.0
0
LINE
8
0
6
CONTINUOUS
10
22.636840
20
-40.419111
30
0.0
11
22.636137
21
-40.397620
31
0.0
0
LINE
8
0
6
CONTINUOUS
10
22.636137
20
-40.397620
30
0.0
11
22.635301
21
-40.448599
31
0.0
0
LINE
8
0
6
CONTINUOUS
10
22.630607
20
-41.476739
30
0.0
11
22.635894
21
-40.910609
31
0.0
0
LINE
8
0
6
CONTINUOUS
10
22.635284
20
-40.449680
30
0.0
11
22.630001
21
-41.015807
31
0.0
0
LINE
8
0
6
CONTINUOUS
10
22.637226
20
-40.524457
30
0.0
11
22.636840
21
-40.419111
31
0.0
0
LINE
8
0
6
CONTINUOUS
10
24.718176
20
-40.818418
30
0.0
11
24.717361
21
-40.929934
31
0.0
0
LINE
8
0
6
CONTINUOUS
10
24.718783
20
-40.677468
30
0.0
11
24.718176
21
-40.818418
31
0.0
0
LINE
8
0
6
CONTINUOUS
10
24.719016
20
-40.544853
30
0.0
11
24.718783
21
-40.677468
31
0.0
0
LINE
8
0
6
CONTINUOUS
10
24.718235
20
-40.428102
30
0.0
11
24.718817
21
-40.449200
31
0.0
0
LINE
8
0
6
CONTINUOUS
10
24.717361
20
-40.929934
30
0.0
11
24.712073
21
-41.496064
31
0.0
0
LINE
8
0
6
CONTINUOUS
10
24.718817
20
-40.449200
30
0.0
11
24.719016
21
-40.544853
31
0.0
0
LINE
8
0
6
CONTINUOUS
10
-21.905710
20
37.109133
30
0.0
11
-21.868138
21
37.229502
31
0.0
0
LINE
8
0
6
CONTINUOUS
10
-21.905710
20
37.230824
30
0.0
11
-21.905710
21
37.109133
31
0.0
0
LINE
8
0
6
CONTINUOUS
10
-21.506040
20
37.192026
30
0.0
11
-21.506040
21
37.218811
31
0.0
0
LINE
8
0
6
CONTINUOUS
10
-21.668302
20
37.270952
30
0.0
11
-21.506040
21
37.192026
31
0.0
0
LINE
8
0
6
CONTINUOUS
10
-21.669211
20
38.723795
30
0.0
11
-21.479609
21
38.778918
31
0.0
0
LINE
8
0
6
CONTINUOUS
10
-21.479609
20
38.778918
30
0.0
11
-21.301889
21
38.711931
31
0.0
0
LINE
8
0
6
CONTINUOUS
10
-21.479609
20
38.858728
30
0.0
11
-21.479609
21
38.778918
31
0.0
0
LINE
8
0
6
CONTINUOUS
10
-21.681098
20
38.601679
30
0.0
11
-21.669211
21
38.723795
31
0.0
0
LINE
8
0
6
CONTINUOUS
10
-21.681098
20
38.701615
30
0.0
11
-21.681098
21
38.601679
31
0.0
0
LINE
8
0
6
CONTINUOUS
10
-20.980199
20
39.386309
30
0.0
11
-20.774684
21
39.417216
31
0.0
0
LINE
8
0
6
CONTINUOUS
10
-21.036481
20
39.268381
30
0.0
11
-20.980199
21
39.386309
31
0.0
0
LINE
8
0
6
CONTINUOUS
10
-21.036481
20
39.355269
30
0.0
11
-21.036481
21
39.268381
31
0.0
0
LINE
8
0
6
CONTINUOUS
10
-17.261476
20
40.395022
30
0.0
11
-17.117679
21
40.305018
31
0.0
0
LINE
8
0
6
CONTINUOUS
10
-17.532246
20
40.251620
30
0.0
11
-17.468760
21
40.368326
31
0.0
0
LINE
8
0
6
CONTINUOUS
10
-17.532246
20
40.297273
30
0.0
11
-17.532246
21
40.251620
31
0.0
0
LINE
8
0
6
CONTINUOUS
10
-19.968745
20
39.919039
30
0.0
11
-19.756536
21
39.924326
31
0.0
0
LINE
8
0
6
CONTINUOUS
10
-19.756536
20
39.924326
30
0.0
11
-19.642480
21
39.821146
31
0.0
0
LINE
8
0
6
CONTINUOUS
10
-19.756536
20
40.006821
30
0.0
11
-19.756536
21
39.924326
31
0.0
0
LINE
8
0
6
CONTINUOUS
10
-18.668432
20
40.235735
30
0.0
11
-18.459051
21
40.215166
31
0.0
0
LINE
8
0
6
CONTINUOUS
10
-18.459051
20
40.215166
30
0.0
11
-18.385289
21
40.100474
31
0.0
0
LINE
8
0
6
CONTINUOUS
10
-18.459051
20
40.298339
30
0.0
11
-18.459051
21
40.215166
31
0.0
0
LINE
8
0
6
CONTINUOUS
10
-18.804054
20
40.141604
30
0.0
11
-18.668432
21
40.235735
31
0.0
0
LINE
8
0
6
CONTINUOUS
10
-18.804054
20
40.218959
30
0.0
11
-18.804054
21
40.141604
31
0.0
0
LINE
8
0
6
CONTINUOUS
10
-21.990083
20
37.956713
30
0.0
11
-21.827821
21
38.035631
31
0.0
0
LINE
8
0
6
CONTINUOUS
10
-21.990083
20
38.067998
30
0.0
11
-21.990083
21
37.956713
31
0.0
0
LINE
8
0
6
CONTINUOUS
10
-21.627985
20
37.994181
30
0.0
11
-21.590412
21
37.873812
31
0.0
0
LINE
8
0
6
CONTINUOUS
10
-18.591144
20
37.312945
30
0.0
11
-18.401542
21
37.368075
31
0.0
0
LINE
8
0
6
CONTINUOUS
10
-18.401542
20
37.368075
30
0.0
11
-18.223822
21
37.301089
31
0.0
0
LINE
8
0
6
CONTINUOUS
10
-18.401542
20
37.436932
30
0.0
11
-18.401542
21
37.368075
31
0.0
0
LINE
8
0
6
CONTINUOUS
10
-18.603029
20
37.190836
30
0.0
11
-18.591144
21
37.312945
31
0.0
0
LINE
8
0
6
CONTINUOUS
10
-18.603029
20
37.267713
30
0.0
11
-18.603029
21
37.190836
31
0.0
0
LINE
8
0
6
CONTINUOUS
10
-19.206757
20
37.541827
30
0.0
11
-19.017155
21
37.596957
31
0.0
0
LINE
8
0
6
CONTINUOUS
10
-19.218643
20
37.419718
30
0.0
11
-19.206757
21
37.541827
31
0.0
0
LINE
8
0
6
CONTINUOUS
10
-19.218643
20
37.511391
30
0.0
11
-19.218643
21
37.419718
31
0.0
0
LINE
8
0
6
CONTINUOUS
10
-19.822370
20
37.806063
30
0.0
11
-19.632768
21
37.861193
31
0.0
0
LINE
8
0
6
CONTINUOUS
10
-19.834256
20
37.683955
30
0.0
11
-19.822370
21
37.806063
31
0.0
0
LINE
8
0
6
CONTINUOUS
10
-19.834256
20
37.765126
30
0.0
11
-19.834256
21
37.683955
31
0.0
0
LINE
8
0
6
CONTINUOUS
10
-20.437984
20
38.092226
30
0.0
11
-20.248382
21
38.147349
31
0.0
0
LINE
8
0
6
CONTINUOUS
10
-20.248382
20
38.147349
30
0.0
11
-20.070663
21
38.080370
31
0.0
0
LINE
8
0
6
CONTINUOUS
10
-20.248382
20
38.223096
30
0.0
11
-20.248382
21
38.147349
31
0.0
0
LINE
8
0
6
CONTINUOUS
10
-20.449870
20
37.970110
30
0.0
11
-20.437984
21
38.092226
31
0.0
0
LINE
8
0
6
CONTINUOUS
10
-20.449870
20
38.066780
30
0.0
11
-20.449870
21
37.970110
31
0.0
0
LINE
8
0
6
CONTINUOUS
10
-21.053599
20
38.385119
30
0.0
11
-20.863995
21
38.440241
31
0.0
0
LINE
8
0
6
CONTINUOUS
10
-20.863995
20
38.440241
30
0.0
11
-20.686275
21
38.373270
31
0.0
0
LINE
8
0
6
CONTINUOUS
10
-20.863995
20
38.512394
30
0.0
11
-20.863995
21
38.440241
31
0.0
0
LINE
8
0
6
CONTINUOUS
10
-21.065484
20
38.263010
30
0.0
11
-21.053599
21
38.385119
31
0.0
0
LINE
8
0
6
CONTINUOUS
10
-21.065484
20
38.351976
30
0.0
11
-21.065484
21
38.263010
31
0.0
0
LINE
8
0
6
CONTINUOUS
10
-18.000175
20
37.866205
30
0.0
11
-17.794660
21
37.897105
31
0.0
0
LINE
8
0
6
CONTINUOUS
10
-18.056458
20
37.748270
30
0.0
11
-18.000175
21
37.866205
31
0.0
0
LINE
8
0
6
CONTINUOUS
10
-18.056458
20
37.816202
30
0.0
11
-18.056458
21
37.748270
31
0.0
0
LINE
8
0
6
CONTINUOUS
10
-18.390665
20
38.164355
30
0.0
11
-18.241431
21
38.077326
31
0.0
0
LINE
8
0
6
CONTINUOUS
10
-19.192184
20
38.423807
30
0.0
11
-18.986669
21
38.454706
31
0.0
0
LINE
8
0
6
CONTINUOUS
10
-18.986669
20
38.454706
30
0.0
11
-18.837435
21
38.367686
31
0.0
0
LINE
8
0
6
CONTINUOUS
10
-18.986669
20
38.527817
30
0.0
11
-18.986669
21
38.454706
31
0.0
0
LINE
8
0
6
CONTINUOUS
10
-19.248466
20
38.305880
30
0.0
11
-19.192184
21
38.423807
31
0.0
0
LINE
8
0
6
CONTINUOUS
10
-19.248466
20
38.388158
30
0.0
11
-19.248466
21
38.305880
31
0.0
0
LINE
8
0
6
CONTINUOUS
10
-19.788190
20
38.716517
30
0.0
11
-19.582676
21
38.747416
31
0.0
0
LINE
8
0
6
CONTINUOUS
10
-19.582676
20
38.747416
30
0.0
11
-19.433441
21
38.660387
31
0.0
0
LINE
8
0
6
CONTINUOUS
10
-19.582676
20
38.829725
30
0.0
11
-19.582676
21
38.747416
31
0.0
0
LINE
8
0
6
CONTINUOUS
10
-19.788190
20
38.716517
30
0.0
11
-19.788190
21
38.874570
31
0.0
0
LINE
8
0
6
CONTINUOUS
10
-19.844472
20
38.598589
30
0.0
11
-19.788190
21
38.716517
31
0.0
0
LINE
8
0
6
CONTINUOUS
10
-19.844472
20
38.672392
30
0.0
11
-19.844472
21
38.598589
31
0.0
0
LINE
8
0
6
CONTINUOUS
10
-20.384196
20
39.060816
30
0.0
11
-20.178680
21
39.091723
31
0.0
0
LINE
8
0
6
CONTINUOUS
10
-20.178680
20
39.091723
30
0.0
11
-20.029445
21
39.004694
31
0.0
0
LINE
8
0
6
CONTINUOUS
10
-20.178680
20
39.167313
30
0.0
11
-20.178680
21
39.091723
31
0.0
0
LINE
8
0
6
CONTINUOUS
10
-20.440476
20
38.942889
30
0.0
11
-20.384196
21
39.060816
31
0.0
0
LINE
8
0
6
CONTINUOUS
10
-20.440476
20
39.034877
30
0.0
11
-20.440476
21
38.942889
31
0.0
0
LINE
8
0
6
CONTINUOUS
10
-17.430638
20
38.400004
30
0.0
11
-17.218429
21
38.405291
31
0.0
0
LINE
8
0
6
CONTINUOUS
10
-17.218429
20
38.405291
30
0.0
11
-17.104373
21
38.302119
31
0.0
0
LINE
8
0
6
CONTINUOUS
10
-17.218429
20
38.485744
30
0.0
11
-17.218429
21
38.405291
31
0.0
0
LINE
8
0
6
CONTINUOUS
10
-17.430638
20
38.400004
30
0.0
11
-17.430638
21
38.520746
31
0.0
0
LINE
8
0
6
CONTINUOUS
10
-17.528790
20
38.291544
30
0.0
11
-17.476039
21
38.349835
31
0.0
0
LINE
8
0
6
CONTINUOUS
10
-17.476039
20
38.349835
30
0.0
11
-17.430638
21
38.400004
31
0.0
0
LINE
8
0
6
CONTINUOUS
10
-18.699690
20
39.107958
30
0.0
11
-18.487484
21
39.113245
31
0.0
0
LINE
8
0
6
CONTINUOUS
10
-18.487484
20
39.113245
30
0.0
11
-18.373428
21
39.010073
31
0.0
0
LINE
8
0
6
CONTINUOUS
10
-18.487484
20
39.194188
30
0.0
11
-18.487484
21
39.113245
31
0.0
0
LINE
8
0
6
CONTINUOUS
10
-18.797843
20
38.999499
30
0.0
11
-18.699690
21
39.107958
31
0.0
0
LINE
8
0
6
CONTINUOUS
10
-18.797843
20
39.070698
30
0.0
11
-18.797843
21
38.999499
31
0.0
0
LINE
8
0
6
CONTINUOUS
10
-19.334218
20
39.516314
30
0.0
11
-19.122010
21
39.521601
31
0.0
0
LINE
8
0
6
CONTINUOUS
10
-19.122010
20
39.521601
30
0.0
11
-19.007953
21
39.418429
31
0.0
0
LINE
8
0
6
CONTINUOUS
10
-19.122010
20
39.594462
30
0.0
11
-19.122010
21
39.521601
31
0.0
0
LINE
8
0
6
CONTINUOUS
10
-19.432370
20
39.407847
30
0.0
11
-19.334218
21
39.516314
31
0.0
0
LINE
8
0
6
CONTINUOUS
10
-19.432370
20
39.479035
30
0.0
11
-19.432370
21
39.407847
31
0.0
0
LINE
8
0
6
CONTINUOUS
10
-17.390342
20
39.357516
30
0.0
11
-17.180960
21
39.336954
31
0.0
0
LINE
8
0
6
CONTINUOUS
10
-17.180960
20
39.336954
30
0.0
11
-17.107199
21
39.222262
31
0.0
0
LINE
8
0
6
CONTINUOUS
10
-17.180960
20
39.420809
30
0.0
11
-17.180960
21
39.336954
31
0.0
0
LINE
8
0
6
CONTINUOUS
10
-17.390342
20
39.357516
30
0.0
11
-17.390342
21
39.494763
31
0.0
0
LINE
8
0
6
CONTINUOUS
10
-17.525965
20
39.263392
30
0.0
11
-17.390342
21
39.357516
31
0.0
0
LINE
8
0
6
CONTINUOUS
10
-17.525965
20
39.333306
30
0.0
11
-17.525965
21
39.263392
31
0.0
0
LINE
8
0
6
CONTINUOUS
10
-19.035125
20
36.782984
30
0.0
11
-18.872862
21
36.861910
31
0.0
0
LINE
8
0
6
CONTINUOUS
10
-19.035125
20
36.878275
30
0.0
11
-19.035125
21
36.782984
31
0.0
0
LINE
8
0
6
CONTINUOUS
10
-18.673028
20
36.820460
30
0.0
11
-18.635453
21
36.700091
31
0.0
0
LINE
8
0
6
CONTINUOUS
10
-19.773864
20
37.041270
30
0.0
11
-19.611601
21
37.120188
31
0.0
0
LINE
8
0
6
CONTINUOUS
10
-19.773864
20
37.132470
30
0.0
11
-19.773864
21
37.041270
31
0.0
0
LINE
8
0
6
CONTINUOUS
10
-19.611601
20
37.120188
30
0.0
11
-19.411766
21
37.078738
31
0.0
0
LINE
8
0
6
CONTINUOUS
10
-19.611601
20
37.192982
30
0.0
11
-19.611601
21
37.120188
31
0.0
0
LINE
8
0
6
CONTINUOUS
10
-20.512603
20
37.312769
30
0.0
11
-20.350341
21
37.391680
31
0.0
0
LINE
8
0
6
CONTINUOUS
10
-20.512603
20
37.413900
30
0.0
11
-20.512603
21
37.312769
31
0.0
0
LINE
8
0
6
CONTINUOUS
10
-20.350341
20
37.391680
30
0.0
11
-20.150506
21
37.350237
31
0.0
0
LINE
8
0
6
CONTINUOUS
10
-20.350341
20
37.464271
30
0.0
11
-20.350341
21
37.391680
31
0.0
0
LINE
8
0
6
CONTINUOUS
10
-20.150506
20
37.350237
30
0.0
11
-20.112934
21
37.229861
31
0.0
0
LINE
8
0
6
CONTINUOUS
10
-20.150506
20
37.392950
30
0.0
11
-20.150506
21
37.350237
31
0.0
0
LINE
8
0
6
CONTINUOUS
10
-21.251342
20
37.598254
30
0.0
11
-21.089081
21
37.677180
31
0.0
0
LINE
8
0
6
CONTINUOUS
10
-21.251342
20
37.710586
30
0.0
11
-21.251342
21
37.598254
31
0.0
0
LINE
8
0
6
CONTINUOUS
10
-21.089081
20
37.677180
30
0.0
11
-20.889245
21
37.635729
31
0.0
0
LINE
8
0
6
CONTINUOUS
10
-21.089081
20
37.757869
30
0.0
11
-21.089081
21
37.677180
31
0.0
0
LINE
8
0
6
CONTINUOUS
10
-20.889245
20
37.635729
30
0.0
11
-20.851672
21
37.515360
31
0.0
0
LINE
8
0
6
CONTINUOUS
10
-20.889245
20
37.681149
30
0.0
11
-20.889245
21
37.635729
31
0.0
0
LINE
8
0
6
CONTINUOUS
10
-19.513236
20
35.350208
30
0.0
11
-19.350973
21
35.429134
31
0.0
0
LINE
8
0
6
CONTINUOUS
10
-19.513236
20
35.447523
30
0.0
11
-19.513236
21
35.350208
31
0.0
0
LINE
8
0
6
CONTINUOUS
10
-19.350973
20
35.429134
30
0.0
11
-19.151138
21
35.387683
31
0.0
0
LINE
8
0
6
CONTINUOUS
10
-19.350973
20
35.489486
30
0.0
11
-19.350973
21
35.429134
31
0.0
0
LINE
8
0
6
CONTINUOUS
10
-19.393707
20
35.656726
30
0.0
11
-19.231446
21
35.735652
31
0.0
0
LINE
8
0
6
CONTINUOUS
10
-19.393707
20
35.760419
30
0.0
11
-19.393707
21
35.656726
31
0.0
0
LINE
8
0
6
CONTINUOUS
10
-19.231446
20
35.735652
30
0.0
11
-19.031610
21
35.694202
31
0.0
0
LINE
8
0
6
CONTINUOUS
10
-19.231446
20
35.793386
30
0.0
11
-19.231446
21
35.735652
31
0.0
0
LINE
8
0
6
CONTINUOUS
10
-19.031610
20
35.694202
30
0.0
11
-18.994038
21
35.573833
31
0.0
0
LINE
8
0
6
CONTINUOUS
10
-19.031610
20
35.744279
30
0.0
11
-19.031610
21
35.694202
31
0.0
0
LINE
8
0
6
CONTINUOUS
10
-19.274181
20
36.019542
30
0.0
11
-19.111917
21
36.098468
31
0.0
0
LINE
8
0
6
CONTINUOUS
10
-19.274181
20
36.110305
30
0.0
11
-19.274181
21
36.019542
31
0.0
0
LINE
8
0
6
CONTINUOUS
10
-19.111917
20
36.098468
30
0.0
11
-18.912083
21
36.057018
31
0.0
0
LINE
8
0
6
CONTINUOUS
10
-19.111917
20
36.165144
30
0.0
11
-19.111917
21
36.098468
31
0.0
0
LINE
8
0
6
CONTINUOUS
10
-19.154653
20
36.396166
30
0.0
11
-18.992389
21
36.475092
31
0.0
0
LINE
8
0
6
CONTINUOUS
10
-19.154653
20
36.486741
30
0.0
11
-19.154653
21
36.396166
31
0.0
0
LINE
8
0
6
CONTINUOUS
10
-18.992389
20
36.475092
30
0.0
11
-18.792554
21
36.433642
31
0.0
0
LINE
8
0
6
CONTINUOUS
10
-18.992389
20
36.539292
30
0.0
11
-18.992389
21
36.475092
31
0.0
0
LINE
8
0
6
CONTINUOUS
10
-18.792554
20
36.433642
30
0.0
11
-18.754982
21
36.313273
31
0.0
0
LINE
8
0
6
CONTINUOUS
10
-18.792554
20
36.486941
30
0.0
11
-18.792554
21
36.433642
31
0.0
0
LINE
8
0
6
CONTINUOUS
10
-21.061984
20
36.762644
30
0.0
11
-21.024411
21
36.883013
31
0.0
0
LINE
8
0
6
CONTINUOUS
10
-21.061984
20
36.884122
30
0.0
11
-21.061984
21
36.762644
31
0.0
0
LINE
8
0
6
CONTINUOUS
10
-21.024411
20
36.883013
30
0.0
11
-20.824575
21
36.924464
31
0.0
0
LINE
8
0
6
CONTINUOUS
10
-21.024411
20
36.985972
30
0.0
11
-21.024411
21
36.883013
31
0.0
0
LINE
8
0
6
CONTINUOUS
10
-20.662314
20
36.845545
30
0.0
11
-20.662314
21
36.885691
31
0.0
0
LINE
8
0
6
CONTINUOUS
10
-20.824575
20
36.924464
30
0.0
11
-20.662314
21
36.845545
31
0.0
0
LINE
8
0
6
CONTINUOUS
10
-20.824575
20
36.986510
30
0.0
11
-20.824575
21
36.924464
31
0.0
0
LINE
8
0
6
CONTINUOUS
10
-20.274507
20
36.509211
30
0.0
11
-20.236933
21
36.629580
31
0.0
0
LINE
8
0
6
CONTINUOUS
10
-20.274507
20
36.623406
30
0.0
11
-20.274507
21
36.509211
31
0.0
0
LINE
8
0
6
CONTINUOUS
10
-20.236933
20
36.629580
30
0.0
11
-20.037097
21
36.671030
31
0.0
0
LINE
8
0
6
CONTINUOUS
10
-20.236933
20
36.721181
30
0.0
11
-20.236933
21
36.629580
31
0.0
0
LINE
8
0
6
CONTINUOUS
10
-20.471376
20
36.108104
30
0.0
11
-20.433802
21
36.228473
31
0.0
0
LINE
8
0
6
CONTINUOUS
10
-20.471376
20
36.225536
30
0.0
11
-20.471376
21
36.108104
31
0.0
0
LINE
8
0
6
CONTINUOUS
10
-20.433802
20
36.228473
30
0.0
11
-20.233967
21
36.269923
31
0.0
0
LINE
8
0
6
CONTINUOUS
10
-20.433802
20
36.319746
30
0.0
11
-20.433802
21
36.228473
31
0.0
0
LINE
8
0
6
CONTINUOUS
10
-20.071704
20
36.191005
30
0.0
11
-20.071704
21
36.236141
31
0.0
0
LINE
8
0
6
CONTINUOUS
10
-20.233967
20
36.269923
30
0.0
11
-20.071704
21
36.191005
31
0.0
0
LINE
8
0
6
CONTINUOUS
10
-20.233967
20
36.326528
30
0.0
11
-20.233967
21
36.269923
31
0.0
0
LINE
8
0
6
CONTINUOUS
10
-20.555747
20
35.756587
30
0.0
11
-20.518175
21
35.876964
31
0.0
0
LINE
8
0
6
CONTINUOUS
10
-20.555747
20
35.895989
30
0.0
11
-20.555747
21
35.756587
31
0.0
0
LINE
8
0
6
CONTINUOUS
10
-20.518175
20
35.876964
30
0.0
11
-20.318340
21
35.918407
31
0.0
0
LINE
8
0
6
CONTINUOUS
10
-20.518175
20
35.976676
30
0.0
11
-20.518175
21
35.876964
31
0.0
0
LINE
8
0
6
CONTINUOUS
10
-20.156077
20
35.839488
30
0.0
11
-20.156077
21
35.874145
31
0.0
0
LINE
8
0
6
CONTINUOUS
10
-20.318340
20
35.918407
30
0.0
11
-20.156077
21
35.839488
31
0.0
0
LINE
8
0
6
CONTINUOUS
10
-20.318340
20
35.965283
30
0.0
11
-20.318340
21
35.918407
31
0.0
0
LINE
8
0
6
CONTINUOUS
10
-21.441661
20
36.396311
30
0.0
11
-21.404089
21
36.516688
31
0.0
0
LINE
8
0
6
CONTINUOUS
10
-21.441661
20
36.527128
30
0.0
11
-21.441661
21
36.396311
31
0.0
0
LINE
8
0
6
CONTINUOUS
10
-21.404089
20
36.516688
30
0.0
11
-21.204252
21
36.558138
31
0.0
0
LINE
8
0
6
CONTINUOUS
10
-21.404089
20
36.615767
30
0.0
11
-21.404089
21
36.516688
31
0.0
0
LINE
8
0
6
CONTINUOUS
10
-18.074230
20
36.688853
30
0.0
11
-17.911967
21
36.767779
31
0.0
0
LINE
8
0
6
CONTINUOUS
10
-18.074230
20
36.768097
30
0.0
11
-18.074230
21
36.688853
31
0.0
0
LINE
8
0
6
CONTINUOUS
10
-17.911967
20
36.767779
30
0.0
11
-17.712132
21
36.726328
31
0.0
0
LINE
8
0
6
CONTINUOUS
10
-17.911967
20
36.840911
30
0.0
11
-17.911967
21
36.767779
31
0.0
0
LINE
8
0
6
CONTINUOUS
10
-17.712132
20
36.726328
30
0.0
11
-17.674559
21
36.605959
31
0.0
0
LINE
8
0
6
CONTINUOUS
10
-17.712132
20
36.792399
30
0.0
11
-17.712132
21
36.726328
31
0.0
0
LINE
8
0
6
CONTINUOUS
10
-18.205714
20
35.339473
30
0.0
11
-18.043452
21
35.418399
31
0.0
0
LINE
8
0
6
CONTINUOUS
10
-18.205714
20
35.425263
30
0.0
11
-18.205714
21
35.339473
31
0.0
0
LINE
8
0
6
CONTINUOUS
10
-18.172843
20
35.648364
30
0.0
11
-18.010581
21
35.727290
31
0.0
0
LINE
8
0
6
CONTINUOUS
10
-18.172843
20
35.729046
30
0.0
11
-18.172843
21
35.648364
31
0.0
0
LINE
8
0
6
CONTINUOUS
10
-18.139971
20
35.991809
30
0.0
11
-17.977710
21
36.070735
31
0.0
0
LINE
8
0
6
CONTINUOUS
10
-18.139971
20
36.073123
30
0.0
11
-18.139971
21
35.991809
31
0.0
0
LINE
8
0
6
CONTINUOUS
10
-17.977710
20
36.070735
30
0.0
11
-17.777874
21
36.029285
31
0.0
0
LINE
8
0
6
CONTINUOUS
10
-17.977710
20
36.136265
30
0.0
11
-17.977710
21
36.070735
31
0.0
0
LINE
8
0
6
CONTINUOUS
10
-17.777874
20
36.029285
30
0.0
11
-17.740302
21
35.908908
31
0.0
0
LINE
8
0
6
CONTINUOUS
10
-17.777874
20
36.092686
30
0.0
11
-17.777874
21
36.029285
31
0.0
0
LINE
8
0
6
CONTINUOUS
10
-18.107100
20
36.341219
30
0.0
11
-17.944838
21
36.420138
31
0.0
0
LINE
8
0
6
CONTINUOUS
10
-18.107100
20
36.420641
30
0.0
11
-18.107100
21
36.341219
31
0.0
0
LINE
8
0
6
CONTINUOUS
10
-17.944838
20
36.420138
30
0.0
11
-17.745003
21
36.378687
31
0.0
0
LINE
8
0
6
CONTINUOUS
10
-17.944838
20
36.483608
30
0.0
11
-17.944838
21
36.420138
31
0.0
0
LINE
8
0
6
CONTINUOUS
10
-17.745003
20
36.378687
30
0.0
11
-17.707430
21
36.258318
31
0.0
0
LINE
8
0
6
CONTINUOUS
10
-17.745003
20
36.440564
30
0.0
11
-17.745003
21
36.378687
31
0.0
0
LINE
8
0
6
CONTINUOUS
10
-16.526062
20
36.339327
30
0.0
11
-16.526062
21
36.418497
31
0.0
0
LINE
8
0
6
CONTINUOUS
10
-16.688325
20
36.418246
30
0.0
11
-16.526062
21
36.339327
31
0.0
0
LINE
8
0
6
CONTINUOUS
10
-16.688325
20
36.418246
30
0.0
11
-16.688325
21
36.481462
31
0.0
0
LINE
8
0
6
CONTINUOUS
10
-16.888160
20
36.376803
30
0.0
11
-16.688325
21
36.418246
31
0.0
0
LINE
8
0
6
CONTINUOUS
10
-16.888160
20
36.376803
30
0.0
11
-16.888160
21
36.438253
31
0.0
0
LINE
8
0
6
CONTINUOUS
10
-16.925734
20
36.256426
30
0.0
11
-16.888160
21
36.376803
31
0.0
0
LINE
8
0
6
CONTINUOUS
10
-16.925734
20
36.331938
30
0.0
11
-16.925734
21
36.256426
31
0.0
0
LINE
8
0
6
CONTINUOUS
10
-16.493191
20
35.990993
30
0.0
11
-16.493191
21
36.071683
31
0.0
0
LINE
8
0
6
CONTINUOUS
10
-16.655454
20
36.069919
30
0.0
11
-16.493191
21
35.990993
31
0.0
0
LINE
8
0
6
CONTINUOUS
10
-16.655454
20
36.069919
30
0.0
11
-16.655454
21
36.133952
31
0.0
0
LINE
8
0
6
CONTINUOUS
10
-16.855289
20
36.028468
30
0.0
11
-16.655454
21
36.069919
31
0.0
0
LINE
8
0
6
CONTINUOUS
10
-16.855289
20
36.028468
30
0.0
11
-16.855289
21
36.090783
31
0.0
0
LINE
8
0
6
CONTINUOUS
10
-16.892863
20
35.908099
30
0.0
11
-16.855289
21
36.028468
31
0.0
0
LINE
8
0
6
CONTINUOUS
10
-16.892863
20
35.985733
30
0.0
11
-16.892863
21
35.908099
31
0.0
0
LINE
8
0
6
CONTINUOUS
10
-16.460320
20
35.650180
30
0.0
11
-16.460320
21
35.731601
31
0.0
0
LINE
8
0
6
CONTINUOUS
10
-16.622583
20
35.729091
30
0.0
11
-16.460320
21
35.650180
31
0.0
0
LINE
8
0
6
CONTINUOUS
10
-16.622583
20
35.729091
30
0.0
11
-16.622583
21
35.790172
31
0.0
0
LINE
8
0
6
CONTINUOUS
10
-16.822417
20
35.687648
30
0.0
11
-16.622583
21
35.729091
31
0.0
0
LINE
8
0
6
CONTINUOUS
10
-16.822417
20
35.687648
30
0.0
11
-16.822417
21
35.748607
31
0.0
0
LINE
8
0
6
CONTINUOUS
10
-16.859992
20
35.567272
30
0.0
11
-16.822417
21
35.687648
31
0.0
0
LINE
8
0
6
CONTINUOUS
10
-16.859992
20
35.650507
30
0.0
11
-16.859992
21
35.567272
31
0.0
0
LINE
8
0
6
CONTINUOUS
10
-16.427449
20
35.328090
30
0.0
11
-16.427449
21
35.407989
31
0.0
0
LINE
8
0
6
CONTINUOUS
10
-16.589712
20
35.407008
30
0.0
11
-16.427449
21
35.328090
31
0.0
0
LINE
8
0
6
CONTINUOUS
10
-16.589712
20
35.407008
30
0.0
11
-16.589712
21
35.466573
31
0.0
0
LINE
8
0
6
CONTINUOUS
10
-16.789547
20
35.365566
30
0.0
11
-16.589712
21
35.407008
31
0.0
0
LINE
8
0
6
CONTINUOUS
10
-16.789547
20
35.365566
30
0.0
11
-16.789547
21
35.429230
31
0.0
0
LINE
8
0
6
CONTINUOUS
10
-16.827119
20
35.245189
30
0.0
11
-16.789547
21
35.365566
31
0.0
0
LINE
8
0
6
CONTINUOUS
10
-16.827119
20
35.334143
30
0.0
11
-16.827119
21
35.245189
31
0.0
0
LINE
8
0
6
CONTINUOUS
10
-16.558934
20
36.687044
30
0.0
11
-16.558934
21
36.765817
31
0.0
0
LINE
8
0
6
CONTINUOUS
10
-16.721196
20
36.765970
30
0.0
11
-16.558934
21
36.687044
31
0.0
0
LINE
8
0
6
CONTINUOUS
10
-16.721196
20
36.765970
30
0.0
11
-16.721196
21
36.838632
31
0.0
0
LINE
8
0
6
CONTINUOUS
10
-16.921032
20
36.724520
30
0.0
11
-16.721196
21
36.765970
31
0.0
0
LINE
8
0
6
CONTINUOUS
10
-13.229075
20
36.504191
30
0.0
11
-13.191502
21
36.383822
31
0.0
0
LINE
8
0
6
CONTINUOUS
10
-13.428911
20
36.545649
30
0.0
11
-13.229075
21
36.504191
31
0.0
0
LINE
8
0
6
CONTINUOUS
10
-13.591173
20
36.466723
30
0.0
11
-13.428911
21
36.545649
31
0.0
0
LINE
8
0
6
CONTINUOUS
10
-13.591173
20
36.496018
30
0.0
11
-13.591173
21
36.466723
31
0.0
0
LINE
8
0
6
CONTINUOUS
10
-14.114988
20
35.859782
30
0.0
11
-14.077415
21
35.739406
31
0.0
0
LINE
8
0
6
CONTINUOUS
10
-14.399197
20
36.265093
30
0.0
11
-14.199360
21
36.223636
31
0.0
0
LINE
8
0
6
CONTINUOUS
10
-14.561458
20
36.186168
30
0.0
11
-14.399197
21
36.265093
31
0.0
0
LINE
8
0
6
CONTINUOUS
10
-14.561458
20
36.230117
30
0.0
11
-14.561458
21
36.186168
31
0.0
0
LINE
8
0
6
CONTINUOUS
10
-14.396229
20
36.622317
30
0.0
11
-14.358658
21
36.501940
31
0.0
0
LINE
8
0
6
CONTINUOUS
10
-14.596066
20
36.663760
30
0.0
11
-14.396229
21
36.622317
31
0.0
0
LINE
8
0
6
CONTINUOUS
10
-13.608752
20
36.872523
30
0.0
11
-13.571179
21
36.752146
31
0.0
0
LINE
8
0
6
CONTINUOUS
10
-13.808587
20
36.913965
30
0.0
11
-13.608752
21
36.872523
31
0.0
0
LINE
8
0
6
CONTINUOUS
10
-13.970849
20
36.835047
30
0.0
11
-13.808587
21
36.913965
31
0.0
0
LINE
8
0
6
CONTINUOUS
10
-13.970849
20
36.875211
30
0.0
11
-13.970849
21
36.835047
31
0.0
0
LINE
8
0
6
CONTINUOUS
10
-15.878182
20
36.308207
30
0.0
11
-15.840608
21
36.428576
31
0.0
0
LINE
8
0
6
CONTINUOUS
10
-15.878182
20
36.375687
30
0.0
11
-15.878182
21
36.308207
31
0.0
0
LINE
8
0
6
CONTINUOUS
10
-15.358984
20
36.020572
30
0.0
11
-15.358984
21
36.110075
31
0.0
0
LINE
8
0
6
CONTINUOUS
10
-15.521245
20
36.099490
30
0.0
11
-15.358984
21
36.020572
31
0.0
0
LINE
8
0
6
CONTINUOUS
10
-15.521245
20
36.099490
30
0.0
11
-15.521245
21
36.160217
31
0.0
0
LINE
8
0
6
CONTINUOUS
10
-15.721080
20
36.058040
30
0.0
11
-15.521245
21
36.099490
31
0.0
0
LINE
8
0
6
CONTINUOUS
10
-15.721080
20
36.058040
30
0.0
11
-15.721080
21
36.110695
31
0.0
0
LINE
8
0
6
CONTINUOUS
10
-15.758654
20
35.937671
30
0.0
11
-15.721080
21
36.058040
31
0.0
0
LINE
8
0
6
CONTINUOUS
10
-15.758654
20
36.010969
30
0.0
11
-15.758654
21
35.937671
31
0.0
0
LINE
8
0
6
CONTINUOUS
10
-15.119927
20
35.306575
30
0.0
11
-15.119927
21
35.406087
31
0.0
0
LINE
8
0
6
CONTINUOUS
10
-15.282189
20
35.385501
30
0.0
11
-15.119927
21
35.306575
31
0.0
0
LINE
8
0
6
CONTINUOUS
10
-15.282189
20
35.385501
30
0.0
11
-15.282189
21
35.449103
31
0.0
0
LINE
8
0
6
CONTINUOUS
10
-15.482024
20
35.344043
30
0.0
11
-15.282189
21
35.385501
31
0.0
0
LINE
8
0
6
CONTINUOUS
10
-15.482024
20
35.344043
30
0.0
11
-15.482024
21
35.392197
31
0.0
0
LINE
8
0
6
CONTINUOUS
10
-15.519597
20
35.223674
30
0.0
11
-15.482024
21
35.344043
31
0.0
0
LINE
8
0
6
CONTINUOUS
10
-15.519597
20
35.293982
30
0.0
11
-15.519597
21
35.223674
31
0.0
0
LINE
8
0
6
CONTINUOUS
10
-13.381820
20
37.586947
30
0.0
11
-13.381820
21
37.695285
31
0.0
0
LINE
8
0
6
CONTINUOUS
10
-13.544082
20
37.665865
30
0.0
11
-13.381820
21
37.586947
31
0.0
0
LINE
8
0
6
CONTINUOUS
10
-13.544082
20
37.665865
30
0.0
11
-13.544082
21
37.749412
31
0.0
0
LINE
8
0
6
CONTINUOUS
10
-13.743917
20
37.624422
30
0.0
11
-13.544082
21
37.665865
31
0.0
0
LINE
8
0
6
CONTINUOUS
10
-13.743917
20
37.624422
30
0.0
11
-13.743917
21
37.669598
31
0.0
0
LINE
8
0
6
CONTINUOUS
10
-13.781491
20
37.504046
30
0.0
11
-13.743917
21
37.624422
31
0.0
0
LINE
8
0
6
CONTINUOUS
10
-13.781491
20
37.545580
30
0.0
11
-13.781491
21
37.504046
31
0.0
0
LINE
8
0
6
CONTINUOUS
10
-14.482656
20
37.340685
30
0.0
11
-14.282821
21
37.382136
31
0.0
0
LINE
8
0
6
CONTINUOUS
10
-14.482656
20
37.340685
30
0.0
11
-14.482656
21
37.382468
31
0.0
0
LINE
8
0
6
CONTINUOUS
10
-14.520230
20
37.220309
30
0.0
11
-14.482656
21
37.340685
31
0.0
0
LINE
8
0
6
CONTINUOUS
10
-14.520230
20
37.260880
30
0.0
11
-14.520230
21
37.220309
31
0.0
0
LINE
8
0
6
CONTINUOUS
10
-15.221397
20
37.072008
30
0.0
11
-15.021561
21
37.113459
31
0.0
0
LINE
8
0
6
CONTINUOUS
10
-15.221397
20
37.072008
30
0.0
11
-15.221397
21
37.125487
31
0.0
0
LINE
8
0
6
CONTINUOUS
10
-15.258970
20
36.951639
30
0.0
11
-15.221397
21
37.072008
31
0.0
0
LINE
8
0
6
CONTINUOUS
10
-15.258970
20
37.002983
30
0.0
11
-15.258970
21
36.951639
31
0.0
0
LINE
8
0
6
CONTINUOUS
10
-15.598039
20
36.777949
30
0.0
11
-15.598039
21
36.871286
31
0.0
0
LINE
8
0
6
CONTINUOUS
10
-15.760301
20
36.856867
30
0.0
11
-15.598039
21
36.777949
31
0.0
0
LINE
8
0
6
CONTINUOUS
10
-15.760301
20
36.856867
30
0.0
11
-15.760301
21
36.930927
31
0.0
0
LINE
8
0
6
CONTINUOUS
10
-15.960136
20
36.815424
30
0.0
11
-15.760301
21
36.856867
31
0.0
0
LINE
8
0
6
CONTINUOUS
10
-15.960136
20
36.815424
30
0.0
11
-15.960136
21
36.871329
31
0.0
0
LINE
8
0
6
CONTINUOUS
10
-15.997709
20
36.695048
30
0.0
11
-15.960136
21
36.815424
31
0.0
0
LINE
8
0
6
CONTINUOUS
10
-15.997709
20
36.752772
30
0.0
11
-15.997709
21
36.695048
31
0.0
0
LINE
8
0
6
CONTINUOUS
10
-15.200792
20
39.402338
30
0.0
11
-15.200792
21
39.474717
31
0.0
0
LINE
8
0
6
CONTINUOUS
10
-15.298946
20
39.510798
30
0.0
11
-15.200792
21
39.402338
31
0.0
0
LINE
8
0
6
CONTINUOUS
10
-16.259736
20
39.006869
30
0.0
11
-16.145680
21
39.110041
31
0.0
0
LINE
8
0
6
CONTINUOUS
10
-16.259736
20
39.061207
30
0.0
11
-16.259736
21
39.006869
31
0.0
0
LINE
8
0
6
CONTINUOUS
10
-16.894263
20
38.641444
30
0.0
11
-16.780206
21
38.744616
31
0.0
0
LINE
8
0
6
CONTINUOUS
10
-16.894263
20
38.698675
30
0.0
11
-16.894263
21
38.641444
31
0.0
0
LINE
8
0
6
CONTINUOUS
10
-14.603717
20
38.994822
30
0.0
11
-14.454482
21
39.081850
31
0.0
0
LINE
8
0
6
CONTINUOUS
10
-14.603717
20
39.021428
30
0.0
11
-14.603717
21
38.994822
31
0.0
0
LINE
8
0
6
CONTINUOUS
10
-14.192686
20
38.933024
30
0.0
11
-14.192686
21
39.023046
31
0.0
0
LINE
8
0
6
CONTINUOUS
10
-14.248968
20
39.050951
30
0.0
11
-14.192686
21
38.933024
31
0.0
0
LINE
8
0
6
CONTINUOUS
10
-15.050488
20
38.740496
30
0.0
11
-14.844973
21
38.709589
31
0.0
0
LINE
8
0
6
CONTINUOUS
10
-15.050488
20
38.740496
30
0.0
11
-15.050488
21
38.822868
31
0.0
0
LINE
8
0
6
CONTINUOUS
10
-15.199722
20
38.653460
30
0.0
11
-15.050488
21
38.740496
31
0.0
0
LINE
8
0
6
CONTINUOUS
10
-15.199722
20
38.699479
30
0.0
11
-15.199722
21
38.653460
31
0.0
0
LINE
8
0
6
CONTINUOUS
10
-14.788692
20
38.591662
30
0.0
11
-14.788692
21
38.665882
31
0.0
0
LINE
8
0
6
CONTINUOUS
10
-14.844973
20
38.709589
30
0.0
11
-14.788692
21
38.591662
31
0.0
0
LINE
8
0
6
CONTINUOUS
10
-14.844973
20
38.806610
30
0.0
11
-14.844973
21
38.709589
31
0.0
0
LINE
8
0
6
CONTINUOUS
10
-15.646492
20
38.448786
30
0.0
11
-15.440978
21
38.417879
31
0.0
0
LINE
8
0
6
CONTINUOUS
10
-15.646492
20
38.448786
30
0.0
11
-15.646492
21
38.520207
31
0.0
0
LINE
8
0
6
CONTINUOUS
10
-15.795728
20
38.361750
30
0.0
11
-15.646492
21
38.448786
31
0.0
0
LINE
8
0
6
CONTINUOUS
10
-15.795728
20
38.403650
30
0.0
11
-15.795728
21
38.361750
31
0.0
0
LINE
8
0
6
CONTINUOUS
10
-15.384697
20
38.299952
30
0.0
11
-15.384697
21
38.383010
31
0.0
0
LINE
8
0
6
CONTINUOUS
10
-15.440978
20
38.417879
30
0.0
11
-15.384697
21
38.299952
31
0.0
0
LINE
8
0
6
CONTINUOUS
10
-15.440978
20
38.506451
30
0.0
11
-15.440978
21
38.417879
31
0.0
0
LINE
8
0
6
CONTINUOUS
10
-16.242497
20
38.161364
30
0.0
11
-16.036983
21
38.130465
31
0.0
0
LINE
8
0
6
CONTINUOUS
10
-16.242497
20
38.161364
30
0.0
11
-16.242497
21
38.239909
31
0.0
0
LINE
8
0
6
CONTINUOUS
10
-16.391733
20
38.074335
30
0.0
11
-16.242497
21
38.161364
31
0.0
0
LINE
8
0
6
CONTINUOUS
10
-16.391733
20
38.137412
30
0.0
11
-16.391733
21
38.074335
31
0.0
0
LINE
8
0
6
CONTINUOUS
10
-15.980702
20
38.012537
30
0.0
11
-15.980702
21
38.079149
31
0.0
0
LINE
8
0
6
CONTINUOUS
10
-16.036983
20
38.130465
30
0.0
11
-15.980702
21
38.012537
31
0.0
0
LINE
8
0
6
CONTINUOUS
10
-16.036983
20
38.210779
30
0.0
11
-16.036983
21
38.130465
31
0.0
0
LINE
8
0
6
CONTINUOUS
10
-16.838503
20
37.895342
30
0.0
11
-16.632989
21
37.864443
31
0.0
0
LINE
8
0
6
CONTINUOUS
10
-16.838503
20
37.895342
30
0.0
11
-16.838503
21
37.974327
31
0.0
0
LINE
8
0
6
CONTINUOUS
10
-16.987738
20
37.808314
30
0.0
11
-16.838503
21
37.895342
31
0.0
0
LINE
8
0
6
CONTINUOUS
10
-16.987738
20
37.869629
30
0.0
11
-16.987738
21
37.808314
31
0.0
0
LINE
8
0
6
CONTINUOUS
10
-16.576707
20
37.746516
30
0.0
11
-16.576707
21
37.813922
31
0.0
0
LINE
8
0
6
CONTINUOUS
10
-16.632989
20
37.864443
30
0.0
11
-16.576707
21
37.746516
31
0.0
0
LINE
8
0
6
CONTINUOUS
10
-16.632989
20
37.946474
30
0.0
11
-16.632989
21
37.864443
31
0.0
0
LINE
8
0
6
CONTINUOUS
10
-13.769167
20
38.429713
30
0.0
11
-13.579565
21
38.374583
31
0.0
0
LINE
8
0
6
CONTINUOUS
10
-13.769167
20
38.429713
30
0.0
11
-13.769167
21
38.501001
31
0.0
0
LINE
8
0
6
CONTINUOUS
10
-13.946887
20
38.362734
30
0.0
11
-13.769167
21
38.429713
31
0.0
0
LINE
8
0
6
CONTINUOUS
10
-13.946887
20
38.407498
30
0.0
11
-13.946887
21
38.362734
31
0.0
0
LINE
8
0
6
CONTINUOUS
10
-14.384781
20
38.137652
30
0.0
11
-14.195178
21
38.082529
31
0.0
0
LINE
8
0
6
CONTINUOUS
10
-14.384781
20
38.137652
30
0.0
11
-14.384781
21
38.211543
31
0.0
0
LINE
8
0
6
CONTINUOUS
10
-14.562500
20
38.070666
30
0.0
11
-14.384781
21
38.137652
31
0.0
0
LINE
8
0
6
CONTINUOUS
10
-14.562500
20
38.106194
30
0.0
11
-14.562500
21
38.070666
31
0.0
0
LINE
8
0
6
CONTINUOUS
10
-14.183293
20
37.960413
30
0.0
11
-14.183293
21
38.055228
31
0.0
0
LINE
8
0
6
CONTINUOUS
10
-14.195178
20
38.082529
30
0.0
11
-14.183293
21
37.960413
31
0.0
0
LINE
8
0
6
CONTINUOUS
10
-14.195178
20
38.186137
30
0.0
11
-14.195178
21
38.082529
31
0.0
0
LINE
8
0
6
CONTINUOUS
10
-15.000394
20
37.854090
30
0.0
11
-14.810792
21
37.798968
31
0.0
0
LINE
8
0
6
CONTINUOUS
10
-15.000394
20
37.854090
30
0.0
11
-15.000394
21
37.933977
31
0.0
0
LINE
8
0
6
CONTINUOUS
10
-15.178115
20
37.787112
30
0.0
11
-15.000394
21
37.854090
31
0.0
0
LINE
8
0
6
CONTINUOUS
10
-15.178115
20
37.836699
30
0.0
11
-15.178115
21
37.787112
31
0.0
0
LINE
8
0
6
CONTINUOUS
10
-14.798906
20
37.676859
30
0.0
11
-14.798906
21
37.757510
31
0.0
0
LINE
8
0
6
CONTINUOUS
10
-14.810792
20
37.798968
30
0.0
11
-14.798906
21
37.676859
31
0.0
0
LINE
8
0
6
CONTINUOUS
10
-14.810792
20
37.894385
30
0.0
11
-14.810792
21
37.798968
31
0.0
0
LINE
8
0
6
CONTINUOUS
10
-15.616007
20
37.591418
30
0.0
11
-15.426405
21
37.536280
31
0.0
0
LINE
8
0
6
CONTINUOUS
10
-15.616007
20
37.591418
30
0.0
11
-15.616007
21
37.657237
31
0.0
0
LINE
8
0
6
CONTINUOUS
10
-15.793727
20
37.524431
30
0.0
11
-15.616007
21
37.591418
31
0.0
0
LINE
8
0
6
CONTINUOUS
10
-15.793727
20
37.573094
30
0.0
11
-15.793727
21
37.524431
31
0.0
0
LINE
8
0
6
CONTINUOUS
10
-15.414519
20
37.414171
30
0.0
11
-15.414519
21
37.505085
31
0.0
0
LINE
8
0
6
CONTINUOUS
10
-15.426405
20
37.536280
30
0.0
11
-15.414519
21
37.414171
31
0.0
0
LINE
8
0
6
CONTINUOUS
10
-15.426405
20
37.622574
30
0.0
11
-15.426405
21
37.536280
31
0.0
0
LINE
8
0
6
CONTINUOUS
10
-16.231621
20
37.365046
30
0.0
11
-16.042019
21
37.309908
31
0.0
0
LINE
8
0
6
CONTINUOUS
10
-16.231621
20
37.365046
30
0.0
11
-16.231621
21
37.434933
31
0.0
0
LINE
8
0
6
CONTINUOUS
10
-16.409342
20
37.298060
30
0.0
11
-16.231621
21
37.365046
31
0.0
0
LINE
8
0
6
CONTINUOUS
10
-16.409342
20
37.362964
30
0.0
11
-16.409342
21
37.298060
31
0.0
0
LINE
8
0
6
CONTINUOUS
10
-16.030133
20
37.187800
30
0.0
11
-16.030133
21
37.265714
31
0.0
0
LINE
8
0
6
CONTINUOUS
10
-16.042019
20
37.309908
30
0.0
11
-16.030133
21
37.187800
31
0.0
0
LINE
8
0
6
CONTINUOUS
10
-16.042019
20
37.386306
30
0.0
11
-16.042019
21
37.309908
31
0.0
0
LINE
8
0
6
CONTINUOUS
10
-12.643080
20
37.942385
30
0.0
11
-12.643080
21
38.055362
31
0.0
0
LINE
8
0
6
CONTINUOUS
10
-12.805343
20
38.021311
30
0.0
11
-12.643080
21
37.942385
31
0.0
0
LINE
8
0
6
CONTINUOUS
10
-12.805343
20
38.021311
30
0.0
11
-12.805343
21
38.101214
31
0.0
0
LINE
8
0
6
CONTINUOUS
10
-13.005177
20
37.979861
30
0.0
11
-12.805343
21
38.021311
31
0.0
0
LINE
8
0
6
CONTINUOUS
10
-13.005177
20
37.979861
30
0.0
11
-13.005177
21
38.012208
31
0.0
0
LINE
8
0
6
CONTINUOUS
10
-13.042752
20
37.859484
30
0.0
11
-13.005177
21
37.979861
31
0.0
0
LINE
8
0
6
CONTINUOUS
10
-13.042752
20
37.877425
30
0.0
11
-13.042752
21
37.859484
31
0.0
0
LINE
8
0
6
CONTINUOUS
10
-16.174113
20
40.211825
30
0.0
11
-15.964730
21
40.232386
31
0.0
0
LINE
8
0
6
CONTINUOUS
10
-16.174113
20
40.211825
30
0.0
11
-16.174113
21
40.296127
31
0.0
0
LINE
8
0
6
CONTINUOUS
10
-16.247874
20
40.097132
30
0.0
11
-16.174113
21
40.211825
31
0.0
0
LINE
8
0
6
CONTINUOUS
10
-16.247874
20
40.131926
30
0.0
11
-16.247874
21
40.097132
31
0.0
0
LINE
8
0
6
CONTINUOUS
10
-15.829109
20
40.138262
30
0.0
11
-15.829109
21
40.212768
31
0.0
0
LINE
8
0
6
CONTINUOUS
10
-15.964730
20
40.232386
30
0.0
11
-15.829109
21
40.138262
31
0.0
0
LINE
8
0
6
CONTINUOUS
10
-15.964730
20
40.332440
30
0.0
11
-15.964730
21
40.232386
31
0.0
0
LINE
8
0
6
CONTINUOUS
10
-14.876627
20
39.916933
30
0.0
11
-14.664419
21
39.911639
31
0.0
0
LINE
8
0
6
CONTINUOUS
10
-14.876627
20
39.916933
30
0.0
11
-14.876627
21
40.000155
31
0.0
0
LINE
8
0
6
CONTINUOUS
10
-14.990682
20
39.813761
30
0.0
11
-14.876627
21
39.916933
31
0.0
0
LINE
8
0
6
CONTINUOUS
10
-14.990682
20
39.845609
30
0.0
11
-14.990682
21
39.813761
31
0.0
0
LINE
8
0
6
CONTINUOUS
10
-14.566266
20
39.803179
30
0.0
11
-14.566266
21
39.884123
31
0.0
0
LINE
8
0
6
CONTINUOUS
10
-14.664419
20
39.911639
30
0.0
11
-14.566266
21
39.803179
31
0.0
0
LINE
8
0
6
CONTINUOUS
10
-14.664419
20
40.017852
30
0.0
11
-14.664419
21
39.911639
31
0.0
0
LINE
8
0
6
CONTINUOUS
10
-13.858478
20
39.407435
30
0.0
11
-13.652963
21
39.376536
31
0.0
0
LINE
8
0
6
CONTINUOUS
10
-13.858478
20
39.407435
30
0.0
11
-13.858478
21
39.482962
31
0.0
0
LINE
8
0
6
CONTINUOUS
10
-14.007713
20
39.320406
30
0.0
11
-13.858478
21
39.407435
31
0.0
0
LINE
8
0
6
CONTINUOUS
10
-14.007713
20
39.367690
30
0.0
11
-14.007713
21
39.320406
31
0.0
0
LINE
8
0
6
CONTINUOUS
10
-13.596682
20
39.258608
30
0.0
11
-13.596682
21
39.341825
31
0.0
0
LINE
8
0
6
CONTINUOUS
10
-13.652963
20
39.376536
30
0.0
11
-13.596682
21
39.258608
31
0.0
0
LINE
8
0
6
CONTINUOUS
10
-13.652963
20
39.476609
30
0.0
11
-13.652963
21
39.376536
31
0.0
0
LINE
8
0
6
CONTINUOUS
10
-13.153552
20
38.765291
30
0.0
11
-12.963951
21
38.710169
31
0.0
0
LINE
8
0
6
CONTINUOUS
10
-13.153552
20
38.765291
30
0.0
11
-13.153552
21
38.843647
31
0.0
0
LINE
8
0
6
CONTINUOUS
10
-13.331273
20
38.698321
30
0.0
11
-13.153552
21
38.765291
31
0.0
0
LINE
8
0
6
CONTINUOUS
10
-13.331273
20
38.723688
30
0.0
11
-13.331273
21
38.698321
31
0.0
0
LINE
8
0
6
CONTINUOUS
10
-12.765025
20
37.215777
30
0.0
11
-12.727453
21
37.095408
31
0.0
0
LINE
8
0
6
CONTINUOUS
10
-12.964859
20
37.257227
30
0.0
11
-12.765025
21
37.215777
31
0.0
0
LINE
8
0
6
CONTINUOUS
10
-21.668302
20
37.270952
30
0.0
11
-21.668302
21
37.326339
31
0.0
0
LINE
8
0
6
CONTINUOUS
10
-21.868138
20
37.229502
30
0.0
11
-21.668302
21
37.270952
31
0.0
0
LINE
8
0
6
CONTINUOUS
10
-21.868138
20
37.331140
30
0.0
11
-21.868138
21
37.229502
31
0.0
0
LINE
8
0
6
CONTINUOUS
10
-20.774684
20
39.417216
30
0.0
11
-20.625450
21
39.330187
31
0.0
0
LINE
8
0
6
CONTINUOUS
10
-20.774684
20
39.493481
30
0.0
11
-20.774684
21
39.417216
31
0.0
0
LINE
8
0
6
CONTINUOUS
10
-17.468760
20
40.368326
30
0.0
11
-17.261476
21
40.395022
31
0.0
0
LINE
8
0
6
CONTINUOUS
10
-17.468760
20
40.460348
30
0.0
11
-17.468760
21
40.368326
31
0.0
0
LINE
8
0
6
CONTINUOUS
10
-20.066898
20
39.810580
30
0.0
11
-19.968745
21
39.919039
31
0.0
0
LINE
8
0
6
CONTINUOUS
10
-20.066898
20
39.894278
30
0.0
11
-20.066898
21
39.810580
31
0.0
0
LINE
8
0
6
CONTINUOUS
10
-21.827821
20
38.035631
30
0.0
11
-21.627985
21
37.994181
31
0.0
0
LINE
8
0
6
CONTINUOUS
10
-21.827821
20
38.113850
30
0.0
11
-21.827821
21
38.035631
31
0.0
0
LINE
8
0
6
CONTINUOUS
10
-19.017155
20
37.596957
30
0.0
11
-18.839435
21
37.529970
31
0.0
0
LINE
8
0
6
CONTINUOUS
10
-19.017155
20
37.663543
30
0.0
11
-19.017155
21
37.596957
31
0.0
0
LINE
8
0
6
CONTINUOUS
10
-19.632768
20
37.861193
30
0.0
11
-19.455049
21
37.794207
31
0.0
0
LINE
8
0
6
CONTINUOUS
10
-19.632768
20
37.941595
30
0.0
11
-19.632768
21
37.861193
31
0.0
0
LINE
8
0
6
CONTINUOUS
10
-17.794660
20
37.897105
30
0.0
11
-17.645426
21
37.810076
31
0.0
0
LINE
8
0
6
CONTINUOUS
10
-17.794660
20
37.976608
30
0.0
11
-17.794660
21
37.897105
31
0.0
0
LINE
8
0
6
CONTINUOUS
10
-18.596180
20
38.133456
30
0.0
11
-18.390665
21
38.164355
31
0.0
0
LINE
8
0
6
CONTINUOUS
10
-18.596180
20
38.133456
30
0.0
11
-18.596180
21
38.263545
31
0.0
0
LINE
8
0
6
CONTINUOUS
10
-18.652462
20
38.015528
30
0.0
11
-18.596180
21
38.133456
31
0.0
0
LINE
8
0
6
CONTINUOUS
10
-18.652462
20
38.080927
30
0.0
11
-18.652462
21
38.015528
31
0.0
0
LINE
8
0
6
CONTINUOUS
10
-18.065164
20
38.741259
30
0.0
11
-17.852957
21
38.746538
31
0.0
0
LINE
8
0
6
CONTINUOUS
10
-17.852957
20
38.746538
30
0.0
11
-17.738901
21
38.643366
31
0.0
0
LINE
8
0
6
CONTINUOUS
10
-17.852957
20
38.823241
30
0.0
11
-17.852957
21
38.746538
31
0.0
0
LINE
8
0
6
CONTINUOUS
10
-18.163316
20
38.632792
30
0.0
11
-18.065164
21
38.741259
31
0.0
0
LINE
8
0
6
CONTINUOUS
10
-18.163316
20
38.700434
30
0.0
11
-18.163316
21
38.632792
31
0.0
0
LINE
8
0
6
CONTINUOUS
10
-18.029387
20
39.785448
30
0.0
11
-17.820006
21
39.764887
31
0.0
0
LINE
8
0
6
CONTINUOUS
10
-17.820006
20
39.764887
30
0.0
11
-17.746243
21
39.650194
31
0.0
0
LINE
8
0
6
CONTINUOUS
10
-17.820006
20
39.840219
30
0.0
11
-17.820006
21
39.764887
31
0.0
0
LINE
8
0
6
CONTINUOUS
10
-18.165010
20
39.691325
30
0.0
11
-18.029387
21
39.785448
31
0.0
0
LINE
8
0
6
CONTINUOUS
10
-18.165010
20
39.757648
30
0.0
11
-18.165010
21
39.691325
31
0.0
0
LINE
8
0
6
CONTINUOUS
10
-18.872862
20
36.861910
30
0.0
11
-18.673028
21
36.820460
31
0.0
0
LINE
8
0
6
CONTINUOUS
10
-18.872862
20
36.937919
30
0.0
11
-18.872862
21
36.861910
31
0.0
0
LINE
8
0
6
CONTINUOUS
10
-19.411766
20
37.078738
30
0.0
11
-19.374193
21
36.958361
31
0.0
0
LINE
8
0
6
CONTINUOUS
10
-19.411766
20
37.132477
30
0.0
11
-19.411766
21
37.078738
31
0.0
0
LINE
8
0
6
CONTINUOUS
10
-19.151138
20
35.387683
30
0.0
11
-19.113566
21
35.267314
31
0.0
0
LINE
8
0
6
CONTINUOUS
10
-19.151138
20
35.437245
30
0.0
11
-19.151138
21
35.387683
31
0.0
0
LINE
8
0
6
CONTINUOUS
10
-18.912083
20
36.057018
30
0.0
11
-18.874509
21
35.936649
31
0.0
0
LINE
8
0
6
CONTINUOUS
10
-18.912083
20
36.112325
30
0.0
11
-18.912083
21
36.057018
31
0.0
0
LINE
8
0
6
CONTINUOUS
10
-19.874836
20
36.592104
30
0.0
11
-19.874836
21
36.635643
31
0.0
0
LINE
8
0
6
CONTINUOUS
10
-20.037097
20
36.671030
30
0.0
11
-19.874836
21
36.592104
31
0.0
0
LINE
8
0
6
CONTINUOUS
10
-20.037097
20
36.726695
30
0.0
11
-20.037097
21
36.671030
31
0.0
0
LINE
8
0
6
CONTINUOUS
10
-21.041991
20
36.479220
30
0.0
11
-21.041991
21
36.508745
31
0.0
0
LINE
8
0
6
CONTINUOUS
10
-21.204252
20
36.558138
30
0.0
11
-21.041991
21
36.479220
31
0.0
0
LINE
8
0
6
CONTINUOUS
10
-21.204252
20
36.607697
30
0.0
11
-21.204252
21
36.558138
31
0.0
0
LINE
8
0
6
CONTINUOUS
10
-18.043452
20
35.418399
30
0.0
11
-17.843617
21
35.376941
31
0.0
0
LINE
8
0
6
CONTINUOUS
10
-18.043452
20
35.473739
30
0.0
11
-18.043452
21
35.418399
31
0.0
0
LINE
8
0
6
CONTINUOUS
10
-17.843617
20
35.376941
30
0.0
11
-17.806043
21
35.256572
31
0.0
0
LINE
8
0
6
CONTINUOUS
10
-17.843617
20
35.435057
30
0.0
11
-17.843617
21
35.376941
31
0.0
0
LINE
8
0
6
CONTINUOUS
10
-18.010581
20
35.727290
30
0.0
11
-17.810745
21
35.685832
31
0.0
0
LINE
8
0
6
CONTINUOUS
10
-18.010581
20
35.788325
30
0.0
11
-18.010581
21
35.727290
31
0.0
0
LINE
8
0
6
CONTINUOUS
10
-17.810745
20
35.685832
30
0.0
11
-17.773172
21
35.565463
31
0.0
0
LINE
8
0
6
CONTINUOUS
10
-17.810745
20
35.747823
30
0.0
11
-17.810745
21
35.685832
31
0.0
0
LINE
8
0
6
CONTINUOUS
10
-16.921032
20
36.724520
30
0.0
11
-16.921032
21
36.790120
31
0.0
0
LINE
8
0
6
CONTINUOUS
10
-16.958605
20
36.604151
30
0.0
11
-16.921032
21
36.724520
31
0.0
0
LINE
8
0
6
CONTINUOUS
10
-16.958605
20
36.679178
30
0.0
11
-16.958605
21
36.604151
31
0.0
0
LINE
8
0
6
CONTINUOUS
10
-14.314823
20
35.901225
30
0.0
11
-14.114988
21
35.859782
31
0.0
0
LINE
8
0
6
CONTINUOUS
10
-14.477086
20
35.822315
30
0.0
11
-14.314823
21
35.901225
31
0.0
0
LINE
8
0
6
CONTINUOUS
10
-14.477086
20
35.855528
30
0.0
11
-14.477086
21
35.822315
31
0.0
0
LINE
8
0
6
CONTINUOUS
10
-14.199360
20
36.223636
30
0.0
11
-14.161788
21
36.103259
31
0.0
0
LINE
8
0
6
CONTINUOUS
10
-14.199360
20
36.314890
30
0.0
11
-14.199360
21
36.223636
31
0.0
0
LINE
8
0
6
CONTINUOUS
10
-14.758327
20
36.584833
30
0.0
11
-14.596066
21
36.663760
31
0.0
0
LINE
8
0
6
CONTINUOUS
10
-14.758327
20
36.626981
30
0.0
11
-14.758327
21
36.584833
31
0.0
0
LINE
8
0
6
CONTINUOUS
10
-15.478510
20
36.391108
30
0.0
11
-15.478510
21
36.480357
31
0.0
0
LINE
8
0
6
CONTINUOUS
10
-15.640773
20
36.470034
30
0.0
11
-15.478510
21
36.391108
31
0.0
0
LINE
8
0
6
CONTINUOUS
10
-15.640773
20
36.470034
30
0.0
11
-15.640773
21
36.533780
31
0.0
0
LINE
8
0
6
CONTINUOUS
10
-15.840608
20
36.428576
30
0.0
11
-15.640773
21
36.470034
31
0.0
0
LINE
8
0
6
CONTINUOUS
10
-15.840608
20
36.481655
30
0.0
11
-15.840608
21
36.428576
31
0.0
0
LINE
8
0
6
CONTINUOUS
10
-15.239455
20
35.658351
30
0.0
11
-15.239455
21
35.756701
31
0.0
0
LINE
8
0
6
CONTINUOUS
10
-15.401718
20
35.737270
30
0.0
11
-15.239455
21
35.658351
31
0.0
0
LINE
8
0
6
CONTINUOUS
10
-15.401718
20
35.737270
30
0.0
11
-15.401718
21
35.804951
31
0.0
0
LINE
8
0
6
CONTINUOUS
10
-15.601552
20
35.695819
30
0.0
11
-15.401718
21
35.737270
31
0.0
0
LINE
8
0
6
CONTINUOUS
10
-15.601552
20
35.695819
30
0.0
11
-15.601552
21
35.753522
31
0.0
0
LINE
8
0
6
CONTINUOUS
10
-15.639126
20
35.575443
30
0.0
11
-15.601552
21
35.695819
31
0.0
0
LINE
8
0
6
CONTINUOUS
10
-15.639126
20
35.646269
30
0.0
11
-15.639126
21
35.575443
31
0.0
0
LINE
8
0
6
CONTINUOUS
10
-14.120559
20
37.303217
30
0.0
11
-14.120559
21
37.404473
31
0.0
0
LINE
8
0
6
CONTINUOUS
10
-14.282821
20
37.382136
30
0.0
11
-14.120559
21
37.303217
31
0.0
0
LINE
8
0
6
CONTINUOUS
10
-14.282821
20
37.454846
30
0.0
11
-14.282821
21
37.382136
31
0.0
0
LINE
8
0
6
CONTINUOUS
10
-14.859300
20
37.034540
30
0.0
11
-14.859300
21
37.126167
31
0.0
0
LINE
8
0
6
CONTINUOUS
10
-15.021561
20
37.113459
30
0.0
11
-14.859300
21
37.034540
31
0.0
0
LINE
8
0
6
CONTINUOUS
10
-15.021561
20
37.186679
30
0.0
11
-15.021561
21
37.113459
31
0.0
0
LINE
8
0
6
CONTINUOUS
10
-16.813157
20
39.762995
30
0.0
11
-16.603775
21
39.783556
31
0.0
0
LINE
8
0
6
CONTINUOUS
10
-16.813157
20
39.762995
30
0.0
11
-16.813157
21
39.838629
31
0.0
0
LINE
8
0
6
CONTINUOUS
10
-16.886919
20
39.648302
30
0.0
11
-16.813157
21
39.762995
31
0.0
0
LINE
8
0
6
CONTINUOUS
10
-16.886919
20
39.694508
30
0.0
11
-16.886919
21
39.648302
31
0.0
0
LINE
8
0
6
CONTINUOUS
10
-16.468154
20
39.689440
30
0.0
11
-16.468154
21
39.756062
31
0.0
0
LINE
8
0
6
CONTINUOUS
10
-16.603775
20
39.783556
30
0.0
11
-16.468154
21
39.689440
31
0.0
0
LINE
8
0
6
CONTINUOUS
10
-16.603775
20
39.869403
30
0.0
11
-16.603775
21
39.783556
31
0.0
0
LINE
8
0
6
CONTINUOUS
10
-15.298946
20
39.510798
30
0.0
11
-15.298946
21
39.598301
31
0.0
0
LINE
8
0
6
CONTINUOUS
10
-15.511153
20
39.516085
30
0.0
11
-15.298946
21
39.510798
31
0.0
0
LINE
8
0
6
CONTINUOUS
10
-15.511153
20
39.516085
30
0.0
11
-15.511153
21
39.590142
31
0.0
0
LINE
8
0
6
CONTINUOUS
10
-15.625209
20
39.412913
30
0.0
11
-15.511153
21
39.516085
31
0.0
0
LINE
8
0
6
CONTINUOUS
10
-15.625209
20
39.450824
30
0.0
11
-15.625209
21
39.412913
31
0.0
0
LINE
8
0
6
CONTINUOUS
10
-16.145680
20
39.110041
30
0.0
11
-15.933472
21
39.104754
31
0.0
0
LINE
8
0
6
CONTINUOUS
10
-16.145680
20
39.192599
30
0.0
11
-16.145680
21
39.110041
31
0.0
0
LINE
8
0
6
CONTINUOUS
10
-15.835320
20
38.996302
30
0.0
11
-15.835320
21
39.063843
31
0.0
0
LINE
8
0
6
CONTINUOUS
10
-15.933472
20
39.104754
30
0.0
11
-15.835320
21
38.996302
31
0.0
0
LINE
8
0
6
CONTINUOUS
10
-15.933472
20
39.191380
30
0.0
11
-15.933472
21
39.104754
31
0.0
0
LINE
8
0
6
CONTINUOUS
10
-16.780206
20
38.744616
30
0.0
11
-16.567999
21
38.739329
31
0.0
0
LINE
8
0
6
CONTINUOUS
10
-16.780206
20
38.821143
30
0.0
11
-16.780206
21
38.744616
31
0.0
0
LINE
8
0
6
CONTINUOUS
10
-16.469846
20
38.630869
30
0.0
11
-16.469846
21
38.698658
31
0.0
0
LINE
8
0
6
CONTINUOUS
10
-16.567999
20
38.739329
30
0.0
11
-16.469846
21
38.630869
31
0.0
0
LINE
8
0
6
CONTINUOUS
10
-16.567999
20
38.821575
30
0.0
11
-16.567999
21
38.739329
31
0.0
0
LINE
8
0
6
CONTINUOUS
10
-17.414733
20
38.405291
30
0.0
11
-17.202526
21
38.400004
31
0.0
0
LINE
8
0
6
CONTINUOUS
10
-17.414733
20
38.405291
30
0.0
11
-17.414733
21
38.488023
31
0.0
0
LINE
8
0
6
CONTINUOUS
10
-17.528789
20
38.302119
30
0.0
11
-17.414733
21
38.405291
31
0.0
0
LINE
8
0
6
CONTINUOUS
10
-17.528789
20
38.374394
30
0.0
11
-17.528789
21
38.302119
31
0.0
0
LINE
8
0
6
CONTINUOUS
10
-17.202526
20
38.400004
30
0.0
11
-17.104373
21
38.291544
31
0.0
0
LINE
8
0
6
CONTINUOUS
10
-17.202526
20
38.480284
30
0.0
11
-17.202526
21
38.400004
31
0.0
0
LINE
8
0
6
CONTINUOUS
10
-14.248968
20
39.050951
30
0.0
11
-14.248968
21
39.156286
31
0.0
0
LINE
8
0
6
CONTINUOUS
10
-14.454482
20
39.081850
30
0.0
11
-14.248968
21
39.050951
31
0.0
0
LINE
8
0
6
CONTINUOUS
10
-14.454482
20
39.155478
30
0.0
11
-14.454482
21
39.081850
31
0.0
0
LINE
8
0
6
CONTINUOUS
10
-13.567679
20
38.252474
30
0.0
11
-13.567679
21
38.343518
31
0.0
0
LINE
8
0
6
CONTINUOUS
10
-13.579565
20
38.374583
30
0.0
11
-13.567679
21
38.252474
31
0.0
0
LINE
8
0
6
CONTINUOUS
10
-13.579565
20
38.469011
30
0.0
11
-13.579565
21
38.374583
31
0.0
0
LINE
8
0
6
CONTINUOUS
10
-12.952066
20
38.588061
30
0.0
11
-12.952066
21
38.686539
31
0.0
0
LINE
8
0
6
CONTINUOUS
10
-12.963951
20
38.710169
30
0.0
11
-12.952066
21
38.588061
31
0.0
0
LINE
8
0
6
CONTINUOUS
10
-12.963951
20
38.825074
30
0.0
11
-12.963951
21
38.710169
31
0.0
0
LINE
8
0
6
CONTINUOUS
10
-13.127122
20
37.178301
30
0.0
11
-12.964859
21
37.257227
31
0.0
0
LINE
8
0
6
CONTINUOUS
10
-13.127122
20
37.204237
30
0.0
11
-13.127122
21
37.178301
31
0.0
0
LINE
8
0
6
CONTINUOUS
10
-14.827061
20
36.118488
30
0.0
11
-14.529417
21
36.316637
31
0.0
0
LINE
8
0
6
CONTINUOUS
10
-14.899579
20
36.077884
30
0.0
11
-14.827061
21
36.118488
31
0.0
0
LINE
8
0
6
CONTINUOUS
10
-14.610566
20
36.270289
30
0.0
11
-14.899579
21
36.077884
31
0.0
0
LINE
8
0
6
CONTINUOUS
10
-14.529417
20
36.316637
30
0.0
11
-14.276447
21
36.536082
31
0.0
0
LINE
8
0
6
CONTINUOUS
10
-14.364952
20
36.483347
30
0.0
11
-14.610566
21
36.270289
31
0.0
0
LINE
8
0
6
CONTINUOUS
10
-14.276447
20
36.536082
30
0.0
11
-14.072349
21
36.774386
31
0.0
0
LINE
8
0
6
CONTINUOUS
10
-14.166819
20
36.714686
30
0.0
11
-14.364952
21
36.483347
31
0.0
0
LINE
8
0
6
CONTINUOUS
10
-14.072349
20
36.774386
30
0.0
11
-13.921350
21
37.029055
31
0.0
0
LINE
8
0
6
CONTINUOUS
10
-14.020246
20
36.961870
30
0.0
11
-14.166819
21
36.714686
31
0.0
0
LINE
8
0
6
CONTINUOUS
10
-13.921350
20
37.029055
30
0.0
11
-13.827678
21
37.297602
31
0.0
0
LINE
8
0
6
CONTINUOUS
10
-13.929310
20
37.222559
30
0.0
11
-14.020246
21
36.961870
31
0.0
0
LINE
8
0
6
CONTINUOUS
10
-13.827678
20
37.297602
30
0.0
11
-13.795536
21
37.577433
31
0.0
0
LINE
8
0
6
CONTINUOUS
10
-13.898092
20
37.494334
30
0.0
11
-13.929310
21
37.222559
31
0.0
0
LINE
8
0
6
CONTINUOUS
10
-13.795536
20
37.577433
30
0.0
11
-13.827678
21
37.857271
31
0.0
0
LINE
8
0
6
CONTINUOUS
10
-13.929311
20
37.766108
30
0.0
11
-13.898092
21
37.494334
31
0.0
0
LINE
8
0
6
CONTINUOUS
10
-13.827678
20
37.857271
30
0.0
11
-13.921350
21
38.125811
31
0.0
0
LINE
8
0
6
CONTINUOUS
10
-14.020246
20
38.026789
30
0.0
11
-13.929311
21
37.766108
31
0.0
0
LINE
8
0
6
CONTINUOUS
10
-13.921350
20
38.125811
30
0.0
11
-14.072349
21
38.380480
31
0.0
0
LINE
8
0
6
CONTINUOUS
10
-14.166821
20
38.273981
30
0.0
11
-14.020246
21
38.026789
31
0.0
0
LINE
8
0
6
CONTINUOUS
10
-14.364952
20
38.505312
30
0.0
11
-14.166821
21
38.273981
31
0.0
0
LINE
8
0
6
CONTINUOUS
10
-14.610566
20
38.718378
30
0.0
11
-14.364952
21
38.505312
31
0.0
0
LINE
8
0
6
CONTINUOUS
10
-14.899580
20
38.910784
30
0.0
11
-14.610566
21
38.718378
31
0.0
0
LINE
8
0
6
CONTINUOUS
10
-15.227917
20
39.080149
30
0.0
11
-14.899580
21
38.910784
31
0.0
0
LINE
8
0
6
CONTINUOUS
10
-15.591499
20
39.224085
30
0.0
11
-15.227917
21
39.080149
31
0.0
0
LINE
8
0
6
CONTINUOUS
10
-15.986245
20
39.340197
30
0.0
11
-15.591499
21
39.224085
31
0.0
0
LINE
8
0
6
CONTINUOUS
10
-16.408079
20
39.426089
30
0.0
11
-15.986245
21
39.340197
31
0.0
0
LINE
8
0
6
CONTINUOUS
10
-16.852918
20
39.479380
30
0.0
11
-16.408079
21
39.426089
31
0.0
0
LINE
8
0
6
CONTINUOUS
10
-17.316686
20
39.497668
30
0.0
11
-16.852918
21
39.479380
31
0.0
0
LINE
8
0
6
CONTINUOUS
10
-17.780454
20
39.479380
30
0.0
11
-17.316686
21
39.497668
31
0.0
0
LINE
8
0
6
CONTINUOUS
10
-18.225295
20
39.426089
30
0.0
11
-17.780454
21
39.479380
31
0.0
0
LINE
8
0
6
CONTINUOUS
10
-18.647128
20
39.340197
30
0.0
11
-18.225295
21
39.426089
31
0.0
0
LINE
8
0
6
CONTINUOUS
10
-19.041874
20
39.224085
30
0.0
11
-18.647128
21
39.340197
31
0.0
0
LINE
8
0
6
CONTINUOUS
10
-19.405455
20
39.080149
30
0.0
11
-19.041874
21
39.224085
31
0.0
0
LINE
8
0
6
CONTINUOUS
10
-19.733793
20
38.910784
30
0.0
11
-19.405455
21
39.080149
31
0.0
0
LINE
8
0
6
CONTINUOUS
10
-20.022807
20
38.718378
30
0.0
11
-19.733793
21
38.910784
31
0.0
0
LINE
8
0
6
CONTINUOUS
10
-20.268420
20
38.505312
30
0.0
11
-20.022807
21
38.718378
31
0.0
0
LINE
8
0
6
CONTINUOUS
10
-20.466554
20
38.273981
30
0.0
11
-20.268420
21
38.505312
31
0.0
0
LINE
8
0
6
CONTINUOUS
10
-20.561022
20
38.380480
30
0.0
11
-20.712023
21
38.125811
31
0.0
0
LINE
8
0
6
CONTINUOUS
10
-20.613126
20
38.026789
30
0.0
11
-20.466554
21
38.273981
31
0.0
0
LINE
8
0
6
CONTINUOUS
10
-20.712023
20
38.125811
30
0.0
11
-20.805694
21
37.857271
31
0.0
0
LINE
8
0
6
CONTINUOUS
10
-20.704061
20
37.766108
30
0.0
11
-20.613126
21
38.026789
31
0.0
0
LINE
8
0
6
CONTINUOUS
10
-20.805694
20
37.857271
30
0.0
11
-20.837837
21
37.577433
31
0.0
0
LINE
8
0
6
CONTINUOUS
10
-20.735279
20
37.494334
30
0.0
11
-20.704061
21
37.766108
31
0.0
0
LINE
8
0
6
CONTINUOUS
10
-20.837837
20
37.577433
30
0.0
11
-20.805694
21
37.297602
31
0.0
0
LINE
8
0
6
CONTINUOUS
10
-20.704061
20
37.222559
30
0.0
11
-20.735279
21
37.494334
31
0.0
0
LINE
8
0
6
CONTINUOUS
10
-20.805694
20
37.297602
30
0.0
11
-20.712023
21
37.029055
31
0.0
0
LINE
8
0
6
CONTINUOUS
10
-20.613126
20
36.961870
30
0.0
11
-20.704061
21
37.222559
31
0.0
0
LINE
8
0
6
CONTINUOUS
10
-20.712023
20
37.029055
30
0.0
11
-20.561022
21
36.774386
31
0.0
0
LINE
8
0
6
CONTINUOUS
10
-20.466552
20
36.714686
30
0.0
11
-20.613126
21
36.961870
31
0.0
0
LINE
8
0
6
CONTINUOUS
10
-20.561022
20
36.774386
30
0.0
11
-20.356925
21
36.536082
31
0.0
0
LINE
8
0
6
CONTINUOUS
10
-20.268419
20
36.483347
30
0.0
11
-20.466552
21
36.714686
31
0.0
0
LINE
8
0
6
CONTINUOUS
10
-20.356925
20
36.536082
30
0.0
11
-20.103955
21
36.316637
31
0.0
0
LINE
8
0
6
CONTINUOUS
10
-20.022806
20
36.270289
30
0.0
11
-20.268419
21
36.483347
31
0.0
0
LINE
8
0
6
CONTINUOUS
10
-19.806312
20
36.118488
30
0.0
11
-19.733793
21
36.077884
31
0.0
0
LINE
8
0
6
CONTINUOUS
10
-20.103955
20
36.316637
30
0.0
11
-19.806312
21
36.118488
31
0.0
0
LINE
8
0
6
CONTINUOUS
10
-19.733793
20
36.077884
30
0.0
11
-20.022806
21
36.270289
31
0.0
0
LINE
8
0
6
CONTINUOUS
10
-16.070445
20
36.421107
30
0.0
11
-16.049608
21
36.430487
31
0.0
0
LINE
8
0
6
CONTINUOUS
10
-15.874545
20
36.520388
30
0.0
11
-16.070445
21
36.421107
31
0.0
0
LINE
8
0
6
CONTINUOUS
10
-15.702110
20
36.633189
30
0.0
11
-15.874545
21
36.520388
31
0.0
0
LINE
8
0
6
CONTINUOUS
10
-15.437354
20
36.893702
30
0.0
11
-15.555566
21
36.758089
31
0.0
0
LINE
8
0
6
CONTINUOUS
10
-15.349902
20
37.038615
30
0.0
11
-15.437354
21
36.893702
31
0.0
0
LINE
8
0
6
CONTINUOUS
10
-15.295645
20
37.191431
30
0.0
11
-15.349902
21
37.038615
31
0.0
0
LINE
8
0
6
CONTINUOUS
10
-15.277020
20
37.350748
30
0.0
11
-15.295645
21
37.191431
31
0.0
0
LINE
8
0
6
CONTINUOUS
10
-15.295645
20
37.510081
30
0.0
11
-15.277020
21
37.350748
31
0.0
0
LINE
8
0
6
CONTINUOUS
10
-15.349902
20
37.662897
30
0.0
11
-15.295645
21
37.510081
31
0.0
0
LINE
8
0
6
CONTINUOUS
10
-15.437354
20
37.807802
30
0.0
11
-15.349902
21
37.662897
31
0.0
0
LINE
8
0
6
CONTINUOUS
10
-15.555566
20
37.943423
30
0.0
11
-15.437354
21
37.807802
31
0.0
0
LINE
8
0
6
CONTINUOUS
10
-15.702111
20
38.068323
30
0.0
11
-15.555566
21
37.943423
31
0.0
0
LINE
8
0
6
CONTINUOUS
10
-15.874545
20
38.181116
30
0.0
11
-15.702111
21
38.068323
31
0.0
0
LINE
8
0
6
CONTINUOUS
10
-16.070445
20
38.280398
30
0.0
11
-15.874545
21
38.181116
31
0.0
0
LINE
8
0
6
CONTINUOUS
10
-16.287372
20
38.364779
30
0.0
11
-16.070445
21
38.280398
31
0.0
0
LINE
8
0
6
CONTINUOUS
10
-16.522893
20
38.432841
30
0.0
11
-16.287372
21
38.364779
31
0.0
0
LINE
8
0
6
CONTINUOUS
10
-16.774575
20
38.483202
30
0.0
11
-16.522893
21
38.432841
31
0.0
0
LINE
8
0
6
CONTINUOUS
10
-17.039984
20
38.514437
30
0.0
11
-16.774575
21
38.483202
31
0.0
0
LINE
8
0
6
CONTINUOUS
10
-17.316686
20
38.525164
30
0.0
11
-17.039984
21
38.514437
31
0.0
0
LINE
8
0
6
CONTINUOUS
10
-17.593389
20
38.514437
30
0.0
11
-17.316686
21
38.525164
31
0.0
0
LINE
8
0
6
CONTINUOUS
10
-17.858797
20
38.483195
30
0.0
11
-17.593389
21
38.514437
31
0.0
0
LINE
8
0
6
CONTINUOUS
10
-18.110479
20
38.432841
30
0.0
11
-17.858797
21
38.483195
31
0.0
0
LINE
8
0
6
CONTINUOUS
10
-18.346000
20
38.364779
30
0.0
11
-18.110479
21
38.432841
31
0.0
0
LINE
8
0
6
CONTINUOUS
10
-18.562927
20
38.280398
30
0.0
11
-18.346000
21
38.364779
31
0.0
0
LINE
8
0
6
CONTINUOUS
10
-18.758825
20
38.181116
30
0.0
11
-18.562927
21
38.280398
31
0.0
0
LINE
8
0
6
CONTINUOUS
10
-18.931264
20
38.068323
30
0.0
11
-18.758825
21
38.181116
31
0.0
0
LINE
8
0
6
CONTINUOUS
10
-19.077806
20
37.943423
30
0.0
11
-18.931264
21
38.068323
31
0.0
0
LINE
8
0
6
CONTINUOUS
10
-19.196019
20
37.807802
30
0.0
11
-19.077806
21
37.943423
31
0.0
0
LINE
8
0
6
CONTINUOUS
10
-19.283471
20
37.662897
30
0.0
11
-19.196019
21
37.807802
31
0.0
0
LINE
8
0
6
CONTINUOUS
10
-19.337726
20
37.510081
30
0.0
11
-19.283471
21
37.662897
31
0.0
0
LINE
8
0
6
CONTINUOUS
10
-19.356353
20
37.350748
30
0.0
11
-19.337726
21
37.510081
31
0.0
0
LINE
8
0
6
CONTINUOUS
10
-19.425036
20
37.400965
30
0.0
11
-19.405789
21
37.236338
31
0.0
0
LINE
8
0
6
CONTINUOUS
10
-19.337726
20
37.191431
30
0.0
11
-19.356353
21
37.350748
31
0.0
0
LINE
8
0
6
CONTINUOUS
10
-19.405789
20
37.236338
30
0.0
11
-19.349701
21
37.078341
31
0.0
0
LINE
8
0
6
CONTINUOUS
10
-19.283471
20
37.038615
30
0.0
11
-19.337726
21
37.191431
31
0.0
0
LINE
8
0
6
CONTINUOUS
10
-19.196019
20
36.893702
30
0.0
11
-19.283471
21
37.038615
31
0.0
0
LINE
8
0
6
CONTINUOUS
10
-19.077804
20
36.758089
30
0.0
11
-19.196019
21
36.893702
31
0.0
0
LINE
8
0
6
CONTINUOUS
10
-18.758825
20
36.520388
30
0.0
11
-18.931262
21
36.633189
31
0.0
0
LINE
8
0
6
CONTINUOUS
10
-18.588207
20
36.432488
30
0.0
11
-18.562927
21
36.421107
31
0.0
0
LINE
8
0
6
CONTINUOUS
10
-18.562927
20
36.421107
30
0.0
11
-18.758825
21
36.520388
31
0.0
0
LINE
8
0
6
CONTINUOUS
10
-15.021561
20
37.113459
30
0.0
11
-15.221397
21
37.072008
31
0.0
0
LINE
8
0
6
CONTINUOUS
10
-14.859300
20
37.034540
30
0.0
11
-15.021561
21
37.113459
31
0.0
0
LINE
8
0
6
CONTINUOUS
10
-14.896872
20
36.914164
30
0.0
11
-14.859300
21
37.034540
31
0.0
0
LINE
8
0
6
CONTINUOUS
10
-15.096708
20
36.872713
30
0.0
11
-14.896872
21
36.914164
31
0.0
0
LINE
8
0
6
CONTINUOUS
10
-15.258970
20
36.951639
30
0.0
11
-15.096708
21
36.872713
31
0.0
0
LINE
8
0
6
CONTINUOUS
10
-15.221397
20
37.072008
30
0.0
11
-15.258970
21
36.951639
31
0.0
0
LINE
8
0
6
CONTINUOUS
10
-17.881864
20
39.556071
30
0.0
11
-17.746243
21
39.650194
31
0.0
0
LINE
8
0
6
CONTINUOUS
10
-18.091247
20
39.576632
30
0.0
11
-17.881864
21
39.556071
31
0.0
0
LINE
8
0
6
CONTINUOUS
10
-18.165010
20
39.691325
30
0.0
11
-18.091247
21
39.576632
31
0.0
0
LINE
8
0
6
CONTINUOUS
10
-18.029387
20
39.785448
30
0.0
11
-18.165010
21
39.691325
31
0.0
0
LINE
8
0
6
CONTINUOUS
10
-17.820006
20
39.764887
30
0.0
11
-18.029387
21
39.785448
31
0.0
0
LINE
8
0
6
CONTINUOUS
10
-17.746243
20
39.650194
30
0.0
11
-17.820006
21
39.764887
31
0.0
0
LINE
8
0
6
CONTINUOUS
10
-20.178680
20
39.091723
30
0.0
11
-20.384196
21
39.060816
31
0.0
0
LINE
8
0
6
CONTINUOUS
10
-20.029445
20
39.004694
30
0.0
11
-20.178680
21
39.091723
31
0.0
0
LINE
8
0
6
CONTINUOUS
10
-20.085725
20
38.886767
30
0.0
11
-20.029445
21
39.004694
31
0.0
0
LINE
8
0
6
CONTINUOUS
10
-20.291241
20
38.855868
30
0.0
11
-20.085725
21
38.886767
31
0.0
0
LINE
8
0
6
CONTINUOUS
10
-20.440476
20
38.942889
30
0.0
11
-20.291241
21
38.855868
31
0.0
0
LINE
8
0
6
CONTINUOUS
10
-20.384196
20
39.060816
30
0.0
11
-20.440476
21
38.942889
31
0.0
0
LINE
8
0
6
CONTINUOUS
10
-16.129937
20
37.925509
30
0.0
11
-15.980702
21
38.012537
31
0.0
0
LINE
8
0
6
CONTINUOUS
10
-16.335452
20
37.956408
30
0.0
11
-16.129937
21
37.925509
31
0.0
0
LINE
8
0
6
CONTINUOUS
10
-16.391733
20
38.074335
30
0.0
11
-16.335452
21
37.956408
31
0.0
0
LINE
8
0
6
CONTINUOUS
10
-16.242497
20
38.161364
30
0.0
11
-16.391733
21
38.074335
31
0.0
0
LINE
8
0
6
CONTINUOUS
10
-16.036983
20
38.130465
30
0.0
11
-16.242497
21
38.161364
31
0.0
0
LINE
8
0
6
CONTINUOUS
10
-15.980702
20
38.012537
30
0.0
11
-16.036983
21
38.130465
31
0.0
0
LINE
8
0
6
CONTINUOUS
10
-15.840608
20
36.428576
30
0.0
11
-15.878182
21
36.308207
31
0.0
0
LINE
8
0
6
CONTINUOUS
10
-15.640773
20
36.470034
30
0.0
11
-15.840608
21
36.428576
31
0.0
0
LINE
8
0
6
CONTINUOUS
10
-15.478510
20
36.391108
30
0.0
11
-15.640773
21
36.470034
31
0.0
0
LINE
8
0
6
CONTINUOUS
10
-15.516084
20
36.270739
30
0.0
11
-15.478510
21
36.391108
31
0.0
0
LINE
8
0
6
CONTINUOUS
10
-15.715918
20
36.229289
30
0.0
11
-15.516084
21
36.270739
31
0.0
0
LINE
8
0
6
CONTINUOUS
10
-15.878182
20
36.308207
30
0.0
11
-15.715918
21
36.229289
31
0.0
0
LINE
8
0
6
CONTINUOUS
10
-13.428911
20
36.545649
30
0.0
11
-13.591173
21
36.466723
31
0.0
0
LINE
8
0
6
CONTINUOUS
10
-13.229075
20
36.504191
30
0.0
11
-13.428911
21
36.545649
31
0.0
0
LINE
8
0
6
CONTINUOUS
10
-13.191502
20
36.383822
30
0.0
11
-13.229075
21
36.504191
31
0.0
0
LINE
8
0
6
CONTINUOUS
10
-13.353764
20
36.304903
30
0.0
11
-13.191502
21
36.383822
31
0.0
0
LINE
8
0
6
CONTINUOUS
10
-13.553600
20
36.346354
30
0.0
11
-13.353764
21
36.304903
31
0.0
0
LINE
8
0
6
CONTINUOUS
10
-13.591173
20
36.466723
30
0.0
11
-13.553600
21
36.346354
31
0.0
0
LINE
8
0
6
CONTINUOUS
10
-18.917243
20
36.234348
30
0.0
11
-18.754982
21
36.313273
31
0.0
0
LINE
8
0
6
CONTINUOUS
10
-19.117079
20
36.275797
30
0.0
11
-18.917243
21
36.234348
31
0.0
0
LINE
8
0
6
CONTINUOUS
10
-19.154653
20
36.396166
30
0.0
11
-19.117079
21
36.275797
31
0.0
0
LINE
8
0
6
CONTINUOUS
10
-18.992389
20
36.475092
30
0.0
11
-19.154653
21
36.396166
31
0.0
0
LINE
8
0
6
CONTINUOUS
10
-18.792554
20
36.433642
30
0.0
11
-18.992389
21
36.475092
31
0.0
0
LINE
8
0
6
CONTINUOUS
10
-18.754982
20
36.313273
30
0.0
11
-18.792554
21
36.433642
31
0.0
0
LINE
8
0
6
CONTINUOUS
10
-15.527058
20
39.304446
30
0.0
11
-15.314849
21
39.299158
31
0.0
0
LINE
8
0
6
CONTINUOUS
10
-15.625209
20
39.412913
30
0.0
11
-15.527058
21
39.304446
31
0.0
0
LINE
8
0
6
CONTINUOUS
10
-15.511153
20
39.516085
30
0.0
11
-15.625209
21
39.412913
31
0.0
0
LINE
8
0
6
CONTINUOUS
10
-15.298946
20
39.510798
30
0.0
11
-15.511153
21
39.516085
31
0.0
0
LINE
8
0
6
CONTINUOUS
10
-15.200792
20
39.402338
30
0.0
11
-15.298946
21
39.510798
31
0.0
0
LINE
8
0
6
CONTINUOUS
10
-15.314849
20
39.299158
30
0.0
11
-15.200792
21
39.402338
31
0.0
0
LINE
8
0
6
CONTINUOUS
10
-21.743447
20
37.030207
30
0.0
11
-21.543613
21
37.071657
31
0.0
0
LINE
8
0
6
CONTINUOUS
10
-21.905710
20
37.109133
30
0.0
11
-21.743447
21
37.030207
31
0.0
0
LINE
8
0
6
CONTINUOUS
10
-21.868138
20
37.229502
30
0.0
11
-21.905710
21
37.109133
31
0.0
0
LINE
8
0
6
CONTINUOUS
10
-21.668302
20
37.270952
30
0.0
11
-21.868138
21
37.229502
31
0.0
0
LINE
8
0
6
CONTINUOUS
10
-21.506040
20
37.192026
30
0.0
11
-21.668302
21
37.270952
31
0.0
0
LINE
8
0
6
CONTINUOUS
10
-21.543613
20
37.071657
30
0.0
11
-21.506040
21
37.192026
31
0.0
0
LINE
8
0
6
CONTINUOUS
10
-19.632768
20
37.861193
30
0.0
11
-19.822370
21
37.806063
31
0.0
0
LINE
8
0
6
CONTINUOUS
10
-19.455049
20
37.794207
30
0.0
11
-19.632768
21
37.861193
31
0.0
0
LINE
8
0
6
CONTINUOUS
10
-19.466932
20
37.672106
30
0.0
11
-19.455049
21
37.794207
31
0.0
0
LINE
8
0
6
CONTINUOUS
10
-19.656536
20
37.616968
30
0.0
11
-19.466932
21
37.672106
31
0.0
0
LINE
8
0
6
CONTINUOUS
10
-19.834256
20
37.683955
30
0.0
11
-19.656536
21
37.616968
31
0.0
0
LINE
8
0
6
CONTINUOUS
10
-19.822370
20
37.806063
30
0.0
11
-19.834256
21
37.683955
31
0.0
0
LINE
8
0
6
CONTINUOUS
10
-17.836821
20
36.527033
30
0.0
11
-17.674559
21
36.605959
31
0.0
0
LINE
8
0
6
CONTINUOUS
10
-18.036656
20
36.568476
30
0.0
11
-17.836821
21
36.527033
31
0.0
0
LINE
8
0
6
CONTINUOUS
10
-18.074230
20
36.688853
30
0.0
11
-18.036656
21
36.568476
31
0.0
0
LINE
8
0
6
CONTINUOUS
10
-17.911967
20
36.767779
30
0.0
11
-18.074230
21
36.688853
31
0.0
0
LINE
8
0
6
CONTINUOUS
10
-17.712132
20
36.726328
30
0.0
11
-17.911967
21
36.767779
31
0.0
0
LINE
8
0
6
CONTINUOUS
10
-17.674559
20
36.605959
30
0.0
11
-17.712132
21
36.726328
31
0.0
0
LINE
8
0
6
CONTINUOUS
10
-14.399197
20
36.265093
30
0.0
11
-14.561458
21
36.186168
31
0.0
0
LINE
8
0
6
CONTINUOUS
10
-14.199360
20
36.223636
30
0.0
11
-14.399197
21
36.265093
31
0.0
0
LINE
8
0
6
CONTINUOUS
10
-14.161788
20
36.103259
30
0.0
11
-14.199360
21
36.223636
31
0.0
0
LINE
8
0
6
CONTINUOUS
10
-14.324049
20
36.024349
30
0.0
11
-14.161788
21
36.103259
31
0.0
0
LINE
8
0
6
CONTINUOUS
10
-14.523886
20
36.065791
30
0.0
11
-14.324049
21
36.024349
31
0.0
0
LINE
8
0
6
CONTINUOUS
10
-14.561458
20
36.186168
30
0.0
11
-14.523886
21
36.065791
31
0.0
0
LINE
8
0
6
CONTINUOUS
10
-16.697728
20
35.488353
30
0.0
11
-16.497894
21
35.529796
31
0.0
0
LINE
8
0
6
CONTINUOUS
10
-16.859992
20
35.567272
30
0.0
11
-16.697728
21
35.488353
31
0.0
0
LINE
8
0
6
CONTINUOUS
10
-16.822417
20
35.687648
30
0.0
11
-16.859992
21
35.567272
31
0.0
0
LINE
8
0
6
CONTINUOUS
10
-16.622583
20
35.729091
30
0.0
11
-16.822417
21
35.687648
31
0.0
0
LINE
8
0
6
CONTINUOUS
10
-16.460320
20
35.650180
30
0.0
11
-16.622583
21
35.729091
31
0.0
0
LINE
8
0
6
CONTINUOUS
10
-16.497894
20
35.529796
30
0.0
11
-16.460320
21
35.650180
31
0.0
0
LINE
8
0
6
CONTINUOUS
10
-17.468760
20
40.368326
30
0.0
11
-17.532246
21
40.251620
31
0.0
0
LINE
8
0
6
CONTINUOUS
10
-17.261476
20
40.395022
30
0.0
11
-17.468760
21
40.368326
31
0.0
0
LINE
8
0
6
CONTINUOUS
10
-17.117679
20
40.305018
30
0.0
11
-17.261476
21
40.395022
31
0.0
0
LINE
8
0
6
CONTINUOUS
10
-17.181165
20
40.188303
30
0.0
11
-17.117679
21
40.305018
31
0.0
0
LINE
8
0
6
CONTINUOUS
10
-17.388448
20
40.161608
30
0.0
11
-17.181165
21
40.188303
31
0.0
0
LINE
8
0
6
CONTINUOUS
10
-17.532246
20
40.251620
30
0.0
11
-17.388448
21
40.161608
31
0.0
0
LINE
8
0
6
CONTINUOUS
10
-15.166230
20
37.665003
30
0.0
11
-14.976628
21
37.609873
31
0.0
0
LINE
8
0
6
CONTINUOUS
10
-15.178115
20
37.787112
30
0.0
11
-15.166230
21
37.665003
31
0.0
0
LINE
8
0
6
CONTINUOUS
10
-15.000394
20
37.854090
30
0.0
11
-15.178115
21
37.787112
31
0.0
0
LINE
8
0
6
CONTINUOUS
10
-14.810792
20
37.798968
30
0.0
11
-15.000394
21
37.854090
31
0.0
0
LINE
8
0
6
CONTINUOUS
10
-14.798906
20
37.676859
30
0.0
11
-14.810792
21
37.798968
31
0.0
0
LINE
8
0
6
CONTINUOUS
10
-14.976628
20
37.609873
30
0.0
11
-14.798906
21
37.676859
31
0.0
0
LINE
8
0
6
CONTINUOUS
10
-18.730292
20
40.026919
30
0.0
11
-18.520909
21
40.006350
31
0.0
0
LINE
8
0
6
CONTINUOUS
10
-18.804054
20
40.141604
30
0.0
11
-18.730292
21
40.026919
31
0.0
0
LINE
8
0
6
CONTINUOUS
10
-18.668432
20
40.235735
30
0.0
11
-18.804054
21
40.141604
31
0.0
0
LINE
8
0
6
CONTINUOUS
10
-18.459051
20
40.215166
30
0.0
11
-18.668432
21
40.235735
31
0.0
0
LINE
8
0
6
CONTINUOUS
10
-18.385289
20
40.100474
30
0.0
11
-18.459051
21
40.215166
31
0.0
0
LINE
8
0
6
CONTINUOUS
10
-18.520909
20
40.006350
30
0.0
11
-18.385289
21
40.100474
31
0.0
0
LINE
8
0
6
CONTINUOUS
10
-21.053599
20
38.385119
30
0.0
11
-21.065484
21
38.263010
31
0.0
0
LINE
8
0
6
CONTINUOUS
10
-20.863995
20
38.440241
30
0.0
11
-21.053599
21
38.385119
31
0.0
0
LINE
8
0
6
CONTINUOUS
10
-20.686275
20
38.373270
30
0.0
11
-20.863995
21
38.440241
31
0.0
0
LINE
8
0
6
CONTINUOUS
10
-20.698159
20
38.251154
30
0.0
11
-20.686275
21
38.373270
31
0.0
0
LINE
8
0
6
CONTINUOUS
10
-20.887763
20
38.196032
30
0.0
11
-20.698159
21
38.251154
31
0.0
0
LINE
8
0
6
CONTINUOUS
10
-21.065484
20
38.263010
30
0.0
11
-20.887763
21
38.196032
31
0.0
0
LINE
8
0
6
CONTINUOUS
10
-17.414733
20
38.405291
30
0.0
11
-17.476042
21
38.349833
31
0.0
0
LINE
8
0
6
CONTINUOUS
10
-17.476042
20
38.349833
30
0.0
11
-17.528789
21
38.302119
31
0.0
0
LINE
8
0
6
CONTINUOUS
10
-17.202526
20
38.400004
30
0.0
11
-17.414733
21
38.405291
31
0.0
0
LINE
8
0
6
CONTINUOUS
10
-17.104373
20
38.291544
30
0.0
11
-17.202526
21
38.400004
31
0.0
0
LINE
8
0
6
CONTINUOUS
10
-17.218430
20
38.188372
30
0.0
11
-17.104373
21
38.291544
31
0.0
0
LINE
8
0
6
CONTINUOUS
10
-17.430638
20
38.193667
30
0.0
11
-17.218430
21
38.188372
31
0.0
0
LINE
8
0
6
CONTINUOUS
10
-17.528789
20
38.302119
30
0.0
11
-17.524006
21
38.296833
31
0.0
0
LINE
8
0
6
CONTINUOUS
10
-17.524006
20
38.296833
30
0.0
11
-17.430638
21
38.193667
31
0.0
0
LINE
8
0
6
CONTINUOUS
10
-16.589712
20
35.407008
30
0.0
11
-16.789547
21
35.365566
31
0.0
0
LINE
8
0
6
CONTINUOUS
10
-16.427449
20
35.328090
30
0.0
11
-16.589712
21
35.407008
31
0.0
0
LINE
8
0
6
CONTINUOUS
10
-16.465021
20
35.207713
30
0.0
11
-16.427449
21
35.328090
31
0.0
0
LINE
8
0
6
CONTINUOUS
10
-16.664858
20
35.166263
30
0.0
11
-16.465021
21
35.207713
31
0.0
0
LINE
8
0
6
CONTINUOUS
10
-16.827119
20
35.245189
30
0.0
11
-16.664858
21
35.166263
31
0.0
0
LINE
8
0
6
CONTINUOUS
10
-16.789547
20
35.365566
30
0.0
11
-16.827119
21
35.245189
31
0.0
0
LINE
8
0
6
CONTINUOUS
10
-20.350341
20
37.391680
30
0.0
11
-20.512603
21
37.312769
31
0.0
0
LINE
8
0
6
CONTINUOUS
10
-20.150506
20
37.350237
30
0.0
11
-20.350341
21
37.391680
31
0.0
0
LINE
8
0
6
CONTINUOUS
10
-20.112934
20
37.229861
30
0.0
11
-20.150506
21
37.350237
31
0.0
0
LINE
8
0
6
CONTINUOUS
10
-20.275195
20
37.150934
30
0.0
11
-20.112934
21
37.229861
31
0.0
0
LINE
8
0
6
CONTINUOUS
10
-20.475032
20
37.192393
30
0.0
11
-20.275195
21
37.150934
31
0.0
0
LINE
8
0
6
CONTINUOUS
10
-20.512603
20
37.312769
30
0.0
11
-20.475032
21
37.192393
31
0.0
0
LINE
8
0
6
CONTINUOUS
10
-16.780206
20
38.744616
30
0.0
11
-16.894263
21
38.641444
31
0.0
0
LINE
8
0
6
CONTINUOUS
10
-16.567999
20
38.739329
30
0.0
11
-16.780206
21
38.744616
31
0.0
0
LINE
8
0
6
CONTINUOUS
10
-16.469846
20
38.630869
30
0.0
11
-16.567999
21
38.739329
31
0.0
0
LINE
8
0
6
CONTINUOUS
10
-16.583903
20
38.527697
30
0.0
11
-16.469846
21
38.630869
31
0.0
0
LINE
8
0
6
CONTINUOUS
10
-16.796111
20
38.532984
30
0.0
11
-16.583903
21
38.527697
31
0.0
0
LINE
8
0
6
CONTINUOUS
10
-16.894263
20
38.641444
30
0.0
11
-16.796111
21
38.532984
31
0.0
0
LINE
8
0
6
CONTINUOUS
10
-20.774684
20
39.417216
30
0.0
11
-20.980199
21
39.386309
31
0.0
0
LINE
8
0
6
CONTINUOUS
10
-20.625450
20
39.330187
30
0.0
11
-20.774684
21
39.417216
31
0.0
0
LINE
8
0
6
CONTINUOUS
10
-20.681729
20
39.212260
30
0.0
11
-20.625450
21
39.330187
31
0.0
0
LINE
8
0
6
CONTINUOUS
10
-20.887245
20
39.181353
30
0.0
11
-20.681729
21
39.212260
31
0.0
0
LINE
8
0
6
CONTINUOUS
10
-21.036481
20
39.268381
30
0.0
11
-20.887245
21
39.181353
31
0.0
0
LINE
8
0
6
CONTINUOUS
10
-20.980199
20
39.386309
30
0.0
11
-21.036481
21
39.268381
31
0.0
0
LINE
8
0
6
CONTINUOUS
10
-15.760301
20
36.856867
30
0.0
11
-15.960136
21
36.815424
31
0.0
0
LINE
8
0
6
CONTINUOUS
10
-15.598039
20
36.777949
30
0.0
11
-15.760301
21
36.856867
31
0.0
0
LINE
8
0
6
CONTINUOUS
10
-15.635612
20
36.657572
30
0.0
11
-15.598039
21
36.777949
31
0.0
0
LINE
8
0
6
CONTINUOUS
10
-15.835447
20
36.616122
30
0.0
11
-15.635612
21
36.657572
31
0.0
0
LINE
8
0
6
CONTINUOUS
10
-15.997709
20
36.695048
30
0.0
11
-15.835447
21
36.616122
31
0.0
0
LINE
8
0
6
CONTINUOUS
10
-15.960136
20
36.815424
30
0.0
11
-15.997709
21
36.695048
31
0.0
0
LINE
8
0
6
CONTINUOUS
10
-18.065164
20
38.741259
30
0.0
11
-18.163316
21
38.632792
31
0.0
0
LINE
8
0
6
CONTINUOUS
10
-17.852957
20
38.746538
30
0.0
11
-18.065164
21
38.741259
31
0.0
0
LINE
8
0
6
CONTINUOUS
10
-17.738901
20
38.643366
30
0.0
11
-17.852957
21
38.746538
31
0.0
0
LINE
8
0
6
CONTINUOUS
10
-17.837051
20
38.534907
30
0.0
11
-17.738901
21
38.643366
31
0.0
0
LINE
8
0
6
CONTINUOUS
10
-18.049259
20
38.529619
30
0.0
11
-17.837051
21
38.534907
31
0.0
0
LINE
8
0
6
CONTINUOUS
10
-18.163316
20
38.632792
30
0.0
11
-18.049259
21
38.529619
31
0.0
0
LINE
8
0
6
CONTINUOUS
10
-13.745400
20
38.185496
30
0.0
11
-13.567679
21
38.252474
31
0.0
0
LINE
8
0
6
CONTINUOUS
10
-13.935003
20
38.240626
30
0.0
11
-13.745400
21
38.185496
31
0.0
0
LINE
8
0
6
CONTINUOUS
10
-13.946887
20
38.362734
30
0.0
11
-13.935003
21
38.240626
31
0.0
0
LINE
8
0
6
CONTINUOUS
10
-13.769167
20
38.429713
30
0.0
11
-13.946887
21
38.362734
31
0.0
0
LINE
8
0
6
CONTINUOUS
10
-13.579565
20
38.374583
30
0.0
11
-13.769167
21
38.429713
31
0.0
0
LINE
8
0
6
CONTINUOUS
10
-13.567679
20
38.252474
30
0.0
11
-13.579565
21
38.374583
31
0.0
0
LINE
8
0
6
CONTINUOUS
10
-21.404089
20
36.516688
30
0.0
11
-21.441661
21
36.396311
31
0.0
0
LINE
8
0
6
CONTINUOUS
10
-21.204252
20
36.558138
30
0.0
11
-21.404089
21
36.516688
31
0.0
0
LINE
8
0
6
CONTINUOUS
10
-21.041991
20
36.479220
30
0.0
11
-21.204252
21
36.558138
31
0.0
0
LINE
8
0
6
CONTINUOUS
10
-21.079563
20
36.358843
30
0.0
11
-21.041991
21
36.479220
31
0.0
0
LINE
8
0
6
CONTINUOUS
10
-21.279398
20
36.317393
30
0.0
11
-21.079563
21
36.358843
31
0.0
0
LINE
8
0
6
CONTINUOUS
10
-21.441661
20
36.396311
30
0.0
11
-21.279398
21
36.317393
31
0.0
0
LINE
8
0
6
CONTINUOUS
10
-18.986669
20
38.454706
30
0.0
11
-19.192184
21
38.423807
31
0.0
0
LINE
8
0
6
CONTINUOUS
10
-18.837435
20
38.367686
30
0.0
11
-18.986669
21
38.454706
31
0.0
0
LINE
8
0
6
CONTINUOUS
10
-18.893715
20
38.249758
30
0.0
11
-18.837435
21
38.367686
31
0.0
0
LINE
8
0
6
CONTINUOUS
10
-19.099230
20
38.218859
30
0.0
11
-18.893715
21
38.249758
31
0.0
0
LINE
8
0
6
CONTINUOUS
10
-19.248466
20
38.305880
30
0.0
11
-19.099230
21
38.218859
31
0.0
0
LINE
8
0
6
CONTINUOUS
10
-19.192184
20
38.423807
30
0.0
11
-19.248466
21
38.305880
31
0.0
0
LINE
8
0
6
CONTINUOUS
10
-16.725942
20
37.659479
30
0.0
11
-16.576707
21
37.746516
31
0.0
0
LINE
8
0
6
CONTINUOUS
10
-16.931458
20
37.690386
30
0.0
11
-16.725942
21
37.659479
31
0.0
0
LINE
8
0
6
CONTINUOUS
10
-16.987738
20
37.808314
30
0.0
11
-16.931458
21
37.690386
31
0.0
0
LINE
8
0
6
CONTINUOUS
10
-16.838503
20
37.895342
30
0.0
11
-16.987738
21
37.808314
31
0.0
0
LINE
8
0
6
CONTINUOUS
10
-16.632989
20
37.864443
30
0.0
11
-16.838503
21
37.895342
31
0.0
0
LINE
8
0
6
CONTINUOUS
10
-16.576707
20
37.746516
30
0.0
11
-16.632989
21
37.864443
31
0.0
0
LINE
8
0
6
CONTINUOUS
10
-19.356136
20
35.536357
30
0.0
11
-19.156299
21
35.494907
31
0.0
0
LINE
8
0
6
CONTINUOUS
10
-19.393707
20
35.656726
30
0.0
11
-19.356136
21
35.536357
31
0.0
0
LINE
8
0
6
CONTINUOUS
10
-19.231446
20
35.735652
30
0.0
11
-19.393707
21
35.656726
31
0.0
0
LINE
8
0
6
CONTINUOUS
10
-19.031610
20
35.694202
30
0.0
11
-19.231446
21
35.735652
31
0.0
0
LINE
8
0
6
CONTINUOUS
10
-18.994038
20
35.573833
30
0.0
11
-19.031610
21
35.694202
31
0.0
0
LINE
8
0
6
CONTINUOUS
10
-19.156299
20
35.494907
30
0.0
11
-18.994038
21
35.573833
31
0.0
0
LINE
8
0
6
CONTINUOUS
10
-17.452202
20
39.148707
30
0.0
11
-17.242820
21
39.128138
31
0.0
0
LINE
8
0
6
CONTINUOUS
10
-17.525965
20
39.263392
30
0.0
11
-17.452202
21
39.148707
31
0.0
0
LINE
8
0
6
CONTINUOUS
10
-17.390342
20
39.357516
30
0.0
11
-17.525965
21
39.263392
31
0.0
0
LINE
8
0
6
CONTINUOUS
10
-17.180960
20
39.336954
30
0.0
11
-17.390342
21
39.357516
31
0.0
0
LINE
8
0
6
CONTINUOUS
10
-17.107199
20
39.222262
30
0.0
11
-17.180960
21
39.336954
31
0.0
0
LINE
8
0
6
CONTINUOUS
10
-17.242820
20
39.128138
30
0.0
11
-17.107199
21
39.222262
31
0.0
0
LINE
8
0
6
CONTINUOUS
10
-19.111917
20
36.098468
30
0.0
11
-19.274181
21
36.019542
31
0.0
0
LINE
8
0
6
CONTINUOUS
10
-18.912083
20
36.057018
30
0.0
11
-19.111917
21
36.098468
31
0.0
0
LINE
8
0
6
CONTINUOUS
10
-18.874509
20
35.936649
30
0.0
11
-18.912083
21
36.057018
31
0.0
0
LINE
8
0
6
CONTINUOUS
10
-19.036772
20
35.857723
30
0.0
11
-18.874509
21
35.936649
31
0.0
0
LINE
8
0
6
CONTINUOUS
10
-19.236607
20
35.899173
30
0.0
11
-19.036772
21
35.857723
31
0.0
0
LINE
8
0
6
CONTINUOUS
10
-19.274181
20
36.019542
30
0.0
11
-19.236607
21
35.899173
31
0.0
0
LINE
8
0
6
CONTINUOUS
10
-17.218429
20
38.405291
30
0.0
11
-17.430638
21
38.400004
31
0.0
0
LINE
8
0
6
CONTINUOUS
10
-17.104373
20
38.302119
30
0.0
11
-17.218429
21
38.405291
31
0.0
0
LINE
8
0
6
CONTINUOUS
10
-17.202526
20
38.193667
30
0.0
11
-17.104373
21
38.302119
31
0.0
0
LINE
8
0
6
CONTINUOUS
10
-17.414733
20
38.188372
30
0.0
11
-17.202526
21
38.193667
31
0.0
0
LINE
8
0
6
CONTINUOUS
10
-17.528790
20
38.291544
30
0.0
11
-17.414733
21
38.188372
31
0.0
0
LINE
8
0
6
CONTINUOUS
10
-17.430638
20
38.400004
30
0.0
11
-17.528790
21
38.291544
31
0.0
0
LINE
8
0
6
CONTINUOUS
10
-16.145680
20
39.110041
30
0.0
11
-16.259736
21
39.006869
31
0.0
0
LINE
8
0
6
CONTINUOUS
10
-15.933472
20
39.104754
30
0.0
11
-16.145680
21
39.110041
31
0.0
0
LINE
8
0
6
CONTINUOUS
10
-15.835320
20
38.996302
30
0.0
11
-15.933472
21
39.104754
31
0.0
0
LINE
8
0
6
CONTINUOUS
10
-15.949376
20
38.893122
30
0.0
11
-15.835320
21
38.996302
31
0.0
0
LINE
8
0
6
CONTINUOUS
10
-16.161584
20
38.898409
30
0.0
11
-15.949376
21
38.893122
31
0.0
0
LINE
8
0
6
CONTINUOUS
10
-16.259736
20
39.006869
30
0.0
11
-16.161584
21
38.898409
31
0.0
0
LINE
8
0
6
CONTINUOUS
10
-15.050488
20
38.740496
30
0.0
11
-15.199722
21
38.653460
31
0.0
0
LINE
8
0
6
CONTINUOUS
10
-14.844973
20
38.709589
30
0.0
11
-15.050488
21
38.740496
31
0.0
0
LINE
8
0
6
CONTINUOUS
10
-14.788692
20
38.591662
30
0.0
11
-14.844973
21
38.709589
31
0.0
0
LINE
8
0
6
CONTINUOUS
10
-14.937927
20
38.504633
30
0.0
11
-14.788692
21
38.591662
31
0.0
0
LINE
8
0
6
CONTINUOUS
10
-15.143443
20
38.535532
30
0.0
11
-14.937927
21
38.504633
31
0.0
0
LINE
8
0
6
CONTINUOUS
10
-15.199722
20
38.653460
30
0.0
11
-15.143443
21
38.535532
31
0.0
0
LINE
8
0
6
CONTINUOUS
10
-21.213771
20
37.477885
30
0.0
11
-21.013934
21
37.436434
31
0.0
0
LINE
8
0
6
CONTINUOUS
10
-21.251342
20
37.598254
30
0.0
11
-21.213771
21
37.477885
31
0.0
0
LINE
8
0
6
CONTINUOUS
10
-21.089081
20
37.677180
30
0.0
11
-21.251342
21
37.598254
31
0.0
0
LINE
8
0
6
CONTINUOUS
10
-20.889245
20
37.635729
30
0.0
11
-21.089081
21
37.677180
31
0.0
0
LINE
8
0
6
CONTINUOUS
10
-20.851672
20
37.515360
30
0.0
11
-20.889245
21
37.635729
31
0.0
0
LINE
8
0
6
CONTINUOUS
10
-21.013934
20
37.436434
30
0.0
11
-20.851672
21
37.515360
31
0.0
0
LINE
8
0
6
CONTINUOUS
10
-19.017155
20
37.596957
30
0.0
11
-19.206757
21
37.541827
31
0.0
0
LINE
8
0
6
CONTINUOUS
10
-18.839435
20
37.529970
30
0.0
11
-19.017155
21
37.596957
31
0.0
0
LINE
8
0
6
CONTINUOUS
10
-18.851319
20
37.407870
30
0.0
11
-18.839435
21
37.529970
31
0.0
0
LINE
8
0
6
CONTINUOUS
10
-19.040922
20
37.352732
30
0.0
11
-18.851319
21
37.407870
31
0.0
0
LINE
8
0
6
CONTINUOUS
10
-19.218643
20
37.419718
30
0.0
11
-19.040922
21
37.352732
31
0.0
0
LINE
8
0
6
CONTINUOUS
10
-19.206757
20
37.541827
30
0.0
11
-19.218643
21
37.419718
31
0.0
0
LINE
8
0
6
CONTINUOUS
10
-14.361013
20
37.893435
30
0.0
11
-14.183293
21
37.960413
31
0.0
0
LINE
8
0
6
CONTINUOUS
10
-14.550618
20
37.948565
30
0.0
11
-14.361013
21
37.893435
31
0.0
0
LINE
8
0
6
CONTINUOUS
10
-14.562500
20
38.070666
30
0.0
11
-14.550618
21
37.948565
31
0.0
0
LINE
8
0
6
CONTINUOUS
10
-14.384781
20
38.137652
30
0.0
11
-14.562500
21
38.070666
31
0.0
0
LINE
8
0
6
CONTINUOUS
10
-14.195178
20
38.082529
30
0.0
11
-14.384781
21
38.137652
31
0.0
0
LINE
8
0
6
CONTINUOUS
10
-14.183293
20
37.960413
30
0.0
11
-14.195178
21
38.082529
31
0.0
0
LINE
8
0
6
CONTINUOUS
10
-18.487484
20
39.113245
30
0.0
11
-18.699690
21
39.107958
31
0.0
0
LINE
8
0
6
CONTINUOUS
10
-18.373428
20
39.010073
30
0.0
11
-18.487484
21
39.113245
31
0.0
0
LINE
8
0
6
CONTINUOUS
10
-18.471579
20
38.901614
30
0.0
11
-18.373428
21
39.010073
31
0.0
0
LINE
8
0
6
CONTINUOUS
10
-18.683787
20
38.896326
30
0.0
11
-18.471579
21
38.901614
31
0.0
0
LINE
8
0
6
CONTINUOUS
10
-18.797843
20
38.999499
30
0.0
11
-18.683787
21
38.896326
31
0.0
0
LINE
8
0
6
CONTINUOUS
10
-18.699690
20
39.107958
30
0.0
11
-18.797843
21
38.999499
31
0.0
0
LINE
8
0
6
CONTINUOUS
10
-16.397457
20
37.175951
30
0.0
11
-16.207855
21
37.120821
31
0.0
0
LINE
8
0
6
CONTINUOUS
10
-16.409342
20
37.298060
30
0.0
11
-16.397457
21
37.175951
31
0.0
0
LINE
8
0
6
CONTINUOUS
10
-16.231621
20
37.365046
30
0.0
11
-16.409342
21
37.298060
31
0.0
0
LINE
8
0
6
CONTINUOUS
10
-16.042019
20
37.309908
30
0.0
11
-16.231621
21
37.365046
31
0.0
0
LINE
8
0
6
CONTINUOUS
10
-16.030133
20
37.187800
30
0.0
11
-16.042019
21
37.309908
31
0.0
0
LINE
8
0
6
CONTINUOUS
10
-16.207855
20
37.120821
30
0.0
11
-16.030133
21
37.187800
31
0.0
0
LINE
8
0
6
CONTINUOUS
10
-19.122010
20
39.521601
30
0.0
11
-19.334218
21
39.516314
31
0.0
0
LINE
8
0
6
CONTINUOUS
10
-19.007953
20
39.418429
30
0.0
11
-19.122010
21
39.521601
31
0.0
0
LINE
8
0
6
CONTINUOUS
10
-19.106105
20
39.309962
30
0.0
11
-19.007953
21
39.418429
31
0.0
0
LINE
8
0
6
CONTINUOUS
10
-19.318314
20
39.304674
30
0.0
11
-19.106105
21
39.309962
31
0.0
0
LINE
8
0
6
CONTINUOUS
10
-19.432370
20
39.407847
30
0.0
11
-19.318314
21
39.304674
31
0.0
0
LINE
8
0
6
CONTINUOUS
10
-19.334218
20
39.516314
30
0.0
11
-19.432370
21
39.407847
31
0.0
0
LINE
8
0
6
CONTINUOUS
10
-20.393485
20
35.677661
30
0.0
11
-20.193651
21
35.719112
31
0.0
0
LINE
8
0
6
CONTINUOUS
10
-20.555747
20
35.756587
30
0.0
11
-20.393485
21
35.677661
31
0.0
0
LINE
8
0
6
CONTINUOUS
10
-20.518175
20
35.876964
30
0.0
11
-20.555747
21
35.756587
31
0.0
0
LINE
8
0
6
CONTINUOUS
10
-20.318340
20
35.918407
30
0.0
11
-20.518175
21
35.876964
31
0.0
0
LINE
8
0
6
CONTINUOUS
10
-20.156077
20
35.839488
30
0.0
11
-20.318340
21
35.918407
31
0.0
0
LINE
8
0
6
CONTINUOUS
10
-20.193651
20
35.719112
30
0.0
11
-20.156077
21
35.839488
31
0.0
0
LINE
8
0
6
CONTINUOUS
10
-18.043452
20
35.418399
30
0.0
11
-18.205714
21
35.339473
31
0.0
0
LINE
8
0
6
CONTINUOUS
10
-17.843617
20
35.376941
30
0.0
11
-18.043452
21
35.418399
31
0.0
0
LINE
8
0
6
CONTINUOUS
10
-17.806043
20
35.256572
30
0.0
11
-17.843617
21
35.376941
31
0.0
0
LINE
8
0
6
CONTINUOUS
10
-17.968306
20
35.177654
30
0.0
11
-17.806043
21
35.256572
31
0.0
0
LINE
8
0
6
CONTINUOUS
10
-18.168141
20
35.219104
30
0.0
11
-17.968306
21
35.177654
31
0.0
0
LINE
8
0
6
CONTINUOUS
10
-18.205714
20
35.339473
30
0.0
11
-18.168141
21
35.219104
31
0.0
0
LINE
8
0
6
CONTINUOUS
10
-21.669211
20
38.723795
30
0.0
11
-21.681098
21
38.601679
31
0.0
0
LINE
8
0
6
CONTINUOUS
10
-21.479609
20
38.778918
30
0.0
11
-21.669211
21
38.723795
31
0.0
0
LINE
8
0
6
CONTINUOUS
10
-21.301889
20
38.711931
30
0.0
11
-21.479609
21
38.778918
31
0.0
0
LINE
8
0
6
CONTINUOUS
10
-21.313774
20
38.589831
30
0.0
11
-21.301889
21
38.711931
31
0.0
0
LINE
8
0
6
CONTINUOUS
10
-21.503376
20
38.534701
30
0.0
11
-21.313774
21
38.589831
31
0.0
0
LINE
8
0
6
CONTINUOUS
10
-21.681098
20
38.601679
30
0.0
11
-21.503376
21
38.534701
31
0.0
0
LINE
8
0
6
CONTINUOUS
10
-13.858478
20
39.407435
30
0.0
11
-14.007713
21
39.320406
31
0.0
0
LINE
8
0
6
CONTINUOUS
10
-13.652963
20
39.376536
30
0.0
11
-13.858478
21
39.407435
31
0.0
0
LINE
8
0
6
CONTINUOUS
10
-13.596682
20
39.258608
30
0.0
11
-13.652963
21
39.376536
31
0.0
0
LINE
8
0
6
CONTINUOUS
10
-13.745917
20
39.171580
30
0.0
11
-13.596682
21
39.258608
31
0.0
0
LINE
8
0
6
CONTINUOUS
10
-13.951433
20
39.202486
30
0.0
11
-13.745917
21
39.171580
31
0.0
0
LINE
8
0
6
CONTINUOUS
10
-14.007713
20
39.320406
30
0.0
11
-13.951433
21
39.202486
31
0.0
0
LINE
8
0
6
CONTINUOUS
10
-19.275827
20
35.188388
30
0.0
11
-19.113566
21
35.267314
31
0.0
0
LINE
8
0
6
CONTINUOUS
10
-19.475664
20
35.229839
30
0.0
11
-19.275827
21
35.188388
31
0.0
0
LINE
8
0
6
CONTINUOUS
10
-19.513236
20
35.350208
30
0.0
11
-19.475664
21
35.229839
31
0.0
0
LINE
8
0
6
CONTINUOUS
10
-19.350973
20
35.429134
30
0.0
11
-19.513236
21
35.350208
31
0.0
0
LINE
8
0
6
CONTINUOUS
10
-19.151138
20
35.387683
30
0.0
11
-19.350973
21
35.429134
31
0.0
0
LINE
8
0
6
CONTINUOUS
10
-19.113566
20
35.267314
30
0.0
11
-19.151138
21
35.387683
31
0.0
0
LINE
8
0
6
CONTINUOUS
10
-14.720755
20
36.464472
30
0.0
11
-14.520919
21
36.423014
31
0.0
0
LINE
8
0
6
CONTINUOUS
10
-14.758327
20
36.584833
30
0.0
11
-14.720755
21
36.464472
31
0.0
0
LINE
8
0
6
CONTINUOUS
10
-14.596066
20
36.663760
30
0.0
11
-14.758327
21
36.584833
31
0.0
0
LINE
8
0
6
CONTINUOUS
10
-14.396229
20
36.622317
30
0.0
11
-14.596066
21
36.663760
31
0.0
0
LINE
8
0
6
CONTINUOUS
10
-14.358658
20
36.501940
30
0.0
11
-14.396229
21
36.622317
31
0.0
0
LINE
8
0
6
CONTINUOUS
10
-14.520919
20
36.423014
30
0.0
11
-14.358658
21
36.501940
31
0.0
0
LINE
8
0
6
CONTINUOUS
10
-13.319391
20
38.576212
30
0.0
11
-13.129786
21
38.521082
31
0.0
0
LINE
8
0
6
CONTINUOUS
10
-13.331273
20
38.698321
30
0.0
11
-13.319391
21
38.576212
31
0.0
0
LINE
8
0
6
CONTINUOUS
10
-13.153552
20
38.765291
30
0.0
11
-13.331273
21
38.698321
31
0.0
0
LINE
8
0
6
CONTINUOUS
10
-12.963951
20
38.710169
30
0.0
11
-13.153552
21
38.765291
31
0.0
0
LINE
8
0
6
CONTINUOUS
10
-12.952066
20
38.588061
30
0.0
11
-12.963951
21
38.710169
31
0.0
0
LINE
8
0
6
CONTINUOUS
10
-13.129786
20
38.521082
30
0.0
11
-12.952066
21
38.588061
31
0.0
0
LINE
8
0
6
CONTINUOUS
10
-14.876627
20
39.916933
30
0.0
11
-14.990682
21
39.813761
31
0.0
0
LINE
8
0
6
CONTINUOUS
10
-14.664419
20
39.911639
30
0.0
11
-14.876627
21
39.916933
31
0.0
0
LINE
8
0
6
CONTINUOUS
10
-14.566266
20
39.803179
30
0.0
11
-14.664419
21
39.911639
31
0.0
0
LINE
8
0
6
CONTINUOUS
10
-14.680323
20
39.700014
30
0.0
11
-14.566266
21
39.803179
31
0.0
0
LINE
8
0
6
CONTINUOUS
10
-14.892532
20
39.705294
30
0.0
11
-14.680323
21
39.700014
31
0.0
0
LINE
8
0
6
CONTINUOUS
10
-14.990682
20
39.813761
30
0.0
11
-14.892532
21
39.705294
31
0.0
0
LINE
8
0
6
CONTINUOUS
10
-19.695235
20
38.511561
30
0.0
11
-19.489721
21
38.542460
31
0.0
0
LINE
8
0
6
CONTINUOUS
10
-19.844472
20
38.598589
30
0.0
11
-19.695235
21
38.511561
31
0.0
0
LINE
8
0
6
CONTINUOUS
10
-19.788190
20
38.716517
30
0.0
11
-19.844472
21
38.598589
31
0.0
0
LINE
8
0
6
CONTINUOUS
10
-19.582676
20
38.747416
30
0.0
11
-19.788190
21
38.716517
31
0.0
0
LINE
8
0
6
CONTINUOUS
10
-19.433441
20
38.660387
30
0.0
11
-19.582676
21
38.747416
31
0.0
0
LINE
8
0
6
CONTINUOUS
10
-19.489721
20
38.542460
30
0.0
11
-19.433441
21
38.660387
31
0.0
0
LINE
8
0
6
CONTINUOUS
10
-14.454482
20
39.081850
30
0.0
11
-14.603717
21
38.994822
31
0.0
0
LINE
8
0
6
CONTINUOUS
10
-14.248968
20
39.050951
30
0.0
11
-14.454482
21
39.081850
31
0.0
0
LINE
8
0
6
CONTINUOUS
10
-14.192686
20
38.933024
30
0.0
11
-14.248968
21
39.050951
31
0.0
0
LINE
8
0
6
CONTINUOUS
10
-14.341922
20
38.845995
30
0.0
11
-14.192686
21
38.933024
31
0.0
0
LINE
8
0
6
CONTINUOUS
10
-14.547438
20
38.876902
30
0.0
11
-14.341922
21
38.845995
31
0.0
0
LINE
8
0
6
CONTINUOUS
10
-14.603717
20
38.994822
30
0.0
11
-14.547438
21
38.876902
31
0.0
0
LINE
8
0
6
CONTINUOUS
10
-18.591144
20
37.312945
30
0.0
11
-18.603029
21
37.190836
31
0.0
0
LINE
8
0
6
CONTINUOUS
10
-18.401542
20
37.368075
30
0.0
11
-18.591144
21
37.312945
31
0.0
0
LINE
8
0
6
CONTINUOUS
10
-18.223822
20
37.301089
30
0.0
11
-18.401542
21
37.368075
31
0.0
0
LINE
8
0
6
CONTINUOUS
10
-18.235705
20
37.178988
30
0.0
11
-18.223822
21
37.301089
31
0.0
0
LINE
8
0
6
CONTINUOUS
10
-18.425309
20
37.123850
30
0.0
11
-18.235705
21
37.178988
31
0.0
0
LINE
8
0
6
CONTINUOUS
10
-18.603029
20
37.190836
30
0.0
11
-18.425309
21
37.123850
31
0.0
0
LINE
8
0
6
CONTINUOUS
10
-18.797717
20
36.621165
30
0.0
11
-18.635453
21
36.700091
31
0.0
0
LINE
8
0
6
CONTINUOUS
10
-18.997552
20
36.662615
30
0.0
11
-18.797717
21
36.621165
31
0.0
0
LINE
8
0
6
CONTINUOUS
10
-19.035125
20
36.782984
30
0.0
11
-18.997552
21
36.662615
31
0.0
0
LINE
8
0
6
CONTINUOUS
10
-18.872862
20
36.861910
30
0.0
11
-19.035125
21
36.782984
31
0.0
0
LINE
8
0
6
CONTINUOUS
10
-18.673028
20
36.820460
30
0.0
11
-18.872862
21
36.861910
31
0.0
0
LINE
8
0
6
CONTINUOUS
10
-18.635453
20
36.700091
30
0.0
11
-18.673028
21
36.820460
31
0.0
0
LINE
8
0
6
CONTINUOUS
10
-15.601552
20
35.695819
30
0.0
11
-15.639126
21
35.575443
31
0.0
0
LINE
8
0
6
CONTINUOUS
10
-15.401718
20
35.737270
30
0.0
11
-15.601552
21
35.695819
31
0.0
0
LINE
8
0
6
CONTINUOUS
10
-15.239455
20
35.658351
30
0.0
11
-15.401718
21
35.737270
31
0.0
0
LINE
8
0
6
CONTINUOUS
10
-15.277029
20
35.537975
30
0.0
11
-15.239455
21
35.658351
31
0.0
0
LINE
8
0
6
CONTINUOUS
10
-15.476863
20
35.496532
30
0.0
11
-15.277029
21
35.537975
31
0.0
0
LINE
8
0
6
CONTINUOUS
10
-15.639126
20
35.575443
30
0.0
11
-15.476863
21
35.496532
31
0.0
0
LINE
8
0
6
CONTINUOUS
10
-16.603775
20
39.783556
30
0.0
11
-16.813157
21
39.762995
31
0.0
0
LINE
8
0
6
CONTINUOUS
10
-16.468154
20
39.689440
30
0.0
11
-16.603775
21
39.783556
31
0.0
0
LINE
8
0
6
CONTINUOUS
10
-16.541916
20
39.574747
30
0.0
11
-16.468154
21
39.689440
31
0.0
0
LINE
8
0
6
CONTINUOUS
10
-16.751299
20
39.554179
30
0.0
11
-16.541916
21
39.574747
31
0.0
0
LINE
8
0
6
CONTINUOUS
10
-16.886919
20
39.648302
30
0.0
11
-16.751299
21
39.554179
31
0.0
0
LINE
8
0
6
CONTINUOUS
10
-16.813157
20
39.762995
30
0.0
11
-16.886919
21
39.648302
31
0.0
0
LINE
8
0
6
CONTINUOUS
10
-14.282821
20
37.382136
30
0.0
11
-14.482656
21
37.340685
31
0.0
0
LINE
8
0
6
CONTINUOUS
10
-14.120559
20
37.303217
30
0.0
11
-14.282821
21
37.382136
31
0.0
0
LINE
8
0
6
CONTINUOUS
10
-14.158132
20
37.182841
30
0.0
11
-14.120559
21
37.303217
31
0.0
0
LINE
8
0
6
CONTINUOUS
10
-14.357967
20
37.141398
30
0.0
11
-14.158132
21
37.182841
31
0.0
0
LINE
8
0
6
CONTINUOUS
10
-14.520230
20
37.220309
30
0.0
11
-14.357967
21
37.141398
31
0.0
0
LINE
8
0
6
CONTINUOUS
10
-14.482656
20
37.340685
30
0.0
11
-14.520230
21
37.220309
31
0.0
0
LINE
8
0
6
CONTINUOUS
10
-19.611601
20
37.120188
30
0.0
11
-19.773864
21
37.041270
31
0.0
0
LINE
8
0
6
CONTINUOUS
10
-19.411766
20
37.078738
30
0.0
11
-19.611601
21
37.120188
31
0.0
0
LINE
8
0
6
CONTINUOUS
10
-19.374193
20
36.958361
30
0.0
11
-19.411766
21
37.078738
31
0.0
0
LINE
8
0
6
CONTINUOUS
10
-19.536455
20
36.879442
30
0.0
11
-19.374193
21
36.958361
31
0.0
0
LINE
8
0
6
CONTINUOUS
10
-19.736292
20
36.920893
30
0.0
11
-19.536455
21
36.879442
31
0.0
0
LINE
8
0
6
CONTINUOUS
10
-19.773864
20
37.041270
30
0.0
11
-19.736292
21
36.920893
31
0.0
0
LINE
8
0
6
CONTINUOUS
10
-18.503226
20
37.928499
30
0.0
11
-18.297710
21
37.959399
31
0.0
0
LINE
8
0
6
CONTINUOUS
10
-18.652462
20
38.015528
30
0.0
11
-18.503226
21
37.928499
31
0.0
0
LINE
8
0
6
CONTINUOUS
10
-18.596180
20
38.133456
30
0.0
11
-18.652462
21
38.015528
31
0.0
0
LINE
8
0
6
CONTINUOUS
10
-18.390665
20
38.164355
30
0.0
11
-18.596180
21
38.133456
31
0.0
0
LINE
8
0
6
CONTINUOUS
10
-18.241431
20
38.077326
30
0.0
11
-18.390665
21
38.164355
31
0.0
0
LINE
8
0
6
CONTINUOUS
10
-18.297710
20
37.959399
30
0.0
11
-18.241431
21
38.077326
31
0.0
0
LINE
8
0
6
CONTINUOUS
10
-16.763471
20
36.177509
30
0.0
11
-16.563636
21
36.218959
31
0.0
0
LINE
8
0
6
CONTINUOUS
10
-16.925734
20
36.256426
30
0.0
11
-16.763471
21
36.177509
31
0.0
0
LINE
8
0
6
CONTINUOUS
10
-16.888160
20
36.376803
30
0.0
11
-16.925734
21
36.256426
31
0.0
0
LINE
8
0
6
CONTINUOUS
10
-16.688325
20
36.418246
30
0.0
11
-16.888160
21
36.376803
31
0.0
0
LINE
8
0
6
CONTINUOUS
10
-16.526062
20
36.339327
30
0.0
11
-16.688325
21
36.418246
31
0.0
0
LINE
8
0
6
CONTINUOUS
10
-16.563636
20
36.218959
30
0.0
11
-16.526062
21
36.339327
31
0.0
0
LINE
8
0
6
CONTINUOUS
10
-14.439512
20
35.701938
30
0.0
11
-14.239677
21
35.660480
31
0.0
0
LINE
8
0
6
CONTINUOUS
10
-14.477086
20
35.822315
30
0.0
11
-14.439512
21
35.701938
31
0.0
0
LINE
8
0
6
CONTINUOUS
10
-14.314823
20
35.901225
30
0.0
11
-14.477086
21
35.822315
31
0.0
0
LINE
8
0
6
CONTINUOUS
10
-14.114988
20
35.859782
30
0.0
11
-14.314823
21
35.901225
31
0.0
0
LINE
8
0
6
CONTINUOUS
10
-14.077415
20
35.739406
30
0.0
11
-14.114988
21
35.859782
31
0.0
0
LINE
8
0
6
CONTINUOUS
10
-14.239677
20
35.660480
30
0.0
11
-14.077415
21
35.739406
31
0.0
0
LINE
8
0
6
CONTINUOUS
10
-13.544082
20
37.665865
30
0.0
11
-13.743917
21
37.624422
31
0.0
0
LINE
8
0
6
CONTINUOUS
10
-13.381820
20
37.586947
30
0.0
11
-13.544082
21
37.665865
31
0.0
0
LINE
8
0
6
CONTINUOUS
10
-13.419393
20
37.466570
30
0.0
11
-13.381820
21
37.586947
31
0.0
0
LINE
8
0
6
CONTINUOUS
10
-13.619228
20
37.425127
30
0.0
11
-13.419393
21
37.466570
31
0.0
0
LINE
8
0
6
CONTINUOUS
10
-13.781491
20
37.504046
30
0.0
11
-13.619228
21
37.425127
31
0.0
0
LINE
8
0
6
CONTINUOUS
10
-13.743917
20
37.624422
30
0.0
11
-13.781491
21
37.504046
31
0.0
0
LINE
8
0
6
CONTINUOUS
10
-20.248382
20
38.147349
30
0.0
11
-20.437984
21
38.092226
31
0.0
0
LINE
8
0
6
CONTINUOUS
10
-20.070663
20
38.080370
30
0.0
11
-20.248382
21
38.147349
31
0.0
0
LINE
8
0
6
CONTINUOUS
10
-20.082546
20
37.958262
30
0.0
11
-20.070663
21
38.080370
31
0.0
0
LINE
8
0
6
CONTINUOUS
10
-20.272149
20
37.903139
30
0.0
11
-20.082546
21
37.958262
31
0.0
0
LINE
8
0
6
CONTINUOUS
10
-20.449870
20
37.970110
30
0.0
11
-20.272149
21
37.903139
31
0.0
0
LINE
8
0
6
CONTINUOUS
10
-20.437984
20
38.092226
30
0.0
11
-20.449870
21
37.970110
31
0.0
0
LINE
8
0
6
CONTINUOUS
10
-13.005177
20
37.979861
30
0.0
11
-13.042752
21
37.859484
31
0.0
0
LINE
8
0
6
CONTINUOUS
10
-12.805343
20
38.021311
30
0.0
11
-13.005177
21
37.979861
31
0.0
0
LINE
8
0
6
CONTINUOUS
10
-12.643080
20
37.942385
30
0.0
11
-12.805343
21
38.021311
31
0.0
0
LINE
8
0
6
CONTINUOUS
10
-12.680654
20
37.822008
30
0.0
11
-12.643080
21
37.942385
31
0.0
0
LINE
8
0
6
CONTINUOUS
10
-12.880488
20
37.780566
30
0.0
11
-12.680654
21
37.822008
31
0.0
0
LINE
8
0
6
CONTINUOUS
10
-13.042752
20
37.859484
30
0.0
11
-12.880488
21
37.780566
31
0.0
0
LINE
8
0
6
CONTINUOUS
10
-17.902563
20
35.829990
30
0.0
11
-17.740302
21
35.908908
31
0.0
0
LINE
8
0
6
CONTINUOUS
10
-18.102400
20
35.871433
30
0.0
11
-17.902563
21
35.829990
31
0.0
0
LINE
8
0
6
CONTINUOUS
10
-18.139971
20
35.991809
30
0.0
11
-18.102400
21
35.871433
31
0.0
0
LINE
8
0
6
CONTINUOUS
10
-17.977710
20
36.070735
30
0.0
11
-18.139971
21
35.991809
31
0.0
0
LINE
8
0
6
CONTINUOUS
10
-17.777874
20
36.029285
30
0.0
11
-17.977710
21
36.070735
31
0.0
0
LINE
8
0
6
CONTINUOUS
10
-17.740302
20
35.908908
30
0.0
11
-17.777874
21
36.029285
31
0.0
0
LINE
8
0
6
CONTINUOUS
10
-16.655454
20
36.069919
30
0.0
11
-16.855289
21
36.028468
31
0.0
0
LINE
8
0
6
CONTINUOUS
10
-16.493191
20
35.990993
30
0.0
11
-16.655454
21
36.069919
31
0.0
0
LINE
8
0
6
CONTINUOUS
10
-16.530765
20
35.870624
30
0.0
11
-16.493191
21
35.990993
31
0.0
0
LINE
8
0
6
CONTINUOUS
10
-16.730599
20
35.829173
30
0.0
11
-16.530765
21
35.870624
31
0.0
0
LINE
8
0
6
CONTINUOUS
10
-16.892863
20
35.908099
30
0.0
11
-16.730599
21
35.829173
31
0.0
0
LINE
8
0
6
CONTINUOUS
10
-16.855289
20
36.028468
30
0.0
11
-16.892863
21
35.908099
31
0.0
0
LINE
8
0
6
CONTINUOUS
10
-18.135271
20
35.527995
30
0.0
11
-17.935436
21
35.486545
31
0.0
0
LINE
8
0
6
CONTINUOUS
10
-18.172843
20
35.648364
30
0.0
11
-18.135271
21
35.527995
31
0.0
0
LINE
8
0
6
CONTINUOUS
10
-18.010581
20
35.727290
30
0.0
11
-18.172843
21
35.648364
31
0.0
0
LINE
8
0
6
CONTINUOUS
10
-17.810745
20
35.685832
30
0.0
11
-18.010581
21
35.727290
31
0.0
0
LINE
8
0
6
CONTINUOUS
10
-17.773172
20
35.565463
30
0.0
11
-17.810745
21
35.685832
31
0.0
0
LINE
8
0
6
CONTINUOUS
10
-17.935436
20
35.486545
30
0.0
11
-17.773172
21
35.565463
31
0.0
0
LINE
8
0
6
CONTINUOUS
10
-20.824575
20
36.924464
30
0.0
11
-21.024411
21
36.883013
31
0.0
0
LINE
8
0
6
CONTINUOUS
10
-20.662314
20
36.845545
30
0.0
11
-20.824575
21
36.924464
31
0.0
0
LINE
8
0
6
CONTINUOUS
10
-20.699886
20
36.725176
30
0.0
11
-20.662314
21
36.845545
31
0.0
0
LINE
8
0
6
CONTINUOUS
10
-20.899721
20
36.683718
30
0.0
11
-20.699886
21
36.725176
31
0.0
0
LINE
8
0
6
CONTINUOUS
10
-21.061984
20
36.762644
30
0.0
11
-20.899721
21
36.683718
31
0.0
0
LINE
8
0
6
CONTINUOUS
10
-21.024411
20
36.883013
30
0.0
11
-21.061984
21
36.762644
31
0.0
0
LINE
8
0
6
CONTINUOUS
10
-15.781843
20
37.402323
30
0.0
11
-15.592240
21
37.347193
31
0.0
0
LINE
8
0
6
CONTINUOUS
10
-15.793727
20
37.524431
30
0.0
11
-15.781843
21
37.402323
31
0.0
0
LINE
8
0
6
CONTINUOUS
10
-15.616007
20
37.591418
30
0.0
11
-15.793727
21
37.524431
31
0.0
0
LINE
8
0
6
CONTINUOUS
10
-15.426405
20
37.536280
30
0.0
11
-15.616007
21
37.591418
31
0.0
0
LINE
8
0
6
CONTINUOUS
10
-15.414519
20
37.414171
30
0.0
11
-15.426405
21
37.536280
31
0.0
0
LINE
8
0
6
CONTINUOUS
10
-15.592240
20
37.347193
30
0.0
11
-15.414519
21
37.414171
31
0.0
0
LINE
8
0
6
CONTINUOUS
10
-16.174113
20
40.211825
30
0.0
11
-16.247874
21
40.097132
31
0.0
0
LINE
8
0
6
CONTINUOUS
10
-15.964730
20
40.232386
30
0.0
11
-16.174113
21
40.211825
31
0.0
0
LINE
8
0
6
CONTINUOUS
10
-15.829109
20
40.138262
30
0.0
11
-15.964730
21
40.232386
31
0.0
0
LINE
8
0
6
CONTINUOUS
10
-15.902871
20
40.023577
30
0.0
11
-15.829109
21
40.138262
31
0.0
0
LINE
8
0
6
CONTINUOUS
10
-16.112253
20
40.003008
30
0.0
11
-15.902871
21
40.023577
31
0.0
0
LINE
8
0
6
CONTINUOUS
10
-16.247874
20
40.097132
30
0.0
11
-16.112253
21
40.003008
31
0.0
0
LINE
8
0
6
CONTINUOUS
10
-20.236933
20
36.629580
30
0.0
11
-20.274507
21
36.509211
31
0.0
0
LINE
8
0
6
CONTINUOUS
10
-20.037097
20
36.671030
30
0.0
11
-20.236933
21
36.629580
31
0.0
0
LINE
8
0
6
CONTINUOUS
10
-19.874836
20
36.592104
30
0.0
11
-20.037097
21
36.671030
31
0.0
0
LINE
8
0
6
CONTINUOUS
10
-19.912408
20
36.471735
30
0.0
11
-19.874836
21
36.592104
31
0.0
0
LINE
8
0
6
CONTINUOUS
10
-20.112243
20
36.430285
30
0.0
11
-19.912408
21
36.471735
31
0.0
0
LINE
8
0
6
CONTINUOUS
10
-20.274507
20
36.509211
30
0.0
11
-20.112243
21
36.430285
31
0.0
0
LINE
8
0
6
CONTINUOUS
10
-19.756536
20
39.924326
30
0.0
11
-19.968745
21
39.919039
31
0.0
0
LINE
8
0
6
CONTINUOUS
10
-19.642480
20
39.821146
30
0.0
11
-19.756536
21
39.924326
31
0.0
0
LINE
8
0
6
CONTINUOUS
10
-19.740633
20
39.712694
30
0.0
11
-19.642480
21
39.821146
31
0.0
0
LINE
8
0
6
CONTINUOUS
10
-19.952841
20
39.707407
30
0.0
11
-19.740633
21
39.712694
31
0.0
0
LINE
8
0
6
CONTINUOUS
10
-20.066898
20
39.810580
30
0.0
11
-19.952841
21
39.707407
31
0.0
0
LINE
8
0
6
CONTINUOUS
10
-19.968745
20
39.919039
30
0.0
11
-20.066898
21
39.810580
31
0.0
0
LINE
8
0
6
CONTINUOUS
10
-13.933276
20
36.714670
30
0.0
11
-13.733441
21
36.673220
31
0.0
0
LINE
8
0
6
CONTINUOUS
10
-13.970849
20
36.835047
30
0.0
11
-13.933276
21
36.714670
31
0.0
0
LINE
8
0
6
CONTINUOUS
10
-13.808587
20
36.913965
30
0.0
11
-13.970849
21
36.835047
31
0.0
0
LINE
8
0
6
CONTINUOUS
10
-13.608752
20
36.872523
30
0.0
11
-13.808587
21
36.913965
31
0.0
0
LINE
8
0
6
CONTINUOUS
10
-13.571179
20
36.752146
30
0.0
11
-13.608752
21
36.872523
31
0.0
0
LINE
8
0
6
CONTINUOUS
10
-13.733441
20
36.673220
30
0.0
11
-13.571179
21
36.752146
31
0.0
0
LINE
8
0
6
CONTINUOUS
10
-17.869692
20
36.179393
30
0.0
11
-17.707430
21
36.258318
31
0.0
0
LINE
8
0
6
CONTINUOUS
10
-18.069528
20
36.220851
30
0.0
11
-17.869692
21
36.179393
31
0.0
0
LINE
8
0
6
CONTINUOUS
10
-18.107100
20
36.341219
30
0.0
11
-18.069528
21
36.220851
31
0.0
0
LINE
8
0
6
CONTINUOUS
10
-17.944838
20
36.420138
30
0.0
11
-18.107100
21
36.341219
31
0.0
0
LINE
8
0
6
CONTINUOUS
10
-17.745003
20
36.378687
30
0.0
11
-17.944838
21
36.420138
31
0.0
0
LINE
8
0
6
CONTINUOUS
10
-17.707430
20
36.258318
30
0.0
11
-17.745003
21
36.378687
31
0.0
0
LINE
8
0
6
CONTINUOUS
10
-20.433802
20
36.228473
30
0.0
11
-20.471376
21
36.108104
31
0.0
0
LINE
8
0
6
CONTINUOUS
10
-20.233967
20
36.269923
30
0.0
11
-20.433802
21
36.228473
31
0.0
0
LINE
8
0
6
CONTINUOUS
10
-20.071704
20
36.191005
30
0.0
11
-20.233967
21
36.269923
31
0.0
0
LINE
8
0
6
CONTINUOUS
10
-20.109278
20
36.070636
30
0.0
11
-20.071704
21
36.191005
31
0.0
0
LINE
8
0
6
CONTINUOUS
10
-20.309112
20
36.029186
30
0.0
11
-20.109278
21
36.070636
31
0.0
0
LINE
8
0
6
CONTINUOUS
10
-20.471376
20
36.108104
30
0.0
11
-20.309112
21
36.029186
31
0.0
0
LINE
8
0
6
CONTINUOUS
10
-16.721196
20
36.765970
30
0.0
11
-16.921032
21
36.724520
31
0.0
0
LINE
8
0
6
CONTINUOUS
10
-16.558934
20
36.687044
30
0.0
11
-16.721196
21
36.765970
31
0.0
0
LINE
8
0
6
CONTINUOUS
10
-16.596507
20
36.566675
30
0.0
11
-16.558934
21
36.687044
31
0.0
0
LINE
8
0
6
CONTINUOUS
10
-16.796343
20
36.525225
30
0.0
11
-16.596507
21
36.566675
31
0.0
0
LINE
8
0
6
CONTINUOUS
10
-16.958605
20
36.604151
30
0.0
11
-16.796343
21
36.525225
31
0.0
0
LINE
8
0
6
CONTINUOUS
10
-16.921032
20
36.724520
30
0.0
11
-16.958605
21
36.604151
31
0.0
0
LINE
8
0
6
CONTINUOUS
10
-15.739448
20
38.243822
30
0.0
11
-15.533932
21
38.212923
31
0.0
0
LINE
8
0
6
CONTINUOUS
10
-15.795728
20
38.361750
30
0.0
11
-15.739448
21
38.243822
31
0.0
0
LINE
8
0
6
CONTINUOUS
10
-15.646492
20
38.448786
30
0.0
11
-15.795728
21
38.361750
31
0.0
0
LINE
8
0
6
CONTINUOUS
10
-15.440978
20
38.417879
30
0.0
11
-15.646492
21
38.448786
31
0.0
0
LINE
8
0
6
CONTINUOUS
10
-15.384697
20
38.299952
30
0.0
11
-15.440978
21
38.417879
31
0.0
0
LINE
8
0
6
CONTINUOUS
10
-15.533932
20
38.212923
30
0.0
11
-15.384697
21
38.299952
31
0.0
0
LINE
8
0
6
CONTINUOUS
10
-15.521245
20
36.099490
30
0.0
11
-15.721080
21
36.058040
31
0.0
0
LINE
8
0
6
CONTINUOUS
10
-15.358984
20
36.020572
30
0.0
11
-15.521245
21
36.099490
31
0.0
0
LINE
8
0
6
CONTINUOUS
10
-15.396555
20
35.900203
30
0.0
11
-15.358984
21
36.020572
31
0.0
0
LINE
8
0
6
CONTINUOUS
10
-15.596391
20
35.858753
30
0.0
11
-15.396555
21
35.900203
31
0.0
0
LINE
8
0
6
CONTINUOUS
10
-15.758654
20
35.937671
30
0.0
11
-15.596391
21
35.858753
31
0.0
0
LINE
8
0
6
CONTINUOUS
10
-15.721080
20
36.058040
30
0.0
11
-15.758654
21
35.937671
31
0.0
0
LINE
8
0
6
CONTINUOUS
10
-12.964859
20
37.257227
30
0.0
11
-13.127122
21
37.178301
31
0.0
0
LINE
8
0
6
CONTINUOUS
10
-12.765025
20
37.215777
30
0.0
11
-12.964859
21
37.257227
31
0.0
0
LINE
8
0
6
CONTINUOUS
10
-12.727453
20
37.095408
30
0.0
11
-12.765025
21
37.215777
31
0.0
0
LINE
8
0
6
CONTINUOUS
10
-12.889715
20
37.016482
30
0.0
11
-12.727453
21
37.095408
31
0.0
0
LINE
8
0
6
CONTINUOUS
10
-13.089548
20
37.057932
30
0.0
11
-12.889715
21
37.016482
31
0.0
0
LINE
8
0
6
CONTINUOUS
10
-13.127122
20
37.178301
30
0.0
11
-13.089548
21
37.057932
31
0.0
0
LINE
8
0
6
CONTINUOUS
10
-21.752674
20
37.794886
30
0.0
11
-21.590412
21
37.873812
31
0.0
0
LINE
8
0
6
CONTINUOUS
10
-21.952510
20
37.836344
30
0.0
11
-21.752674
21
37.794886
31
0.0
0
LINE
8
0
6
CONTINUOUS
10
-21.990083
20
37.956713
30
0.0
11
-21.952510
21
37.836344
31
0.0
0
LINE
8
0
6
CONTINUOUS
10
-21.827821
20
38.035631
30
0.0
11
-21.990083
21
37.956713
31
0.0
0
LINE
8
0
6
CONTINUOUS
10
-21.627985
20
37.994181
30
0.0
11
-21.827821
21
38.035631
31
0.0
0
LINE
8
0
6
CONTINUOUS
10
-21.590412
20
37.873812
30
0.0
11
-21.627985
21
37.994181
31
0.0
0
LINE
8
0
6
CONTINUOUS
10
-15.482024
20
35.344043
30
0.0
11
-15.519597
21
35.223674
31
0.0
0
LINE
8
0
6
CONTINUOUS
10
-15.282189
20
35.385501
30
0.0
11
-15.482024
21
35.344043
31
0.0
0
LINE
8
0
6
CONTINUOUS
10
-15.119927
20
35.306575
30
0.0
11
-15.282189
21
35.385501
31
0.0
0
LINE
8
0
6
CONTINUOUS
10
-15.157500
20
35.186199
30
0.0
11
-15.119927
21
35.306575
31
0.0
0
LINE
8
0
6
CONTINUOUS
10
-15.357335
20
35.144756
30
0.0
11
-15.157500
21
35.186199
31
0.0
0
LINE
8
0
6
CONTINUOUS
10
-15.519597
20
35.223674
30
0.0
11
-15.357335
21
35.144756
31
0.0
0
LINE
8
0
6
CONTINUOUS
10
-18.000175
20
37.866205
30
0.0
11
-18.056458
21
37.748270
31
0.0
0
LINE
8
0
6
CONTINUOUS
10
-17.794660
20
37.897105
30
0.0
11
-18.000175
21
37.866205
31
0.0
0
LINE
8
0
6
CONTINUOUS
10
-17.645426
20
37.810076
30
0.0
11
-17.794660
21
37.897105
31
0.0
0
LINE
8
0
6
CONTINUOUS
10
-17.701705
20
37.692141
30
0.0
11
-17.645426
21
37.810076
31
0.0
0
LINE
8
0
6
CONTINUOUS
10
-17.907221
20
37.661242
30
0.0
11
-17.701705
21
37.692141
31
0.0
0
LINE
8
0
6
CONTINUOUS
10
-18.056458
20
37.748270
30
0.0
11
-17.907221
21
37.661242
31
0.0
0
LINE
8
0
6
CONTINUOUS
10
-12.034228
20
37.634892
30
0.0
11
-11.997708
21
37.751843
31
0.0
0
LINE
8
0
6
CONTINUOUS
10
-15.931291
20
26.199738
30
0.0
11
-15.770140
21
29.222718
31
0.0
0
LINE
8
0
6
CONTINUOUS
10
-15.770140
20
29.222718
30
0.0
11
-15.644707
21
31.562607
31
0.0
0
LINE
8
0
6
CONTINUOUS
10
-15.644707
20
31.562607
30
0.0
11
-15.543521
21
33.457215
31
0.0
0
LINE
8
0
6
CONTINUOUS
10
-15.559303
20
34.042172
30
0.0
11
-15.288940
21
34.593098
31
0.0
0
LINE
8
0
6
CONTINUOUS
10
-11.995336
20
37.770856
30
0.0
11
-11.931058
21
38.286099
31
0.0
0
LINE
8
0
6
CONTINUOUS
10
-11.897705
20
38.879613
30
0.0
11
-11.906015
21
39.704579
31
0.0
0
LINE
8
0
6
CONTINUOUS
10
-11.900509
20
38.829716
30
0.0
11
-11.897705
21
38.879613
31
0.0
0
LINE
8
0
6
CONTINUOUS
10
-15.978747
20
42.354565
30
0.0
11
-17.284994
21
42.438679
31
0.0
0
LINE
8
0
6
CONTINUOUS
10
-14.741842
20
42.086926
30
0.0
11
-15.978747
21
42.354565
31
0.0
0
LINE
8
0
6
CONTINUOUS
10
-13.618609
20
41.625477
30
0.0
11
-14.741842
21
42.086926
31
0.0
0
LINE
8
0
6
CONTINUOUS
10
-12.375262
20
40.602795
30
0.0
11
-12.784253
21
41.026623
31
0.0
0
LINE
8
0
6
CONTINUOUS
10
-12.283540
20
40.494046
30
0.0
11
-12.375262
21
40.602795
31
0.0
0
LINE
8
0
6
CONTINUOUS
10
-12.891544
20
41.135846
30
0.0
11
-13.618609
21
41.625477
31
0.0
0
LINE
8
0
6
CONTINUOUS
10
-12.784253
20
41.026623
30
0.0
11
-12.891544
21
41.135846
31
0.0
0
LINE
8
0
6
CONTINUOUS
10
-15.617015
20
33.936772
30
0.0
11
-15.288940
21
34.593098
31
0.0
0
LINE
8
0
6
CONTINUOUS
10
-15.288940
20
34.593098
30
0.0
11
-14.881364
21
35.001988
31
0.0
0
LINE
8
0
6
CONTINUOUS
10
-13.447537
20
35.901455
30
0.0
11
-13.026261
21
36.193326
31
0.0
0
LINE
8
0
6
CONTINUOUS
10
-13.085911
20
36.192837
30
0.0
11
-13.497678
21
35.900303
31
0.0
0
LINE
8
0
6
CONTINUOUS
10
-13.912345
20
35.633641
30
0.0
11
-13.447537
21
35.901455
31
0.0
0
LINE
8
0
6
CONTINUOUS
10
-13.497678
20
35.900303
30
0.0
11
-13.956522
21
35.630032
31
0.0
0
LINE
8
0
6
CONTINUOUS
10
-15.964321
20
40.850957
30
0.0
11
-14.691376
21
40.566617
31
0.0
0
LINE
8
0
6
CONTINUOUS
10
-14.689296
20
40.618146
30
0.0
11
-15.964250
21
40.906231
31
0.0
0
LINE
8
0
6
CONTINUOUS
10
-13.956522
20
35.630032
30
0.0
11
-14.463848
21
35.334279
31
0.0
0
LINE
8
0
6
CONTINUOUS
10
-14.428581
20
35.342900
30
0.0
11
-13.912345
21
35.633641
31
0.0
0
LINE
8
0
6
CONTINUOUS
10
-13.026261
20
36.193326
30
0.0
11
-12.361797
21
36.874653
31
0.0
0
LINE
8
0
6
CONTINUOUS
10
-12.438504
20
36.869717
30
0.0
11
-13.085911
21
36.192837
31
0.0
0
LINE
8
0
6
CONTINUOUS
10
-14.881364
20
35.001988
30
0.0
11
-14.428581
21
35.342900
31
0.0
0
LINE
8
0
6
CONTINUOUS
10
-15.556511
20
33.238118
30
0.0
11
-15.475252
21
34.204778
31
0.0
0
LINE
8
0
6
CONTINUOUS
10
-11.931058
20
38.286099
30
0.0
11
-11.900509
21
38.829716
31
0.0
0
LINE
8
0
6
CONTINUOUS
10
-11.906015
20
39.704579
30
0.0
11
-12.283540
21
40.494046
31
0.0
0
LINE
8
0
6
CONTINUOUS
10
-16.004396
20
24.791028
30
0.0
11
-15.931291
21
26.199738
31
0.0
0
LINE
8
0
6
CONTINUOUS
10
-15.501472
20
34.147786
30
0.0
11
-15.475252
21
34.204778
31
0.0
0
LINE
8
0
6
CONTINUOUS
10
-11.997708
20
37.751843
30
0.0
11
-11.995336
21
37.770856
31
0.0
0
LINE
8
0
6
CONTINUOUS
10
-17.284956
20
23.929745
30
0.0
11
-16.978617
21
23.949627
31
0.0
0
LINE
8
0
6
CONTINUOUS
10
-16.978617
20
23.949627
30
0.0
11
-16.696793
21
24.007886
31
0.0
0
LINE
8
0
6
CONTINUOUS
10
-16.696793
20
24.007886
30
0.0
11
-16.456065
21
24.100548
31
0.0
0
LINE
8
0
6
CONTINUOUS
10
-16.116576
20
24.386792
30
0.0
11
-16.071725
21
24.471379
31
0.0
0
LINE
8
0
6
CONTINUOUS
10
-16.680349
20
24.020974
30
0.0
11
-16.432576
21
24.116059
31
0.0
0
LINE
8
0
6
CONTINUOUS
10
-16.179609
20
24.313386
30
0.0
11
-16.116576
21
24.386792
31
0.0
0
LINE
8
0
6
CONTINUOUS
10
-17.284956
20
23.940884
30
0.0
11
-16.970206
21
23.961236
31
0.0
0
LINE
8
0
6
CONTINUOUS
10
-16.071725
20
24.471379
30
0.0
11
-16.025172
21
24.559170
31
0.0
0
LINE
8
0
6
CONTINUOUS
10
-16.432576
20
24.116059
30
0.0
11
-16.242514
21
24.240132
31
0.0
0
LINE
8
0
6
CONTINUOUS
10
-16.242514
20
24.240132
30
0.0
11
-16.179609
21
24.313386
31
0.0
0
LINE
8
0
6
CONTINUOUS
10
-16.025172
20
24.559170
30
0.0
11
-16.005056
21
24.778294
31
0.0
0
LINE
8
0
6
CONTINUOUS
10
-16.005056
20
24.778294
30
0.0
11
-16.004396
21
24.791028
31
0.0
0
LINE
8
0
6
CONTINUOUS
10
-16.970206
20
23.961236
30
0.0
11
-16.680349
21
24.020974
31
0.0
0
LINE
8
0
6
CONTINUOUS
10
-22.572261
20
37.751828
30
0.0
11
-22.535741
21
37.634869
31
0.0
0
LINE
8
0
6
CONTINUOUS
10
-18.799792
20
29.222714
30
0.0
11
-18.638629
21
26.199734
31
0.0
0
LINE
8
0
6
CONTINUOUS
10
-18.925234
20
31.562604
30
0.0
11
-18.799792
21
29.222714
31
0.0
0
LINE
8
0
6
CONTINUOUS
10
-19.026427
20
33.457211
30
0.0
11
-18.925234
21
31.562604
31
0.0
0
LINE
8
0
6
CONTINUOUS
10
-18.812337
20
32.807690
30
0.0
11
-18.685108
21
30.937268
31
0.0
0
LINE
8
0
6
CONTINUOUS
10
-19.281014
20
34.593091
30
0.0
11
-19.010648
21
34.042164
31
0.0
0
LINE
8
0
6
CONTINUOUS
10
-22.638912
20
38.286076
30
0.0
11
-22.574633
21
37.770840
31
0.0
0
LINE
8
0
6
CONTINUOUS
10
-22.672266
20
38.879597
30
0.0
11
-22.669462
21
38.829701
31
0.0
0
LINE
8
0
6
CONTINUOUS
10
-22.663961
20
39.704564
30
0.0
11
-22.672266
21
38.879597
31
0.0
0
LINE
8
0
6
CONTINUOUS
10
-17.284994
20
42.438679
30
0.0
11
-18.591239
21
42.354565
31
0.0
0
LINE
8
0
6
CONTINUOUS
10
-18.591239
20
42.354565
30
0.0
11
-19.828143
21
42.086918
31
0.0
0
LINE
8
0
6
CONTINUOUS
10
-19.828143
20
42.086918
30
0.0
11
-20.951375
21
41.625470
31
0.0
0
LINE
8
0
6
CONTINUOUS
10
-21.785729
20
41.026608
30
0.0
11
-22.194718
21
40.602780
31
0.0
0
LINE
8
0
6
CONTINUOUS
10
-22.194718
20
40.602780
30
0.0
11
-22.286439
21
40.494031
31
0.0
0
LINE
8
0
6
CONTINUOUS
10
-21.678438
20
41.135830
30
0.0
11
-21.785729
21
41.026608
31
0.0
0
LINE
8
0
6
CONTINUOUS
10
-20.951375
20
41.625470
30
0.0
11
-21.678438
21
41.135830
31
0.0
0
LINE
8
0
6
CONTINUOUS
10
-19.281014
20
34.593091
30
0.0
11
-18.952936
21
33.936772
31
0.0
0
LINE
8
0
6
CONTINUOUS
10
-19.688591
20
35.001980
30
0.0
11
-19.281014
21
34.593091
31
0.0
0
LINE
8
0
6
CONTINUOUS
10
-18.812337
20
32.807690
30
0.0
11
-18.952936
21
33.936772
31
0.0
0
LINE
8
0
6
CONTINUOUS
10
-20.613436
20
35.630017
30
0.0
11
-21.072281
21
35.900288
31
0.0
0
LINE
8
0
6
CONTINUOUS
10
-21.122422
20
35.901440
30
0.0
11
-20.657614
21
35.633626
31
0.0
0
LINE
8
0
6
CONTINUOUS
10
-20.657614
20
35.633626
30
0.0
11
-20.141376
21
35.342892
31
0.0
0
LINE
8
0
6
CONTINUOUS
10
-20.106109
20
35.334271
30
0.0
11
-20.613436
21
35.630017
31
0.0
0
LINE
8
0
6
CONTINUOUS
10
-22.454079
20
37.631428
30
0.0
11
-22.427650
21
38.407635
31
0.0
0
LINE
8
0
6
CONTINUOUS
10
-22.508133
20
38.407155
30
0.0
11
-22.535741
21
37.634869
31
0.0
0
LINE
8
0
6
CONTINUOUS
10
-22.131460
20
36.869702
30
0.0
11
-22.454079
21
37.631428
31
0.0
0
LINE
8
0
6
CONTINUOUS
10
-22.535741
20
37.634869
30
0.0
11
-22.208168
21
36.874631
31
0.0
0
LINE
8
0
6
CONTINUOUS
10
-20.141376
20
35.342892
30
0.0
11
-19.688591
21
35.001980
31
0.0
0
LINE
8
0
6
CONTINUOUS
10
-19.094700
20
34.204769
30
0.0
11
-19.013436
21
33.238110
31
0.0
0
LINE
8
0
6
CONTINUOUS
10
-22.669462
20
38.829701
30
0.0
11
-22.638912
21
38.286076
31
0.0
0
LINE
8
0
6
CONTINUOUS
10
-22.286439
20
40.494031
30
0.0
11
-22.663961
21
39.704564
31
0.0
0
LINE
8
0
6
CONTINUOUS
10
-18.638629
20
26.199734
30
0.0
11
-18.565518
21
24.791024
31
0.0
0
LINE
8
0
6
CONTINUOUS
10
-19.094700
20
34.204769
30
0.0
11
-19.068479
21
34.147778
31
0.0
0
LINE
8
0
6
CONTINUOUS
10
-22.574633
20
37.770840
30
0.0
11
-22.572261
21
37.751828
31
0.0
0
LINE
8
0
6
CONTINUOUS
10
-17.591296
20
23.949627
30
0.0
11
-17.284956
21
23.929745
31
0.0
0
LINE
8
0
6
CONTINUOUS
10
-17.873119
20
24.007882
30
0.0
11
-17.591296
21
23.949627
31
0.0
0
LINE
8
0
6
CONTINUOUS
10
-18.498188
20
24.471375
30
0.0
11
-18.453338
21
24.386788
31
0.0
0
LINE
8
0
6
CONTINUOUS
10
-18.137337
20
24.116059
30
0.0
11
-17.889564
21
24.020970
31
0.0
0
LINE
8
0
6
CONTINUOUS
10
-18.453338
20
24.386788
30
0.0
11
-18.392466
21
24.315900
31
0.0
0
LINE
8
0
6
CONTINUOUS
10
-17.599706
20
23.961232
30
0.0
11
-17.284956
21
23.940884
31
0.0
0
LINE
8
0
6
CONTINUOUS
10
-18.544742
20
24.559167
30
0.0
11
-18.498188
21
24.471375
31
0.0
0
LINE
8
0
6
CONTINUOUS
10
-18.327399
20
24.240132
30
0.0
11
-18.137337
21
24.116059
31
0.0
0
LINE
8
0
6
CONTINUOUS
10
-18.390304
20
24.313382
30
0.0
11
-18.327399
21
24.240132
31
0.0
0
LINE
8
0
6
CONTINUOUS
10
-18.565518
20
24.791024
30
0.0
11
-18.564857
21
24.778290
31
0.0
0
LINE
8
0
6
CONTINUOUS
10
-18.564857
20
24.778290
30
0.0
11
-18.544742
21
24.559167
31
0.0
0
LINE
8
0
6
CONTINUOUS
10
-17.889564
20
24.020970
30
0.0
11
-17.599706
21
23.961232
31
0.0
0
LINE
8
0
6
CONTINUOUS
10
-16.257901
20
21.908318
30
0.0
11
-16.105955
21
24.331406
31
0.0
0
LINE
8
0
6
CONTINUOUS
10
-18.450129
20
24.331399
30
0.0
11
-18.423208
21
23.902115
31
0.0
0
LINE
8
0
6
CONTINUOUS
10
-16.396877
20
21.610684
30
0.0
11
-16.295230
21
21.733788
31
0.0
0
LINE
8
0
6
CONTINUOUS
10
-16.260560
20
21.865895
30
0.0
11
-16.257901
21
21.908318
31
0.0
0
LINE
8
0
6
CONTINUOUS
10
-16.295230
20
21.733788
30
0.0
11
-16.260560
21
21.865895
31
0.0
0
LINE
8
0
6
CONTINUOUS
10
-16.498364
20
21.544334
30
0.0
11
-16.396877
21
21.610684
31
0.0
0
LINE
8
0
6
CONTINUOUS
10
-18.106833
20
24.097127
30
0.0
11
-17.864085
21
24.003689
31
0.0
0
LINE
8
0
6
CONTINUOUS
10
-17.864085
20
24.003689
30
0.0
11
-17.581401
21
23.944947
31
0.0
0
LINE
8
0
6
CONTINUOUS
10
-17.581401
20
23.944947
30
0.0
11
-17.278042
21
23.924912
31
0.0
0
LINE
8
0
6
CONTINUOUS
10
-17.278042
20
23.924912
30
0.0
11
-16.974684
21
23.944951
31
0.0
0
LINE
8
0
6
CONTINUOUS
10
-16.974684
20
23.944951
30
0.0
11
-16.691998
21
24.003689
31
0.0
0
LINE
8
0
6
CONTINUOUS
10
-16.691998
20
24.003689
30
0.0
11
-16.449252
21
24.097130
31
0.0
0
LINE
8
0
6
CONTINUOUS
10
-16.449252
20
24.097130
30
0.0
11
-16.262985
21
24.218907
31
0.0
0
LINE
8
0
6
CONTINUOUS
10
-16.113966
20
32.983380
30
0.0
11
-16.427281
21
32.771336
31
0.0
0
LINE
8
0
6
CONTINUOUS
10
-16.427281
20
32.771336
30
0.0
11
-16.856049
21
32.673192
31
0.0
0
LINE
8
0
6
CONTINUOUS
10
-16.856049
20
32.673192
30
0.0
11
-17.280187
21
32.645093
31
0.0
0
LINE
8
0
6
CONTINUOUS
10
-15.888436
20
33.809140
30
0.0
11
-16.113966
21
32.983380
31
0.0
0
LINE
8
0
6
CONTINUOUS
10
-15.516874
20
34.548955
30
0.0
11
-15.888436
21
33.809140
31
0.0
0
LINE
8
0
6
CONTINUOUS
10
-18.127596
20
32.764115
30
0.0
11
-18.438264
21
32.908185
31
0.0
0
LINE
8
0
6
CONTINUOUS
10
-17.705587
20
32.666207
30
0.0
11
-18.127596
21
32.764115
31
0.0
0
LINE
8
0
6
CONTINUOUS
10
-17.280187
20
32.645093
30
0.0
11
-17.705587
21
32.666207
31
0.0
0
LINE
8
0
6
CONTINUOUS
10
-18.438264
20
32.908185
30
0.0
11
-18.648493
21
33.836938
31
0.0
0
LINE
8
0
6
CONTINUOUS
10
-18.648493
20
33.836938
30
0.0
11
-18.997659
21
34.558880
31
0.0
0
LINE
8
0
6
CONTINUOUS
10
-14.918360
20
35.015767
30
0.0
11
-14.896904
21
35.025899
31
0.0
0
LINE
8
0
6
CONTINUOUS
10
-13.572870
20
40.073842
30
0.0
11
-12.958278
21
39.658688
31
0.0
0
LINE
8
0
6
CONTINUOUS
10
-12.916331
20
39.677441
30
0.0
11
-13.567479
21
40.116391
31
0.0
0
LINE
8
0
6
CONTINUOUS
10
-14.691376
20
40.566617
30
0.0
11
-13.572870
21
40.073842
31
0.0
0
LINE
8
0
6
CONTINUOUS
10
-13.567479
20
40.116391
30
0.0
11
-14.689296
21
40.618146
31
0.0
0
LINE
8
0
6
CONTINUOUS
10
-17.284991
20
40.944211
30
0.0
11
-15.964321
21
40.850957
31
0.0
0
LINE
8
0
6
CONTINUOUS
10
-15.964250
20
40.906231
30
0.0
11
-17.284992
21
41.001652
31
0.0
0
LINE
8
0
6
CONTINUOUS
10
-12.034228
20
37.634892
30
0.0
11
-12.061839
21
38.407170
31
0.0
0
LINE
8
0
6
CONTINUOUS
10
-12.142322
20
38.407651
30
0.0
11
-12.115889
21
37.631444
31
0.0
0
LINE
8
0
6
CONTINUOUS
10
-12.426238
20
39.173611
30
0.0
11
-12.916331
21
39.677441
31
0.0
0
LINE
8
0
6
CONTINUOUS
10
-12.958278
20
39.658688
30
0.0
11
-12.495710
21
39.183278
31
0.0
0
LINE
8
0
6
CONTINUOUS
10
-14.463848
20
35.334279
30
0.0
11
-14.973864
21
35.015027
31
0.0
0
LINE
8
0
6
CONTINUOUS
10
-14.973864
20
35.015027
30
0.0
11
-14.918360
21
35.015767
31
0.0
0
LINE
8
0
6
CONTINUOUS
10
-12.495710
20
39.183278
30
0.0
11
-12.142322
21
38.407651
31
0.0
0
LINE
8
0
6
CONTINUOUS
10
-12.061839
20
38.407170
30
0.0
11
-12.426238
21
39.173611
31
0.0
0
LINE
8
0
6
CONTINUOUS
10
-12.361797
20
36.874653
30
0.0
11
-12.034228
21
37.634892
31
0.0
0
LINE
8
0
6
CONTINUOUS
10
-12.115889
20
37.631444
30
0.0
11
-12.438504
21
36.869717
31
0.0
0
LINE
8
0
6
CONTINUOUS
10
-19.673052
20
35.025891
30
0.0
11
-19.651595
21
35.015759
31
0.0
0
LINE
8
0
6
CONTINUOUS
10
-21.072281
20
35.900288
30
0.0
11
-21.484051
21
36.192830
31
0.0
0
LINE
8
0
6
CONTINUOUS
10
-21.543701
20
36.193310
30
0.0
11
-21.122422
21
35.901440
31
0.0
0
LINE
8
0
6
CONTINUOUS
10
-21.002500
20
40.116376
30
0.0
11
-21.653647
21
39.677426
31
0.0
0
LINE
8
0
6
CONTINUOUS
10
-21.611699
20
39.658673
30
0.0
11
-20.997112
21
40.073824
31
0.0
0
LINE
8
0
6
CONTINUOUS
10
-18.605733
20
40.906224
30
0.0
11
-19.880685
21
40.618138
31
0.0
0
LINE
8
0
6
CONTINUOUS
10
-19.878605
20
40.566609
30
0.0
11
-18.605662
21
40.850949
31
0.0
0
LINE
8
0
6
CONTINUOUS
10
-19.880685
20
40.618138
30
0.0
11
-21.002500
21
40.116376
31
0.0
0
LINE
8
0
6
CONTINUOUS
10
-20.997109
20
40.073826
30
0.0
11
-19.878605
21
40.566609
31
0.0
0
LINE
8
0
6
CONTINUOUS
10
-17.284992
20
41.001652
30
0.0
11
-18.605733
21
40.906224
31
0.0
0
LINE
8
0
6
CONTINUOUS
10
-18.605662
20
40.850949
30
0.0
11
-17.284991
21
40.944211
31
0.0
0
LINE
8
0
6
CONTINUOUS
10
-21.484051
20
36.192830
30
0.0
11
-22.131460
21
36.869702
31
0.0
0
LINE
8
0
6
CONTINUOUS
10
-22.208168
20
36.874631
30
0.0
11
-21.543701
21
36.193310
31
0.0
0
LINE
8
0
6
CONTINUOUS
10
-22.074266
20
39.183262
30
0.0
11
-21.611699
21
39.658673
31
0.0
0
LINE
8
0
6
CONTINUOUS
10
-21.653647
20
39.677426
30
0.0
11
-22.143738
21
39.173596
31
0.0
0
LINE
8
0
6
CONTINUOUS
10
-22.143738
20
39.173596
30
0.0
11
-22.508133
21
38.407155
31
0.0
0
LINE
8
0
6
CONTINUOUS
10
-22.427650
20
38.407635
30
0.0
11
-22.074266
21
39.183262
31
0.0
0
LINE
8
0
6
CONTINUOUS
10
-14.973864
20
35.015027
30
0.0
11
-15.241707
21
34.864033
31
0.0
0
LINE
8
0
6
CONTINUOUS
10
-15.241707
20
34.864033
30
0.0
11
-15.516874
21
34.548955
31
0.0
0
LINE
8
0
6
CONTINUOUS
10
-19.295784
20
34.843319
30
0.0
11
-19.588145
21
35.015660
31
0.0
0
LINE
8
0
6
CONTINUOUS
10
-18.997659
20
34.558880
30
0.0
11
-19.295783
21
34.843318
31
0.0
0
LINE
8
0
6
CONTINUOUS
10
-20.106109
20
35.334271
30
0.0
11
-19.651595
21
35.015759
31
0.0
0
LINE
8
0
6
CONTINUOUS
10
-19.588145
20
35.015660
30
0.0
11
-20.106109
21
35.334271
31
0.0
0
LINE
8
0
6
CONTINUOUS
10
-19.651595
20
35.015759
30
0.0
11
-19.588145
21
35.015660
31
0.0
0
LINE
8
0
6
CONTINUOUS
10
-14.973866
20
35.015025
30
0.0
11
-14.463849
21
35.334277
31
0.0
0
LINE
8
0
6
CONTINUOUS
10
-21.596674
20
36.310575
30
0.0
11
-21.484052
21
36.192828
31
0.0
0
LINE
8
0
6
CONTINUOUS
10
-12.115892
20
37.631442
30
0.0
11
-12.142325
21
38.407649
31
0.0
0
LINE
8
0
6
CONTINUOUS
10
-17.284996
20
40.944209
30
0.0
11
-18.605666
21
40.850947
31
0.0
0
LINE
8
0
6
CONTINUOUS
10
-15.964325
20
40.850955
30
0.0
11
-17.284996
21
40.944209
31
0.0
0
LINE
8
0
6
CONTINUOUS
10
-15.304206
20
34.842806
30
0.0
11
-15.874134
21
34.945788
31
0.0
0
LINE
8
0
6
CONTINUOUS
10
-15.578639
20
34.529345
30
0.0
11
-15.304206
21
34.842806
31
0.0
0
LINE
8
0
6
CONTINUOUS
10
-17.278829
20
34.988284
30
0.0
11
-16.540853
21
34.986063
31
0.0
0
LINE
8
0
6
CONTINUOUS
10
-15.874134
20
34.945788
30
0.0
11
-16.547735
21
34.955622
31
0.0
0
LINE
8
0
6
CONTINUOUS
10
-21.484052
20
36.192828
30
0.0
11
-21.072282
21
35.900286
31
0.0
0
LINE
8
0
6
CONTINUOUS
10
-22.454081
20
37.631426
30
0.0
11
-22.131463
21
36.869700
31
0.0
0
LINE
8
0
6
CONTINUOUS
10
-21.611702
20
39.658671
30
0.0
11
-22.074270
21
39.183260
31
0.0
0
LINE
8
0
6
CONTINUOUS
10
-20.997112
20
40.073824
30
0.0
11
-21.611702
21
39.658671
31
0.0
0
LINE
8
0
6
CONTINUOUS
10
-20.106110
20
35.334269
30
0.0
11
-19.588146
21
35.015658
31
0.0
0
LINE
8
0
6
CONTINUOUS
10
-18.131814
20
32.805209
30
0.0
11
-17.707608
21
32.705279
31
0.0
0
LINE
8
0
6
CONTINUOUS
10
-16.421977
20
32.818049
30
0.0
11
-16.151448
21
33.000964
31
0.0
0
LINE
8
0
6
CONTINUOUS
10
-16.151448
20
33.000964
30
0.0
11
-15.935941
21
33.795008
31
0.0
0
LINE
8
0
6
CONTINUOUS
10
-22.074270
20
39.183260
30
0.0
11
-22.427652
21
38.407633
31
0.0
0
LINE
8
0
6
CONTINUOUS
10
-19.295785
20
34.843317
30
0.0
11
-18.679960
21
35.031588
31
0.0
0
LINE
8
0
6
CONTINUOUS
10
-19.588146
20
35.015658
30
0.0
11
-19.295785
21
34.843317
31
0.0
0
LINE
8
0
6
CONTINUOUS
10
-16.540853
20
34.986063
30
0.0
11
-15.861196
21
34.976138
31
0.0
0
LINE
8
0
6
CONTINUOUS
10
-18.401732
20
32.930476
30
0.0
11
-18.131814
21
32.805209
31
0.0
0
LINE
8
0
6
CONTINUOUS
10
-18.601499
20
33.822276
30
0.0
11
-18.401732
21
32.930476
31
0.0
0
LINE
8
0
6
CONTINUOUS
10
-14.691380
20
40.566615
30
0.0
11
-15.964325
21
40.850955
31
0.0
0
LINE
8
0
6
CONTINUOUS
10
-19.878610
20
40.566607
30
0.0
11
-20.997112
21
40.073824
31
0.0
0
LINE
8
0
6
CONTINUOUS
10
-16.853690
20
32.712359
30
0.0
11
-16.421977
21
32.818049
31
0.0
0
LINE
8
0
6
CONTINUOUS
10
-18.679960
20
35.031588
30
0.0
11
-18.015317
21
35.011096
31
0.0
0
LINE
8
0
6
CONTINUOUS
10
-12.958282
20
39.658686
30
0.0
11
-13.572874
21
40.073840
31
0.0
0
LINE
8
0
6
CONTINUOUS
10
-12.495714
20
39.183276
30
0.0
11
-12.958282
21
39.658686
31
0.0
0
LINE
8
0
6
CONTINUOUS
10
-17.278833
20
34.957530
30
0.0
11
-18.008268
21
34.980669
31
0.0
0
LINE
8
0
6
CONTINUOUS
10
-18.605666
20
40.850947
30
0.0
11
-19.878610
21
40.566607
31
0.0
0
LINE
8
0
6
CONTINUOUS
10
-17.280183
20
32.683360
30
0.0
11
-16.853690
21
32.712359
31
0.0
0
LINE
8
0
6
CONTINUOUS
10
-13.497679
20
35.900301
30
0.0
11
-13.085912
21
36.192835
31
0.0
0
LINE
8
0
6
CONTINUOUS
10
-13.085912
20
36.192835
30
0.0
11
-12.438507
21
36.869715
31
0.0
0
LINE
8
0
6
CONTINUOUS
10
-18.015317
20
35.011096
30
0.0
11
-17.278829
21
34.988284
31
0.0
0
LINE
8
0
6
CONTINUOUS
10
-13.956523
20
35.630030
30
0.0
11
-13.497679
21
35.900301
31
0.0
0
LINE
8
0
6
CONTINUOUS
10
-20.613437
20
35.630015
30
0.0
11
-20.106110
21
35.334269
31
0.0
0
LINE
8
0
6
CONTINUOUS
10
-15.935941
20
33.795008
30
0.0
11
-15.578639
21
34.529345
31
0.0
0
LINE
8
0
6
CONTINUOUS
10
-21.072282
20
35.900286
30
0.0
11
-20.613437
21
35.630015
31
0.0
0
LINE
8
0
6
CONTINUOUS
10
-12.142325
20
38.407649
30
0.0
11
-12.495714
21
39.183276
31
0.0
0
LINE
8
0
6
CONTINUOUS
10
-14.463849
20
35.334277
30
0.0
11
-13.956523
21
35.630030
31
0.0
0
LINE
8
0
6
CONTINUOUS
10
-22.427652
20
38.407633
30
0.0
11
-22.454081
21
37.631426
31
0.0
0
LINE
8
0
6
CONTINUOUS
10
-13.572874
20
40.073840
30
0.0
11
-14.691380
21
40.566615
31
0.0
0
LINE
8
0
6
CONTINUOUS
10
-12.438507
20
36.869715
30
0.0
11
-12.115892
21
37.631442
31
0.0
0
LINE
8
0
6
CONTINUOUS
10
-18.008268
20
34.980669
30
0.0
11
-18.666762
21
34.999911
31
0.0
0
LINE
8
0
6
CONTINUOUS
10
-17.707608
20
32.705279
30
0.0
11
-17.280183
21
32.683360
31
0.0
0
LINE
8
0
6
CONTINUOUS
10
-16.547735
20
34.955622
30
0.0
11
-17.278833
21
34.957530
31
0.0
0
LINE
8
0
6
CONTINUOUS
10
-18.941018
20
34.543604
30
0.0
11
-18.601499
21
33.822276
31
0.0
0
LINE
8
0
6
CONTINUOUS
10
-19.234308
20
34.825831
30
0.0
11
-18.941018
21
34.543604
31
0.0
0
LINE
8
0
6
CONTINUOUS
10
-18.666762
20
34.999911
30
0.0
11
-19.231118
21
34.826810
31
0.0
0
LINE
8
0
6
CONTINUOUS
10
-15.861196
20
34.976138
30
0.0
11
-15.241709
21
34.864031
31
0.0
0
LINE
8
0
6
CONTINUOUS
10
-15.241708
20
34.864031
30
0.0
11
-14.973866
21
35.015025
31
0.0
0
LINE
8
0
6
CONTINUOUS
10
-19.295785
20
34.843317
30
0.0
11
-18.997660
21
34.558878
31
0.0
0
LINE
8
0
6
CONTINUOUS
10
-16.113967
20
32.983378
30
0.0
11
-15.888436
21
33.809138
31
0.0
0
LINE
8
0
6
CONTINUOUS
10
-17.280188
20
32.645091
30
0.0
11
-16.856049
21
32.673190
31
0.0
0
LINE
8
0
6
CONTINUOUS
10
-16.856049
20
32.673190
30
0.0
11
-16.427281
21
32.771334
31
0.0
0
LINE
8
0
6
CONTINUOUS
10
-18.648493
20
33.836932
30
0.0
11
-18.438264
21
32.908183
31
0.0
0
LINE
8
0
6
CONTINUOUS
10
-18.127596
20
32.764109
30
0.0
11
-17.705587
21
32.666209
31
0.0
0
LINE
8
0
6
CONTINUOUS
10
-15.888436
20
33.809138
30
0.0
11
-15.516875
21
34.548953
31
0.0
0
LINE
8
0
6
CONTINUOUS
10
-16.113967
20
32.983378
30
0.0
11
-16.132520
21
33.016161
31
0.0
0
LINE
8
0
6
CONTINUOUS
10
-16.427281
20
32.771334
30
0.0
11
-16.113967
21
32.983378
31
0.0
0
LINE
8
0
6
CONTINUOUS
10
-17.705587
20
32.666209
30
0.0
11
-17.280188
21
32.645091
31
0.0
0
LINE
8
0
6
CONTINUOUS
10
-18.997660
20
34.558878
30
0.0
11
-18.648493
21
33.836932
31
0.0
0
LINE
8
0
6
CONTINUOUS
10
-15.516875
20
34.548953
30
0.0
11
-15.241708
21
34.864031
31
0.0
0
LINE
8
0
6
CONTINUOUS
10
-18.438264
20
32.908183
30
0.0
11
-18.127596
21
32.764109
31
0.0
0
LINE
8
0
6
CONTINUOUS
10
-18.419098
20
32.943369
30
0.0
11
-18.438264
21
32.908183
31
0.0
0
LINE
8
0
6
CONTINUOUS
10
-19.263895
20
34.858218
30
0.0
11
-19.234308
21
34.825831
31
0.0
0
LINE
8
0
6
CONTINUOUS
10
-19.234308
20
34.825831
30
0.0
11
-18.666762
21
34.999911
31
0.0
0
LINE
8
0
6
CONTINUOUS
10
-18.666762
20
34.999911
30
0.0
11
-18.008268
21
34.980669
31
0.0
0
LINE
8
0
6
CONTINUOUS
10
-17.278833
20
34.957530
30
0.0
11
-16.547735
21
34.955622
31
0.0
0
LINE
8
0
6
CONTINUOUS
10
-16.547735
20
34.955622
30
0.0
11
-15.874134
21
34.945788
31
0.0
0
LINE
8
0
6
CONTINUOUS
10
-18.008268
20
34.980669
30
0.0
11
-17.278833
21
34.957530
31
0.0
0
LINE
8
0
6
CONTINUOUS
10
-15.874134
20
34.945788
30
0.0
11
-15.304206
21
34.842806
31
0.0
0
LINE
8
0
6
CONTINUOUS
10
-16.132520
20
33.016161
30
0.0
11
-15.912129
21
33.825739
31
0.0
0
LINE
8
0
6
CONTINUOUS
10
-16.151448
20
33.000964
30
0.0
11
-16.132520
21
33.016161
31
0.0
0
LINE
8
0
6
CONTINUOUS
10
-15.935941
20
33.795008
30
0.0
11
-16.150652
21
33.003896
31
0.0
0
LINE
8
0
6
CONTINUOUS
10
-18.419098
20
32.943369
30
0.0
11
-18.401732
21
32.930476
31
0.0
0
LINE
8
0
6
CONTINUOUS
10
-18.623967
20
33.853274
30
0.0
11
-18.419098
21
32.943369
31
0.0
0
LINE
8
0
6
CONTINUOUS
10
-18.401732
20
32.930476
30
0.0
11
-18.601499
21
33.822276
31
0.0
0
LINE
8
0
6
CONTINUOUS
10
-15.912129
20
33.825739
30
0.0
11
-15.547815
21
34.562769
31
0.0
0
LINE
8
0
6
CONTINUOUS
10
-15.578639
20
34.529345
30
0.0
11
-15.935941
21
33.795008
31
0.0
0
LINE
8
0
6
CONTINUOUS
10
-18.963726
20
34.565455
30
0.0
11
-18.623967
21
33.853274
31
0.0
0
LINE
8
0
6
CONTINUOUS
10
-18.601499
20
33.822276
30
0.0
11
-18.941018
21
34.543604
31
0.0
0
LINE
8
0
6
CONTINUOUS
10
-15.273022
20
34.877024
30
0.0
11
-15.304206
21
34.842806
31
0.0
0
LINE
8
0
6
CONTINUOUS
10
-15.547815
20
34.562769
30
0.0
11
-15.278553
21
34.870699
31
0.0
0
LINE
8
0
6
CONTINUOUS
10
-15.304206
20
34.842806
30
0.0
11
-15.578639
21
34.529345
31
0.0
0
LINE
8
0
6
CONTINUOUS
10
-18.966800
20
36.650205
30
0.0
11
-18.889167
21
36.599739
31
0.0
0
LINE
8
0
6
CONTINUOUS
10
-19.115144
20
36.777130
30
0.0
11
-18.966800
21
36.650205
31
0.0
0
LINE
8
0
6
CONTINUOUS
10
-19.251370
20
36.924159
30
0.0
11
-19.118613
21
36.781259
31
0.0
0
LINE
8
0
6
CONTINUOUS
10
-19.118613
20
36.781259
30
0.0
11
-19.115144
21
36.777130
31
0.0
0
LINE
8
0
6
CONTINUOUS
10
-19.327738
20
37.703458
30
0.0
11
-19.398732
21
37.559836
31
0.0
0
LINE
8
0
6
CONTINUOUS
10
-19.250784
20
37.864591
30
0.0
11
-19.323132
21
37.708949
31
0.0
0
LINE
8
0
6
CONTINUOUS
10
-17.284990
20
38.581484
30
0.0
11
-17.032479
21
38.587228
31
0.0
0
LINE
8
0
6
CONTINUOUS
10
-17.316686
20
38.585359
30
0.0
11
-17.284990
21
38.581484
31
0.0
0
LINE
8
0
6
CONTINUOUS
10
-16.991328
20
38.584011
30
0.0
11
-16.758221
21
38.562599
31
0.0
0
LINE
8
0
6
CONTINUOUS
10
-17.032479
20
38.587228
30
0.0
11
-16.991328
21
38.584011
31
0.0
0
LINE
8
0
6
CONTINUOUS
10
-16.498528
20
38.511809
30
0.0
11
-16.257505
21
38.437375
31
0.0
0
LINE
8
0
6
CONTINUOUS
10
-15.852634
20
38.230526
30
0.0
11
-15.845528
21
38.227824
31
0.0
0
LINE
8
0
6
CONTINUOUS
10
-15.849177
20
36.532005
30
0.0
11
-15.712745
21
36.621621
31
0.0
0
LINE
8
0
6
CONTINUOUS
10
-16.049608
20
36.430487
30
0.0
11
-16.029630
21
36.440647
31
0.0
0
LINE
8
0
6
CONTINUOUS
10
-16.029630
20
36.440647
30
0.0
11
-15.849177
21
36.532005
31
0.0
0
LINE
8
0
6
CONTINUOUS
10
-16.729371
20
39.541797
30
0.0
11
-16.393679
21
39.500867
31
0.0
0
LINE
8
0
6
CONTINUOUS
10
-16.845694
20
39.554356
30
0.0
11
-16.729371
21
39.541797
31
0.0
0
LINE
8
0
6
CONTINUOUS
10
-16.393679
20
39.500867
30
0.0
11
-15.969760
21
39.397381
31
0.0
0
LINE
8
0
6
CONTINUOUS
10
-15.969760
20
39.397381
30
0.0
11
-15.913301
21
39.375986
31
0.0
0
LINE
8
0
6
CONTINUOUS
10
-15.913301
20
39.375986
30
0.0
11
-15.560596
21
39.304585
31
0.0
0
LINE
8
0
6
CONTINUOUS
10
-15.560596
20
39.304585
30
0.0
11
-15.183875
21
39.171910
31
0.0
0
LINE
8
0
6
CONTINUOUS
10
-15.053290
20
39.101929
30
0.0
11
-14.854903
21
38.988161
31
0.0
0
LINE
8
0
6
CONTINUOUS
10
-15.183875
20
39.171910
30
0.0
11
-15.053290
21
39.101929
31
0.0
0
LINE
8
0
6
CONTINUOUS
10
-14.854903
20
38.988161
30
0.0
11
-14.598935
21
38.783765
31
0.0
0
LINE
8
0
6
CONTINUOUS
10
-21.587702
20
37.274123
30
0.0
11
-21.506040
21
37.218811
31
0.0
0
LINE
8
0
6
CONTINUOUS
10
-21.668302
20
37.326339
30
0.0
11
-21.587702
21
37.274123
31
0.0
0
LINE
8
0
6
CONTINUOUS
10
-21.868138
20
37.331140
30
0.0
11
-21.905710
21
37.230824
31
0.0
0
LINE
8
0
6
CONTINUOUS
10
-17.916548
20
36.122967
30
0.0
11
-17.777874
21
36.092686
31
0.0
0
LINE
8
0
6
CONTINUOUS
10
-17.911967
20
36.840911
30
0.0
11
-17.712132
21
36.792399
31
0.0
0
LINE
8
0
6
CONTINUOUS
10
-16.755711
20
36.467050
30
0.0
11
-16.688325
21
36.481462
31
0.0
0
LINE
8
0
6
CONTINUOUS
10
-16.688325
20
36.481462
30
0.0
11
-16.526062
21
36.418497
31
0.0
0
LINE
8
0
6
CONTINUOUS
10
-16.713632
20
36.121302
30
0.0
11
-16.655454
21
36.133952
31
0.0
0
LINE
8
0
6
CONTINUOUS
10
-16.655454
20
36.133952
30
0.0
11
-16.628853
21
36.123646
31
0.0
0
LINE
8
0
6
CONTINUOUS
10
-16.888160
20
36.438253
30
0.0
11
-16.755711
21
36.467050
31
0.0
0
LINE
8
0
6
CONTINUOUS
10
-16.391733
20
38.137407
30
0.0
11
-16.242497
21
38.239909
31
0.0
0
LINE
8
0
6
CONTINUOUS
10
-16.242497
20
38.239909
30
0.0
11
-16.036983
21
38.210779
31
0.0
0
LINE
8
0
6
CONTINUOUS
10
-16.838503
20
37.974327
30
0.0
11
-16.632989
21
37.946474
31
0.0
0
LINE
8
0
6
CONTINUOUS
10
-17.284990
20
38.481451
30
0.0
11
-17.218429
21
38.485744
31
0.0
0
LINE
8
0
6
CONTINUOUS
10
-18.043452
20
35.473739
30
0.0
11
-17.843617
21
35.435057
31
0.0
0
LINE
8
0
6
CONTINUOUS
10
-21.004595
20
37.728319
30
0.0
11
-20.889245
21
37.681149
31
0.0
0
LINE
8
0
6
CONTINUOUS
10
-17.532246
20
40.297273
30
0.0
11
-17.468760
21
40.460348
31
0.0
0
LINE
8
0
6
CONTINUOUS
10
-18.609584
20
40.324446
30
0.0
11
-18.459051
21
40.298339
31
0.0
0
LINE
8
0
6
CONTINUOUS
10
-17.414733
20
38.488023
30
0.0
11
-17.284990
21
38.479655
31
0.0
0
LINE
8
0
6
CONTINUOUS
10
-12.855870
20
38.080706
30
0.0
11
-12.805343
21
38.101214
31
0.0
0
LINE
8
0
6
CONTINUOUS
10
-12.805343
20
38.101214
30
0.0
11
-12.643080
21
38.055362
31
0.0
0
LINE
8
0
6
CONTINUOUS
10
-13.005177
20
38.012208
30
0.0
11
-12.855870
21
38.080706
31
0.0
0
LINE
8
0
6
CONTINUOUS
10
-15.551136
20
38.515456
30
0.0
11
-15.440978
21
38.506451
31
0.0
0
LINE
8
0
6
CONTINUOUS
10
-15.000394
20
37.933977
30
0.0
11
-14.810792
21
37.894385
31
0.0
0
LINE
8
0
6
CONTINUOUS
10
-15.795728
20
38.403650
30
0.0
11
-15.646492
21
38.520207
31
0.0
0
LINE
8
0
6
CONTINUOUS
10
-15.646492
20
38.520207
30
0.0
11
-15.551136
21
38.515456
31
0.0
0
LINE
8
0
6
CONTINUOUS
10
-21.123281
20
36.559440
30
0.0
11
-21.041991
21
36.508745
31
0.0
0
LINE
8
0
6
CONTINUOUS
10
-21.204252
20
36.607697
30
0.0
11
-21.123281
21
36.559440
31
0.0
0
LINE
8
0
6
CONTINUOUS
10
-17.271498
20
23.021230
30
0.0
11
-17.248692
21
23.025100
31
0.0
0
LINE
8
0
6
CONTINUOUS
10
-17.248692
20
23.025100
30
0.0
11
-16.986436
21
23.061320
31
0.0
0
LINE
8
0
6
CONTINUOUS
10
-17.569730
20
23.066352
30
0.0
11
-17.278041
21
23.020048
31
0.0
0
LINE
8
0
6
CONTINUOUS
10
-17.599623
20
23.081928
30
0.0
11
-17.569730
21
23.066352
31
0.0
0
LINE
8
0
6
CONTINUOUS
10
-17.278041
20
23.020048
30
0.0
11
-17.271498
21
23.021230
31
0.0
0
LINE
8
0
6
CONTINUOUS
10
-17.635646
20
23.100563
30
0.0
11
-17.599623
21
23.081928
31
0.0
0
LINE
8
0
6
CONTINUOUS
10
-17.771107
20
23.155908
30
0.0
11
-17.635646
21
23.100563
31
0.0
0
LINE
8
0
6
CONTINUOUS
10
-17.843598
20
23.186634
30
0.0
11
-17.771107
21
23.155908
31
0.0
0
LINE
8
0
6
CONTINUOUS
10
-18.082069
20
23.369610
30
0.0
11
-17.843598
21
23.186634
31
0.0
0
LINE
8
0
6
CONTINUOUS
10
-18.268131
20
23.584907
30
0.0
11
-18.329083
21
23.698577
31
0.0
0
LINE
8
0
6
CONTINUOUS
10
-18.181782
20
23.496404
30
0.0
11
-18.268131
21
23.584907
31
0.0
0
LINE
8
0
6
CONTINUOUS
10
-18.140889
20
23.444761
30
0.0
11
-18.181782
21
23.496404
31
0.0
0
LINE
8
0
6
CONTINUOUS
10
-16.712337
20
23.191188
30
0.0
11
-16.493751
21
23.354558
31
0.0
0
LINE
8
0
6
CONTINUOUS
10
-16.760885
20
23.171361
30
0.0
11
-16.712337
21
23.191188
31
0.0
0
LINE
8
0
6
CONTINUOUS
10
-13.576246
20
37.738163
30
0.0
11
-13.544082
21
37.749412
31
0.0
0
LINE
8
0
6
CONTINUOUS
10
-13.544082
20
37.749412
30
0.0
11
-13.440740
21
37.710935
31
0.0
0
LINE
8
0
6
CONTINUOUS
10
-14.561025
20
38.106918
30
0.0
11
-14.384781
21
38.211543
31
0.0
0
LINE
8
0
6
CONTINUOUS
10
-14.384781
20
38.211543
30
0.0
11
-14.195178
21
38.186137
31
0.0
0
LINE
8
0
6
CONTINUOUS
10
-19.210142
20
35.787179
30
0.0
11
-19.031610
21
35.744279
31
0.0
0
LINE
8
0
6
CONTINUOUS
10
-20.749897
20
36.941045
30
0.0
11
-20.662314
21
36.885691
31
0.0
0
LINE
8
0
6
CONTINUOUS
10
-16.822417
20
35.748607
30
0.0
11
-16.859992
21
35.650507
31
0.0
0
LINE
8
0
6
CONTINUOUS
10
-16.584678
20
35.775707
30
0.0
11
-16.460320
21
35.731601
31
0.0
0
LINE
8
0
6
CONTINUOUS
10
-15.601552
20
35.753522
30
0.0
11
-15.639126
21
35.646269
31
0.0
0
LINE
8
0
6
CONTINUOUS
10
-16.145680
20
39.192599
30
0.0
11
-15.933472
21
39.191380
31
0.0
0
LINE
8
0
6
CONTINUOUS
10
-16.813157
20
39.838629
30
0.0
11
-16.603775
21
39.869403
31
0.0
0
LINE
8
0
6
CONTINUOUS
10
-16.229300
20
39.096670
30
0.0
11
-16.145680
21
39.192599
31
0.0
0
LINE
8
0
6
CONTINUOUS
10
-16.780206
20
38.821143
30
0.0
11
-16.567999
21
38.821575
31
0.0
0
LINE
8
0
6
CONTINUOUS
10
-13.331273
20
38.723688
30
0.0
11
-13.153552
21
38.843647
31
0.0
0
LINE
8
0
6
CONTINUOUS
10
-13.153552
20
38.843647
30
0.0
11
-12.963951
21
38.825074
31
0.0
0
LINE
8
0
6
CONTINUOUS
10
-15.021561
20
37.186679
30
0.0
11
-14.859300
21
37.126167
31
0.0
0
LINE
8
0
6
CONTINUOUS
10
-15.616007
20
37.657237
30
0.0
11
-15.426405
21
37.622574
31
0.0
0
LINE
8
0
6
CONTINUOUS
10
-15.148188
20
37.148518
30
0.0
11
-15.021561
21
37.186679
31
0.0
0
LINE
8
0
6
CONTINUOUS
10
-15.793727
20
37.573094
30
0.0
11
-15.706987
21
37.614834
31
0.0
0
LINE
8
0
6
CONTINUOUS
10
-15.918011
20
36.881316
30
0.0
11
-15.760301
21
36.930927
31
0.0
0
LINE
8
0
6
CONTINUOUS
10
-15.221397
20
37.125487
30
0.0
11
-15.148188
21
37.148518
31
0.0
0
LINE
8
0
6
CONTINUOUS
10
-19.393707
20
35.760419
30
0.0
11
-19.231446
21
35.793386
31
0.0
0
LINE
8
0
6
CONTINUOUS
10
-20.233967
20
36.326528
30
0.0
11
-20.071704
21
36.236141
31
0.0
0
LINE
8
0
6
CONTINUOUS
10
-20.433802
20
36.319746
30
0.0
11
-20.453919
21
36.267721
31
0.0
0
LINE
8
0
6
CONTINUOUS
10
-20.037097
20
36.726695
30
0.0
11
-19.979584
21
36.693993
31
0.0
0
LINE
8
0
6
CONTINUOUS
10
-20.236933
20
36.721181
30
0.0
11
-20.274507
21
36.623406
31
0.0
0
LINE
8
0
6
CONTINUOUS
10
-14.282821
20
37.454846
30
0.0
11
-14.120559
21
37.404473
31
0.0
0
LINE
8
0
6
CONTINUOUS
10
-14.482656
20
37.382468
30
0.0
11
-14.308260
21
37.446065
31
0.0
0
LINE
8
0
6
CONTINUOUS
10
-15.511153
20
39.590142
30
0.0
11
-15.298946
21
39.598301
31
0.0
0
LINE
8
0
6
CONTINUOUS
10
-15.625209
20
39.450824
30
0.0
11
-15.533393
21
39.564454
31
0.0
0
LINE
8
0
6
CONTINUOUS
10
-15.050488
20
38.822868
30
0.0
11
-14.844973
21
38.806610
31
0.0
0
LINE
8
0
6
CONTINUOUS
10
-14.007713
20
39.367690
30
0.0
11
-13.873412
21
39.469044
31
0.0
0
LINE
8
0
6
CONTINUOUS
10
-14.454482
20
39.155478
30
0.0
11
-14.248968
21
39.156286
31
0.0
0
LINE
8
0
6
CONTINUOUS
10
-14.603717
20
39.021428
30
0.0
11
-14.454482
21
39.155478
31
0.0
0
LINE
8
0
6
CONTINUOUS
10
-15.482024
20
35.392197
30
0.0
11
-15.485406
21
35.383299
31
0.0
0
LINE
8
0
6
CONTINUOUS
10
-16.789547
20
35.429230
30
0.0
11
-16.800350
21
35.402834
31
0.0
0
LINE
8
0
6
CONTINUOUS
10
-16.589712
20
35.466573
30
0.0
11
-16.560619
21
35.456810
31
0.0
0
LINE
8
0
6
CONTINUOUS
10
-16.800350
20
35.402834
30
0.0
11
-16.827119
21
35.334143
31
0.0
0
LINE
8
0
6
CONTINUOUS
10
-19.382548
20
35.482920
30
0.0
11
-19.350973
21
35.489486
31
0.0
0
LINE
8
0
6
CONTINUOUS
10
-19.111917
20
36.165144
30
0.0
11
-18.912083
21
36.112325
31
0.0
0
LINE
8
0
6
CONTINUOUS
10
-16.622583
20
35.790172
30
0.0
11
-16.584678
21
35.775707
31
0.0
0
LINE
8
0
6
CONTINUOUS
10
-16.855289
20
36.090783
30
0.0
11
-16.892863
21
35.985733
31
0.0
0
LINE
8
0
6
CONTINUOUS
10
-16.855289
20
36.090783
30
0.0
11
-16.713632
21
36.121302
31
0.0
0
LINE
8
0
6
CONTINUOUS
10
-15.531623
20
36.497558
30
0.0
11
-15.478510
21
36.480357
31
0.0
0
LINE
8
0
6
CONTINUOUS
10
-15.840608
20
36.481655
30
0.0
11
-15.640773
21
36.533780
31
0.0
0
LINE
8
0
6
CONTINUOUS
10
-15.640773
20
36.533780
30
0.0
11
-15.531623
21
36.497558
31
0.0
0
LINE
8
0
6
CONTINUOUS
10
-16.409342
20
37.362964
30
0.0
11
-16.231621
21
37.434933
31
0.0
0
LINE
8
0
6
CONTINUOUS
10
-16.231621
20
37.434933
30
0.0
11
-16.042019
21
37.386306
31
0.0
0
LINE
8
0
6
CONTINUOUS
10
-15.960136
20
36.871329
30
0.0
11
-15.980546
21
36.805910
31
0.0
0
LINE
8
0
6
CONTINUOUS
10
-15.960136
20
36.871329
30
0.0
11
-15.918011
21
36.881316
31
0.0
0
ENDSEC
0
EOF
