999
unknown String-ID: 20550
0
SECTION
2
HEADER
9
$ACADVER
1
AC1009
9
$DWGCODEPAGE
3
unknown String-ID: 20561
0
ENDSEC
0
SECTION
2
TABLES
0
TABLE
2
LAYER
70
1
0
LAYER
2
0
70
0
62
7
6
CONTINUOUS
0
ENDTAB
0
ENDSEC
0
SECTION
2
ENTITIES
0
LINE
8
0
6
CONTINUOUS
10
1.476055
20
3.752608
30
0.0
11
1.476055
21
7.499115
31
0.0
0
LINE
8
0
6
CONTINUOUS
10
1.420113
20
7.583729
30
0.0
11
1.226059
21
7.583895
31
0.0
0
LINE
8
0
6
CONTINUOUS
10
1.476055
20
3.570534
30
0.0
11
1.476055
21
3.752608
31
0.0
0
LINE
8
0
6
CONTINUOUS
10
-0.023947
20
4.532977
30
0.0
11
0.272641
21
4.475328
31
0.0
0
LINE
8
0
6
CONTINUOUS
10
1.473561
20
3.206331
30
0.0
11
1.476723
21
3.388436
31
0.0
0
LINE
8
0
6
CONTINUOUS
10
0.591022
20
4.364409
30
0.0
11
0.856319
21
4.180514
31
0.0
0
LINE
8
0
6
CONTINUOUS
10
1.012342
20
4.018141
30
0.0
11
1.109526
21
3.818691
31
0.0
0
LINE
8
0
6
CONTINUOUS
10
0.272641
20
4.475328
30
0.0
11
0.591022
21
4.364409
31
0.0
0
LINE
8
0
6
CONTINUOUS
10
1.436622
20
3.027750
30
0.0
11
1.473561
21
3.206331
31
0.0
0
LINE
8
0
6
CONTINUOUS
10
0.856319
20
4.180514
30
0.0
11
1.012342
21
4.018141
31
0.0
0
LINE
8
0
6
CONTINUOUS
10
1.226059
20
7.583895
30
0.0
11
0.976062
21
7.584110
31
0.0
0
LINE
8
0
6
CONTINUOUS
10
0.976062
20
7.584110
30
0.0
11
0.726066
21
7.584325
31
0.0
0
LINE
8
0
6
CONTINUOUS
10
0.726066
20
7.584325
30
0.0
11
0.476070
21
7.584540
31
0.0
0
LINE
8
0
6
CONTINUOUS
10
0.476070
20
7.584540
30
0.0
11
0.226073
21
7.584754
31
0.0
0
LINE
8
0
6
CONTINUOUS
10
0.226073
20
7.584754
30
0.0
11
-0.023947
21
7.584969
31
0.0
0
LINE
8
0
6
CONTINUOUS
10
1.476055
20
3.570534
30
0.0
11
1.476723
21
3.388436
31
0.0
0
LINE
8
0
6
CONTINUOUS
10
1.476055
20
7.583681
30
0.0
11
1.420113
21
7.583729
31
0.0
0
LINE
8
0
6
CONTINUOUS
10
1.476055
20
7.499115
30
0.0
11
1.476055
21
7.583681
31
0.0
0
LINE
8
0
6
CONTINUOUS
10
-1.523949
20
7.499115
30
0.0
11
-1.523949
21
3.752608
31
0.0
0
LINE
8
0
6
CONTINUOUS
10
-1.273953
20
7.583895
30
0.0
11
-1.468007
21
7.583729
31
0.0
0
LINE
8
0
6
CONTINUOUS
10
-1.523949
20
3.752608
30
0.0
11
-1.523949
21
3.570534
31
0.0
0
LINE
8
0
6
CONTINUOUS
10
-0.320535
20
4.475328
30
0.0
11
-0.023947
21
4.532977
31
0.0
0
LINE
8
0
6
CONTINUOUS
10
-1.524617
20
3.388436
30
0.0
11
-1.521455
21
3.206331
31
0.0
0
LINE
8
0
6
CONTINUOUS
10
-0.904213
20
4.180514
30
0.0
11
-0.638916
21
4.364409
31
0.0
0
LINE
8
0
6
CONTINUOUS
10
-1.157420
20
3.818691
30
0.0
11
-1.060236
21
4.018141
31
0.0
0
LINE
8
0
6
CONTINUOUS
10
-0.638916
20
4.364409
30
0.0
11
-0.320535
21
4.475328
31
0.0
0
LINE
8
0
6
CONTINUOUS
10
-1.521455
20
3.206331
30
0.0
11
-1.484516
21
3.027750
31
0.0
0
LINE
8
0
6
CONTINUOUS
10
-1.060236
20
4.018141
30
0.0
11
-0.904213
21
4.180514
31
0.0
0
LINE
8
0
6
CONTINUOUS
10
-1.484516
20
3.027750
30
0.0
11
-1.414680
21
2.859448
31
0.0
0
LINE
8
0
6
CONTINUOUS
10
-1.023956
20
7.584110
30
0.0
11
-1.273953
21
7.583895
31
0.0
0
LINE
8
0
6
CONTINUOUS
10
-0.773960
20
7.584325
30
0.0
11
-1.023956
21
7.584110
31
0.0
0
LINE
8
0
6
CONTINUOUS
10
-0.523964
20
7.584540
30
0.0
11
-0.773960
21
7.584325
31
0.0
0
LINE
8
0
6
CONTINUOUS
10
-0.273967
20
7.584754
30
0.0
11
-0.523964
21
7.584540
31
0.0
0
LINE
8
0
6
CONTINUOUS
10
-0.023947
20
7.584969
30
0.0
11
-0.273967
21
7.584754
31
0.0
0
LINE
8
0
6
CONTINUOUS
10
-1.524617
20
3.388436
30
0.0
11
-1.523949
21
3.570534
31
0.0
0
LINE
8
0
6
CONTINUOUS
10
-1.523949
20
7.583681
30
0.0
11
-1.523949
21
7.499115
31
0.0
0
LINE
8
0
6
CONTINUOUS
10
-1.468007
20
7.583729
30
0.0
11
-1.523949
21
7.583681
31
0.0
0
LINE
8
0
6
CONTINUOUS
10
5.267278
20
-4.635191
30
0.0
11
5.269846
21
-4.617114
31
0.0
0
LINE
8
0
6
CONTINUOUS
10
-0.000006
20
-7.584969
30
0.0
11
1.320735
21
-7.476740
31
0.0
0
LINE
8
0
6
CONTINUOUS
10
1.320735
20
-7.476740
30
0.0
11
2.595690
21
-7.155537
31
0.0
0
LINE
8
0
6
CONTINUOUS
10
2.595690
20
-7.155537
30
0.0
11
3.717506
21
-6.628282
31
0.0
0
LINE
8
0
6
CONTINUOUS
10
4.368655
20
-6.136648
30
0.0
11
4.858748
21
-5.576401
31
0.0
0
LINE
8
0
6
CONTINUOUS
10
3.717506
20
-6.628282
30
0.0
11
4.368655
21
-6.136648
31
0.0
0
LINE
8
0
6
CONTINUOUS
10
5.021153
20
-1.722536
30
0.0
11
4.309696
21
-0.982458
31
0.0
0
LINE
8
0
6
CONTINUOUS
10
3.901217
20
-0.685374
30
0.0
11
3.392221
21
-0.386399
31
0.0
0
LINE
8
0
6
CONTINUOUS
10
4.309696
20
-0.982458
30
0.0
11
3.901217
21
-0.685374
31
0.0
0
LINE
8
0
6
CONTINUOUS
10
1.500437
20
2.447718
30
0.0
11
1.346047
21
3.263362
31
0.0
0
LINE
8
0
6
CONTINUOUS
10
1.001087
20
3.931720
30
0.0
11
0.703467
21
4.115857
31
0.0
0
LINE
8
0
6
CONTINUOUS
10
1.273967
20
3.641959
30
0.0
11
1.241573
21
3.684082
31
0.0
0
LINE
8
0
6
CONTINUOUS
10
1.500437
20
2.447718
30
0.0
11
1.623935
21
1.809717
31
0.0
0
LINE
8
0
6
CONTINUOUS
10
1.640278
20
1.733360
30
0.0
11
1.514845
21
2.386099
31
0.0
0
LINE
8
0
6
CONTINUOUS
10
1.723861
20
1.288462
30
0.0
11
1.640278
21
1.733360
31
0.0
0
LINE
8
0
6
CONTINUOUS
10
1.623935
20
1.809717
30
0.0
11
1.723861
21
1.288462
31
0.0
0
LINE
8
0
6
CONTINUOUS
10
1.821134
20
0.931213
30
0.0
11
1.723861
21
1.288462
31
0.0
0
LINE
8
0
6
CONTINUOUS
10
2.434594
20
0.213265
30
0.0
11
2.040590
21
0.599234
31
0.0
0
LINE
8
0
6
CONTINUOUS
10
2.724329
20
0.008625
30
0.0
11
2.336845
21
0.305111
31
0.0
0
LINE
8
0
6
CONTINUOUS
10
5.290201
20
-3.407562
30
0.0
11
4.909724
21
-4.230631
31
0.0
0
LINE
8
0
6
CONTINUOUS
10
5.378971
20
-3.501807
30
0.0
11
5.387280
21
-2.606371
31
0.0
0
LINE
8
0
6
CONTINUOUS
10
5.339424
20
-4.127307
30
0.0
11
5.375647
21
-3.554393
31
0.0
0
LINE
8
0
6
CONTINUOUS
10
5.387280
20
-2.606371
30
0.0
11
5.021153
21
-1.722536
31
0.0
0
LINE
8
0
6
CONTINUOUS
10
1.306239
20
-6.170581
30
0.0
11
-0.000008
21
-6.261644
31
0.0
0
LINE
8
0
6
CONTINUOUS
10
2.543143
20
-5.875368
30
0.0
11
1.306239
21
-6.170581
31
0.0
0
LINE
8
0
6
CONTINUOUS
10
3.666377
20
-5.356317
30
0.0
11
2.543143
21
-5.875368
31
0.0
0
LINE
8
0
6
CONTINUOUS
10
4.909724
20
-4.230631
30
0.0
11
4.393441
21
-4.811190
31
0.0
0
LINE
8
0
6
CONTINUOUS
10
4.393441
20
-4.811190
30
0.0
11
3.666377
21
-5.356317
31
0.0
0
LINE
8
0
6
CONTINUOUS
10
2.879660
20
-0.076168
30
0.0
11
2.434594
21
0.213265
31
0.0
0
LINE
8
0
6
CONTINUOUS
10
3.392221
20
-0.386399
30
0.0
11
2.879660
21
-0.076168
31
0.0
0
LINE
8
0
6
CONTINUOUS
10
2.040590
20
0.599234
30
0.0
11
1.821134
21
0.931213
31
0.0
0
LINE
8
0
6
CONTINUOUS
10
5.290201
20
-3.407562
30
0.0
11
5.344303
21
-2.546234
31
0.0
0
LINE
8
0
6
CONTINUOUS
10
5.223146
20
-4.753842
30
0.0
11
5.267278
21
-4.635191
31
0.0
0
LINE
8
0
6
CONTINUOUS
10
4.858748
20
-5.576401
30
0.0
11
5.223146
21
-4.753842
31
0.0
0
LINE
8
0
6
CONTINUOUS
10
5.344303
20
-2.546234
30
0.0
11
5.021153
21
-1.722536
31
0.0
0
LINE
8
0
6
CONTINUOUS
10
5.375647
20
-3.554393
30
0.0
11
5.378971
21
-3.501807
31
0.0
0
LINE
8
0
6
CONTINUOUS
10
5.269846
20
-4.617114
30
0.0
11
5.339424
21
-4.127307
31
0.0
0
LINE
8
0
6
CONTINUOUS
10
0.703467
20
4.115857
30
0.0
11
0.359533
21
4.231482
31
0.0
0
LINE
8
0
6
CONTINUOUS
10
0.359533
20
4.231482
30
0.0
11
0.000029
21
4.270759
31
0.0
0
LINE
8
0
6
CONTINUOUS
10
1.346047
20
3.263362
30
0.0
11
1.274613
21
3.638568
31
0.0
0
LINE
8
0
6
CONTINUOUS
10
1.241573
20
3.684082
30
0.0
11
1.001087
21
3.931720
31
0.0
0
LINE
8
0
6
CONTINUOUS
10
-5.269846
20
-4.617115
30
0.0
11
-5.267280
21
-4.635189
31
0.0
0
LINE
8
0
6
CONTINUOUS
10
-1.320747
20
-7.476740
30
0.0
11
-0.000006
21
-7.584969
31
0.0
0
LINE
8
0
6
CONTINUOUS
10
-2.595699
20
-7.155538
30
0.0
11
-1.320747
21
-7.476740
31
0.0
0
LINE
8
0
6
CONTINUOUS
10
-3.717514
20
-6.628282
30
0.0
11
-2.595699
21
-7.155538
31
0.0
0
LINE
8
0
6
CONTINUOUS
10
-4.858752
20
-5.576402
30
0.0
11
-4.368661
21
-6.136648
31
0.0
0
LINE
8
0
6
CONTINUOUS
10
-4.368661
20
-6.136648
30
0.0
11
-3.717514
21
-6.628282
31
0.0
0
LINE
8
0
6
CONTINUOUS
10
-4.309689
20
-0.982459
30
0.0
11
-5.021149
21
-1.722536
31
0.0
0
LINE
8
0
6
CONTINUOUS
10
-3.392212
20
-0.386400
30
0.0
11
-3.901209
21
-0.685374
31
0.0
0
LINE
8
0
6
CONTINUOUS
10
-3.901209
20
-0.685374
30
0.0
11
-4.309689
21
-0.982459
31
0.0
0
LINE
8
0
6
CONTINUOUS
10
-1.345996
20
3.263363
30
0.0
11
-1.500398
21
2.447717
31
0.0
0
LINE
8
0
6
CONTINUOUS
10
-0.703410
20
4.115857
30
0.0
11
-1.001031
21
3.931721
31
0.0
0
LINE
8
0
6
CONTINUOUS
10
-1.241515
20
3.684081
30
0.0
11
-1.273910
21
3.641959
31
0.0
0
LINE
8
0
6
CONTINUOUS
10
-1.514806
20
2.386100
30
0.0
11
-1.640248
21
1.733361
31
0.0
0
LINE
8
0
6
CONTINUOUS
10
-1.623903
20
1.809718
30
0.0
11
-1.500398
21
2.447717
31
0.0
0
LINE
8
0
6
CONTINUOUS
10
-1.640248
20
1.733361
30
0.0
11
-1.723838
21
1.288462
31
0.0
0
LINE
8
0
6
CONTINUOUS
10
-1.723838
20
1.288462
30
0.0
11
-1.623903
21
1.809718
31
0.0
0
LINE
8
0
6
CONTINUOUS
10
-1.723838
20
1.288462
30
0.0
11
-1.821114
21
0.931212
31
0.0
0
LINE
8
0
6
CONTINUOUS
10
-2.040575
20
0.599233
30
0.0
11
-2.434581
21
0.213265
31
0.0
0
LINE
8
0
6
CONTINUOUS
10
-2.336832
20
0.305111
30
0.0
11
-2.724317
21
0.008623
31
0.0
0
LINE
8
0
6
CONTINUOUS
10
-4.909732
20
-4.230631
30
0.0
11
-5.290207
21
-3.407561
31
0.0
0
LINE
8
0
6
CONTINUOUS
10
-5.387280
20
-2.606369
30
0.0
11
-5.378975
21
-3.501808
31
0.0
0
LINE
8
0
6
CONTINUOUS
10
-5.375650
20
-3.554391
30
0.0
11
-5.339427
21
-4.127307
31
0.0
0
LINE
8
0
6
CONTINUOUS
10
-5.021149
20
-1.722536
30
0.0
11
-5.387280
21
-2.606369
31
0.0
0
LINE
8
0
6
CONTINUOUS
10
-0.000008
20
-6.261644
30
0.0
11
-1.306253
21
-6.170579
31
0.0
0
LINE
8
0
6
CONTINUOUS
10
-1.306253
20
-6.170579
30
0.0
11
-2.543157
21
-5.875369
31
0.0
0
LINE
8
0
6
CONTINUOUS
10
-2.543157
20
-5.875369
30
0.0
11
-3.666390
21
-5.356318
31
0.0
0
LINE
8
0
6
CONTINUOUS
10
-4.393453
20
-4.811192
30
0.0
11
-4.909732
21
-4.230631
31
0.0
0
LINE
8
0
6
CONTINUOUS
10
-3.666390
20
-5.356318
30
0.0
11
-4.393453
21
-4.811192
31
0.0
0
LINE
8
0
6
CONTINUOUS
10
-2.434581
20
0.213265
30
0.0
11
-2.879648
21
-0.076167
31
0.0
0
LINE
8
0
6
CONTINUOUS
10
-2.879648
20
-0.076167
30
0.0
11
-3.392212
21
-0.386400
31
0.0
0
LINE
8
0
6
CONTINUOUS
10
-1.821114
20
0.931212
30
0.0
11
-2.040575
21
0.599233
31
0.0
0
LINE
8
0
6
CONTINUOUS
10
-5.344304
20
-2.546234
30
0.0
11
-5.290207
21
-3.407561
31
0.0
0
LINE
8
0
6
CONTINUOUS
10
-5.223147
20
-4.753841
30
0.0
11
-4.858752
21
-5.576402
31
0.0
0
LINE
8
0
6
CONTINUOUS
10
-5.267280
20
-4.635189
30
0.0
11
-5.223147
21
-4.753841
31
0.0
0
LINE
8
0
6
CONTINUOUS
10
-5.021149
20
-1.722536
30
0.0
11
-5.344304
21
-2.546234
31
0.0
0
LINE
8
0
6
CONTINUOUS
10
-5.378975
20
-3.501808
30
0.0
11
-5.375650
21
-3.554391
31
0.0
0
LINE
8
0
6
CONTINUOUS
10
-5.339427
20
-4.127307
30
0.0
11
-5.269846
21
-4.617115
31
0.0
0
LINE
8
0
6
CONTINUOUS
10
-0.359476
20
4.231483
30
0.0
11
-0.703410
21
4.115857
31
0.0
0
LINE
8
0
6
CONTINUOUS
10
0.000029
20
4.270759
30
0.0
11
-0.359476
21
4.231483
31
0.0
0
LINE
8
0
6
CONTINUOUS
10
-1.274555
20
3.638568
30
0.0
11
-1.345996
21
3.263363
31
0.0
0
LINE
8
0
6
CONTINUOUS
10
-1.001031
20
3.931721
30
0.0
11
-1.241515
21
3.684081
31
0.0
0
LINE
8
0
6
CONTINUOUS
10
-0.978427
20
4.102895
30
0.0
11
-1.023054
21
3.909043
31
0.0
0
LINE
8
0
6
CONTINUOUS
10
1.041248
20
3.890364
30
0.0
11
0.992324
21
4.102896
31
0.0
0
ENDSEC
0
EOF
