999
unknown String-ID: 20550
0
SECTION
2
HEADER
9
$ACADVER
1
AC1009
9
$DWGCODEPAGE
3
unknown String-ID: 20561
0
ENDSEC
0
SECTION
2
TABLES
0
TABLE
2
LAYER
70
1
0
LAYER
2
0
70
0
62
7
6
CONTINUOUS
0
ENDTAB
0
ENDSEC
0
SECTION
2
ENTITIES
0
LINE
8
0
6
CONTINUOUS
10
-6.339389
20
3.644295
30
0.0
11
-6.410653
21
3.644294
31
0.0
0
LINE
8
0
6
CONTINUOUS
10
-6.410654
20
7.400279
30
0.0
11
-6.339389
21
7.418958
31
0.0
0
LINE
8
0
6
CONTINUOUS
10
-6.339389
20
3.644295
30
0.0
11
-4.313315
21
3.644294
31
0.0
0
LINE
8
0
6
CONTINUOUS
10
-4.313315
20
7.418957
30
0.0
11
-6.339389
21
7.418958
31
0.0
0
LINE
8
0
6
CONTINUOUS
10
-4.313315
20
3.644294
30
0.0
11
-4.284253
21
3.644294
31
0.0
0
LINE
8
0
6
CONTINUOUS
10
-4.284253
20
7.418957
30
0.0
11
-4.313315
21
7.418957
31
0.0
0
LINE
8
0
6
CONTINUOUS
10
-6.410653
20
3.644294
30
0.0
11
-6.410653
21
3.708604
31
0.0
0
LINE
8
0
6
CONTINUOUS
10
-6.410653
20
3.708604
30
0.0
11
-6.410652
21
3.897150
31
0.0
0
LINE
8
0
6
CONTINUOUS
10
-6.410652
20
3.897150
30
0.0
11
-6.410652
21
4.197081
31
0.0
0
LINE
8
0
6
CONTINUOUS
10
-6.410652
20
4.197081
30
0.0
11
-6.410652
21
4.587959
31
0.0
0
LINE
8
0
6
CONTINUOUS
10
-6.410652
20
4.587959
30
0.0
11
-6.410652
21
5.043148
31
0.0
0
LINE
8
0
6
CONTINUOUS
10
-6.410652
20
5.043148
30
0.0
11
-6.410652
21
5.531625
31
0.0
0
LINE
8
0
6
CONTINUOUS
10
-6.410652
20
5.531625
30
0.0
11
-6.410652
21
6.020103
31
0.0
0
LINE
8
0
6
CONTINUOUS
10
-6.410652
20
6.020103
30
0.0
11
-6.410652
21
6.475290
31
0.0
0
LINE
8
0
6
CONTINUOUS
10
-6.410652
20
6.475290
30
0.0
11
-6.410653
21
6.866170
31
0.0
0
LINE
8
0
6
CONTINUOUS
10
-6.410653
20
6.866170
30
0.0
11
-6.410653
21
7.166103
31
0.0
0
LINE
8
0
6
CONTINUOUS
10
-6.410653
20
7.166103
30
0.0
11
-6.410654
21
7.354648
31
0.0
0
LINE
8
0
6
CONTINUOUS
10
-6.410654
20
7.354648
30
0.0
11
-6.410654
21
7.400279
31
0.0
0
LINE
8
0
6
CONTINUOUS
10
-6.329688
20
4.319425
30
0.0
11
-6.341007
21
4.319119
31
0.0
0
LINE
8
0
6
CONTINUOUS
10
-6.329688
20
4.319425
30
0.0
11
-4.775231
21
4.316722
31
0.0
0
LINE
8
0
6
CONTINUOUS
10
-4.775231
20
4.316722
30
0.0
11
-4.763990
21
4.317054
31
0.0
0
LINE
8
0
6
CONTINUOUS
10
-6.345698
20
4.335189
30
0.0
11
-6.341007
21
4.319119
31
0.0
0
LINE
8
0
6
CONTINUOUS
10
-6.341007
20
4.319119
30
0.0
11
-6.336781
21
4.323453
31
0.0
0
LINE
8
0
6
CONTINUOUS
10
-6.336781
20
4.323453
30
0.0
11
-6.333307
21
4.347894
31
0.0
0
LINE
8
0
6
CONTINUOUS
10
-6.333307
20
4.347894
30
0.0
11
-6.330821
21
4.390780
31
0.0
0
LINE
8
0
6
CONTINUOUS
10
-6.330821
20
4.390780
30
0.0
11
-6.329492
21
4.449184
31
0.0
0
LINE
8
0
6
CONTINUOUS
10
-6.329492
20
4.449184
30
0.0
11
-6.329410
21
4.519129
31
0.0
0
LINE
8
0
6
CONTINUOUS
10
-6.329410
20
4.519129
30
0.0
11
-6.330582
21
4.595849
31
0.0
0
LINE
8
0
6
CONTINUOUS
10
-6.330582
20
4.595849
30
0.0
11
-6.332928
21
4.674114
31
0.0
0
LINE
8
0
6
CONTINUOUS
10
-6.332928
20
4.674114
30
0.0
11
-6.336286
21
4.748590
31
0.0
0
LINE
8
0
6
CONTINUOUS
10
-6.336286
20
4.748590
30
0.0
11
-6.340432
21
4.814202
31
0.0
0
LINE
8
0
6
CONTINUOUS
10
-6.340432
20
4.814202
30
0.0
11
-6.345078
21
4.866478
31
0.0
0
LINE
8
0
6
CONTINUOUS
10
-6.345078
20
4.866478
30
0.0
11
-6.349911
21
4.901858
31
0.0
0
LINE
8
0
6
CONTINUOUS
10
-6.404604
20
5.178420
30
0.0
11
-6.349911
21
4.901858
31
0.0
0
LINE
8
0
6
CONTINUOUS
10
-4.763990
20
5.177676
30
0.0
11
-4.763990
21
4.899548
31
0.0
0
LINE
8
0
6
CONTINUOUS
10
-4.763990
20
4.321231
30
0.0
11
-4.763990
21
4.317054
31
0.0
0
LINE
8
0
6
CONTINUOUS
10
-4.763990
20
4.345524
30
0.0
11
-4.763990
21
4.321231
31
0.0
0
LINE
8
0
6
CONTINUOUS
10
-4.763990
20
4.388280
30
0.0
11
-4.763990
21
4.345524
31
0.0
0
LINE
8
0
6
CONTINUOUS
10
-4.763990
20
4.446580
30
0.0
11
-4.763990
21
4.388280
31
0.0
0
LINE
8
0
6
CONTINUOUS
10
-4.763990
20
4.516455
30
0.0
11
-4.763990
21
4.446580
31
0.0
0
LINE
8
0
6
CONTINUOUS
10
-4.763990
20
4.593143
30
0.0
11
-4.763990
21
4.516455
31
0.0
0
LINE
8
0
6
CONTINUOUS
10
-4.763990
20
4.671414
30
0.0
11
-4.763990
21
4.593143
31
0.0
0
LINE
8
0
6
CONTINUOUS
10
-4.763990
20
4.745939
30
0.0
11
-4.763990
21
4.671414
31
0.0
0
LINE
8
0
6
CONTINUOUS
10
-4.763990
20
4.811637
30
0.0
11
-4.763990
21
4.745939
31
0.0
0
LINE
8
0
6
CONTINUOUS
10
-4.763990
20
4.864029
30
0.0
11
-4.763990
21
4.811637
31
0.0
0
LINE
8
0
6
CONTINUOUS
10
-4.763990
20
4.899548
30
0.0
11
-4.763990
21
4.864029
31
0.0
0
LINE
8
0
6
CONTINUOUS
10
-6.400392
20
4.611751
30
0.0
11
-6.345698
21
4.335189
31
0.0
0
LINE
8
0
6
CONTINUOUS
10
-4.284253
20
3.708604
30
0.0
11
-4.284253
21
3.644294
31
0.0
0
LINE
8
0
6
CONTINUOUS
10
-4.284251
20
3.897149
30
0.0
11
-4.284253
21
3.708604
31
0.0
0
LINE
8
0
6
CONTINUOUS
10
-4.284251
20
4.197081
30
0.0
11
-4.284251
21
3.897149
31
0.0
0
LINE
8
0
6
CONTINUOUS
10
-4.284251
20
4.587959
30
0.0
11
-4.284251
21
4.197081
31
0.0
0
LINE
8
0
6
CONTINUOUS
10
-4.284251
20
5.043148
30
0.0
11
-4.284251
21
4.587959
31
0.0
0
LINE
8
0
6
CONTINUOUS
10
-4.284251
20
5.531625
30
0.0
11
-4.284251
21
5.043148
31
0.0
0
LINE
8
0
6
CONTINUOUS
10
-4.284251
20
6.020102
30
0.0
11
-4.284251
21
5.531625
31
0.0
0
LINE
8
0
6
CONTINUOUS
10
-4.284251
20
6.475290
30
0.0
11
-4.284251
21
6.020102
31
0.0
0
LINE
8
0
6
CONTINUOUS
10
-4.284251
20
6.866170
30
0.0
11
-4.284251
21
6.475290
31
0.0
0
LINE
8
0
6
CONTINUOUS
10
-4.284251
20
7.166102
30
0.0
11
-4.284251
21
6.866170
31
0.0
0
LINE
8
0
6
CONTINUOUS
10
-4.284253
20
7.418957
30
0.0
11
-4.284253
21
7.354648
31
0.0
0
LINE
8
0
6
CONTINUOUS
10
-4.284253
20
7.354648
30
0.0
11
-4.284251
21
7.166102
31
0.0
0
LINE
8
0
6
CONTINUOUS
10
-4.226127
20
3.637038
30
0.0
11
-4.194152
21
3.637038
31
0.0
0
LINE
8
0
6
CONTINUOUS
10
-4.194152
20
3.637038
30
0.0
11
-0.342407
21
3.637037
31
0.0
0
LINE
8
0
6
CONTINUOUS
10
1.854666
20
5.298122
30
0.0
11
1.854666
21
5.320216
31
0.0
0
LINE
8
0
6
CONTINUOUS
10
-0.039570
20
4.856988
30
0.0
11
-0.058802
21
4.798242
31
0.0
0
LINE
8
0
6
CONTINUOUS
10
-0.018872
20
4.885612
30
0.0
11
-0.039570
21
4.856988
31
0.0
0
LINE
8
0
6
CONTINUOUS
10
1.854666
20
5.927704
30
0.0
11
1.854666
21
6.281582
31
0.0
0
LINE
8
0
6
CONTINUOUS
10
1.854666
20
6.281582
30
0.0
11
1.854666
21
6.606640
31
0.0
0
LINE
8
0
6
CONTINUOUS
10
0.545875
20
5.482427
30
0.0
11
0.670864
21
5.502756
31
0.0
0
LINE
8
0
6
CONTINUOUS
10
-0.087987
20
4.771315
30
0.0
11
-0.068277
21
4.831525
31
0.0
0
LINE
8
0
6
CONTINUOUS
10
-0.068277
20
4.831525
30
0.0
11
0.014764
21
4.946360
31
0.0
0
LINE
8
0
6
CONTINUOUS
10
1.854666
20
6.890383
30
0.0
11
1.854666
21
7.121913
31
0.0
0
LINE
8
0
6
CONTINUOUS
10
1.854666
20
6.606640
30
0.0
11
1.854666
21
6.890383
31
0.0
0
LINE
8
0
6
CONTINUOUS
10
1.504105
20
5.488896
30
0.0
11
1.605036
21
5.399721
31
0.0
0
LINE
8
0
6
CONTINUOUS
10
1.359207
20
5.512694
30
0.0
11
1.504105
21
5.488896
31
0.0
0
LINE
8
0
6
CONTINUOUS
10
1.854666
20
5.558606
30
0.0
11
1.854666
21
5.927704
31
0.0
0
LINE
8
0
6
CONTINUOUS
10
1.854666
20
5.320216
30
0.0
11
1.854666
21
5.558606
31
0.0
0
LINE
8
0
6
CONTINUOUS
10
1.854666
20
5.320216
30
0.0
11
1.814610
21
5.349997
31
0.0
0
LINE
8
0
6
CONTINUOUS
10
1.854666
20
5.320216
30
0.0
11
1.676750
21
5.374113
31
0.0
0
LINE
8
0
6
CONTINUOUS
10
1.667775
20
5.344289
30
0.0
11
1.854666
21
5.320216
31
0.0
0
LINE
8
0
6
CONTINUOUS
10
-4.226127
20
7.426219
30
0.0
11
-4.194152
21
7.426219
31
0.0
0
LINE
8
0
6
CONTINUOUS
10
1.047109
20
7.426219
30
0.0
11
1.504105
21
7.426219
31
0.0
0
LINE
8
0
6
CONTINUOUS
10
0.545875
20
7.426219
30
0.0
11
1.047109
21
7.426219
31
0.0
0
LINE
8
0
6
CONTINUOUS
10
0.189842
20
7.426219
30
0.0
11
0.545875
21
7.426219
31
0.0
0
LINE
8
0
6
CONTINUOUS
10
1.504105
20
7.426219
30
0.0
11
1.814610
21
7.426219
31
0.0
0
LINE
8
0
6
CONTINUOUS
10
1.854667
20
7.426219
30
0.0
11
1.814610
21
7.426219
31
0.0
0
LINE
8
0
6
CONTINUOUS
10
1.854666
20
7.395081
30
0.0
11
1.854667
21
7.426219
31
0.0
0
LINE
8
0
6
CONTINUOUS
10
1.854666
20
7.121913
30
0.0
11
1.854667
21
7.292328
31
0.0
0
LINE
8
0
6
CONTINUOUS
10
1.854667
20
7.292328
30
0.0
11
1.854666
21
7.395081
31
0.0
0
LINE
8
0
6
CONTINUOUS
10
-4.194152
20
7.426219
30
0.0
11
-3.288313
21
7.426219
31
0.0
0
LINE
8
0
6
CONTINUOUS
10
-1.088314
20
7.426219
30
0.0
11
0.189842
21
7.426219
31
0.0
0
LINE
8
0
6
CONTINUOUS
10
1.515408
20
5.516660
30
0.0
11
1.676750
21
5.374113
31
0.0
0
LINE
8
0
6
CONTINUOUS
10
-4.226127
20
3.637038
30
0.0
11
-4.226127
21
3.678704
31
0.0
0
LINE
8
0
6
CONTINUOUS
10
-4.226127
20
3.678704
30
0.0
11
-4.226127
21
3.791578
31
0.0
0
LINE
8
0
6
CONTINUOUS
10
-4.226127
20
6.606638
30
0.0
11
-4.226127
21
6.890383
31
0.0
0
LINE
8
0
6
CONTINUOUS
10
-4.226127
20
4.211024
30
0.0
11
-4.226127
21
4.501482
31
0.0
0
LINE
8
0
6
CONTINUOUS
10
-4.226127
20
5.558606
30
0.0
11
-4.226127
21
5.927704
31
0.0
0
LINE
8
0
6
CONTINUOUS
10
-4.226127
20
7.292328
30
0.0
11
-4.226127
21
7.395078
31
0.0
0
LINE
8
0
6
CONTINUOUS
10
-4.226127
20
6.890383
30
0.0
11
-4.226127
21
7.121913
31
0.0
0
LINE
8
0
6
CONTINUOUS
10
-4.226127
20
3.791578
30
0.0
11
-4.226127
21
3.971321
31
0.0
0
LINE
8
0
6
CONTINUOUS
10
-4.226127
20
6.281582
30
0.0
11
-4.226127
21
6.606638
31
0.0
0
LINE
8
0
6
CONTINUOUS
10
-4.226127
20
7.121913
30
0.0
11
-4.226127
21
7.292328
31
0.0
0
LINE
8
0
6
CONTINUOUS
10
-4.226127
20
4.501482
30
0.0
11
-4.226127
21
4.831523
31
0.0
0
LINE
8
0
6
CONTINUOUS
10
-4.226127
20
7.395078
30
0.0
11
-4.226127
21
7.426219
31
0.0
0
LINE
8
0
6
CONTINUOUS
10
-4.226127
20
5.188471
30
0.0
11
-4.226127
21
5.558606
31
0.0
0
LINE
8
0
6
CONTINUOUS
10
-4.226127
20
3.971321
30
0.0
11
-4.226127
21
4.211024
31
0.0
0
LINE
8
0
6
CONTINUOUS
10
-4.226127
20
5.927704
30
0.0
11
-4.226127
21
6.281582
31
0.0
0
LINE
8
0
6
CONTINUOUS
10
-4.226127
20
4.831523
30
0.0
11
-4.226127
21
5.188471
31
0.0
0
LINE
8
0
6
CONTINUOUS
10
-1.139770
20
11.750804
30
0.0
11
-1.088314
21
11.750804
31
0.0
0
LINE
8
0
6
CONTINUOUS
10
-3.236857
20
11.750804
30
0.0
11
-3.288313
21
11.750804
31
0.0
0
LINE
8
0
6
CONTINUOUS
10
-1.128314
20
5.268261
30
0.0
11
-1.088314
21
5.548276
31
0.0
0
LINE
8
0
6
CONTINUOUS
10
-1.238313
20
4.998249
30
0.0
11
-1.128314
21
5.268261
31
0.0
0
LINE
8
0
6
CONTINUOUS
10
-1.408313
20
4.768236
30
0.0
11
-1.238313
21
4.998249
31
0.0
0
LINE
8
0
6
CONTINUOUS
10
-1.638314
20
4.598228
30
0.0
11
-1.408313
21
4.768236
31
0.0
0
LINE
8
0
6
CONTINUOUS
10
-1.908314
20
4.488223
30
0.0
11
-1.638314
21
4.598228
31
0.0
0
LINE
8
0
6
CONTINUOUS
10
-2.188313
20
4.448220
30
0.0
11
-1.908314
21
4.488223
31
0.0
0
LINE
8
0
6
CONTINUOUS
10
-3.288313
20
5.548276
30
0.0
11
-3.248313
21
5.268261
31
0.0
0
LINE
8
0
6
CONTINUOUS
10
-3.248313
20
5.268261
30
0.0
11
-3.138313
21
4.998249
31
0.0
0
LINE
8
0
6
CONTINUOUS
10
-3.138313
20
4.998249
30
0.0
11
-2.968313
21
4.768236
31
0.0
0
LINE
8
0
6
CONTINUOUS
10
-2.968313
20
4.768236
30
0.0
11
-2.738313
21
4.598228
31
0.0
0
LINE
8
0
6
CONTINUOUS
10
-2.738313
20
4.598228
30
0.0
11
-2.468313
21
4.488223
31
0.0
0
LINE
8
0
6
CONTINUOUS
10
-2.468313
20
4.488223
30
0.0
11
-2.188313
21
4.448220
31
0.0
0
LINE
8
0
6
CONTINUOUS
10
-1.088314
20
11.700802
30
0.0
11
-1.088314
21
11.750804
31
0.0
0
LINE
8
0
6
CONTINUOUS
10
-3.236857
20
11.750804
30
0.0
11
-1.139770
21
11.750804
31
0.0
0
LINE
8
0
6
CONTINUOUS
10
-1.139770
20
11.750804
30
0.0
11
-1.088314
21
11.750804
31
0.0
0
LINE
8
0
6
CONTINUOUS
10
-1.139770
20
11.750804
30
0.0
11
-3.236857
21
11.750804
31
0.0
0
LINE
8
0
6
CONTINUOUS
10
-3.236857
20
11.750804
30
0.0
11
-3.288313
21
11.750804
31
0.0
0
LINE
8
0
6
CONTINUOUS
10
-3.288313
20
11.750804
30
0.0
11
-3.226862
21
11.750804
31
0.0
0
LINE
8
0
6
CONTINUOUS
10
-1.088314
20
5.548276
30
0.0
11
-1.088314
21
11.700802
31
0.0
0
LINE
8
0
6
CONTINUOUS
10
-1.138313
20
11.750804
30
0.0
11
-3.226862
21
11.750804
31
0.0
0
LINE
8
0
6
CONTINUOUS
10
-1.138313
20
11.750804
30
0.0
11
-1.088314
21
11.750804
31
0.0
0
LINE
8
0
6
CONTINUOUS
10
-3.238313
20
11.750804
30
0.0
11
-1.138313
21
11.750804
31
0.0
0
LINE
8
0
6
CONTINUOUS
10
-1.138313
20
11.750804
30
0.0
11
-1.088314
21
11.750804
31
0.0
0
LINE
8
0
6
CONTINUOUS
10
-3.288313
20
11.700802
30
0.0
11
-3.288313
21
5.548276
31
0.0
0
LINE
8
0
6
CONTINUOUS
10
-3.288313
20
11.750804
30
0.0
11
-3.288313
21
11.700802
31
0.0
0
LINE
8
0
6
CONTINUOUS
10
-3.238313
20
11.750804
30
0.0
11
-3.288313
21
11.750804
31
0.0
0
LINE
8
0
6
CONTINUOUS
10
1.762735
20
7.503296
30
0.0
11
1.762735
21
7.426219
31
0.0
0
LINE
8
0
6
CONTINUOUS
10
0.162735
20
7.503295
30
0.0
11
0.162735
21
7.426219
31
0.0
0
LINE
8
0
6
CONTINUOUS
10
1.762735
20
8.171982
30
0.0
11
1.762735
21
7.503296
31
0.0
0
LINE
8
0
6
CONTINUOUS
10
0.162735
20
8.171980
30
0.0
11
0.162735
21
7.503295
31
0.0
0
LINE
8
0
6
CONTINUOUS
10
1.762735
20
8.665915
30
0.0
11
1.762735
21
8.171982
31
0.0
0
LINE
8
0
6
CONTINUOUS
10
0.162735
20
8.665913
30
0.0
11
0.162735
21
8.171980
31
0.0
0
LINE
8
0
6
CONTINUOUS
10
1.762735
20
9.010672
30
0.0
11
1.762735
21
8.665915
31
0.0
0
LINE
8
0
6
CONTINUOUS
10
0.162735
20
9.010670
30
0.0
11
0.162735
21
8.665913
31
0.0
0
LINE
8
0
6
CONTINUOUS
10
1.762735
20
9.231827
30
0.0
11
1.762735
21
9.010672
31
0.0
0
LINE
8
0
6
CONTINUOUS
10
0.162735
20
9.231825
30
0.0
11
0.162735
21
9.010670
31
0.0
0
LINE
8
0
6
CONTINUOUS
10
1.762735
20
9.354956
30
0.0
11
1.762735
21
9.231827
31
0.0
0
LINE
8
0
6
CONTINUOUS
10
0.162735
20
9.354954
30
0.0
11
0.162735
21
9.231825
31
0.0
0
LINE
8
0
6
CONTINUOUS
10
1.762735
20
9.405633
30
0.0
11
1.762735
21
9.354956
31
0.0
0
LINE
8
0
6
CONTINUOUS
10
0.162735
20
9.405631
30
0.0
11
0.162735
21
9.354954
31
0.0
0
LINE
8
0
6
CONTINUOUS
10
0.962734
20
10.209428
30
0.0
11
1.362735
21
10.102249
31
0.0
0
LINE
8
0
6
CONTINUOUS
10
1.362735
20
10.102249
30
0.0
11
1.655555
21
9.809431
31
0.0
0
LINE
8
0
6
CONTINUOUS
10
1.655555
20
9.809431
30
0.0
11
1.762735
21
9.409433
31
0.0
0
LINE
8
0
6
CONTINUOUS
10
0.162735
20
9.409431
30
0.0
11
0.269914
21
9.809429
31
0.0
0
LINE
8
0
6
CONTINUOUS
10
0.269914
20
9.809429
30
0.0
11
0.562733
21
10.102248
31
0.0
0
LINE
8
0
6
CONTINUOUS
10
0.562733
20
10.102248
30
0.0
11
0.962734
21
10.209428
31
0.0
0
LINE
8
0
6
CONTINUOUS
10
6.290654
20
-7.967790
30
0.0
11
6.293221
21
-7.954646
31
0.0
0
LINE
8
0
6
CONTINUOUS
10
5.915974
20
-9.063725
30
0.0
11
6.290654
21
-7.967790
31
0.0
0
LINE
8
0
6
CONTINUOUS
10
1.023369
20
-11.750804
30
0.0
11
2.344111
21
-11.610499
31
0.0
0
LINE
8
0
6
CONTINUOUS
10
2.344111
20
-11.610499
30
0.0
11
3.619065
21
-11.192683
31
0.0
0
LINE
8
0
6
CONTINUOUS
10
3.619065
20
-11.192683
30
0.0
11
4.740882
21
-10.498479
31
0.0
0
LINE
8
0
6
CONTINUOUS
10
5.882123
20
-9.130395
30
0.0
11
5.915974
21
-9.063725
31
0.0
0
LINE
8
0
6
CONTINUOUS
10
5.392030
20
-9.859546
30
0.0
11
5.882123
21
-9.130395
31
0.0
0
LINE
8
0
6
CONTINUOUS
10
4.740882
20
-10.498479
30
0.0
11
5.392030
21
-9.859546
31
0.0
0
LINE
8
0
6
CONTINUOUS
10
4.924592
20
-3.456496
30
0.0
11
4.415597
21
-3.055076
31
0.0
0
LINE
8
0
6
CONTINUOUS
10
2.024463
20
4.883042
30
0.0
11
1.726842
21
5.047181
31
0.0
0
LINE
8
0
6
CONTINUOUS
10
2.297343
20
4.624755
30
0.0
11
2.264948
21
4.662303
31
0.0
0
LINE
8
0
6
CONTINUOUS
10
2.538221
20
2.040598
30
0.0
11
2.377069
21
3.767072
31
0.0
0
LINE
8
0
6
CONTINUOUS
10
2.523812
20
2.101172
30
0.0
11
2.647310
21
0.758137
31
0.0
0
LINE
8
0
6
CONTINUOUS
10
2.663654
20
0.683503
30
0.0
11
2.538221
21
2.040598
31
0.0
0
LINE
8
0
6
CONTINUOUS
10
2.647310
20
0.758137
30
0.0
11
2.747236
21
-0.337978
31
0.0
0
LINE
8
0
6
CONTINUOUS
10
2.764840
20
-0.426278
30
0.0
11
2.663654
21
0.683503
31
0.0
0
LINE
8
0
6
CONTINUOUS
10
2.854503
20
-1.088621
30
0.0
11
2.764840
21
-0.426278
31
0.0
0
LINE
8
0
6
CONTINUOUS
10
2.844509
20
-1.062973
30
0.0
11
2.747236
21
-0.337978
31
0.0
0
LINE
8
0
6
CONTINUOUS
10
3.457969
20
-2.195406
30
0.0
11
3.063966
21
-1.626159
31
0.0
0
LINE
8
0
6
CONTINUOUS
10
6.313576
20
-7.065637
30
0.0
11
5.933099
21
-8.143178
31
0.0
0
LINE
8
0
6
CONTINUOUS
10
6.402346
20
-7.124326
30
0.0
11
6.410655
21
-5.953227
31
0.0
0
LINE
8
0
6
CONTINUOUS
10
6.362799
20
-7.598563
30
0.0
11
6.399023
21
-7.164195
31
0.0
0
LINE
8
0
6
CONTINUOUS
10
6.410655
20
-5.953227
30
0.0
11
6.047246
21
-4.835862
31
0.0
0
LINE
8
0
6
CONTINUOUS
10
5.333071
20
-3.857620
30
0.0
11
6.044528
21
-4.835072
31
0.0
0
LINE
8
0
6
CONTINUOUS
10
6.047246
20
-4.835862
30
0.0
11
5.336254
21
-3.843702
31
0.0
0
LINE
8
0
6
CONTINUOUS
10
5.336254
20
-3.843702
30
0.0
11
4.924592
21
-3.456496
31
0.0
0
LINE
8
0
6
CONTINUOUS
10
4.924592
20
-3.456496
30
0.0
11
5.333071
21
-3.857620
31
0.0
0
LINE
8
0
6
CONTINUOUS
10
2.329614
20
-10.670066
30
0.0
11
1.023367
21
-10.789226
31
0.0
0
LINE
8
0
6
CONTINUOUS
10
3.566519
20
-10.285228
30
0.0
11
2.329614
21
-10.670066
31
0.0
0
LINE
8
0
6
CONTINUOUS
10
4.689752
20
-9.611237
30
0.0
11
3.566519
21
-10.285228
31
0.0
0
LINE
8
0
6
CONTINUOUS
10
5.933099
20
-8.143178
30
0.0
11
5.416817
21
-8.901938
31
0.0
0
LINE
8
0
6
CONTINUOUS
10
5.416817
20
-8.901938
30
0.0
11
4.689752
21
-9.611237
31
0.0
0
LINE
8
0
6
CONTINUOUS
10
3.903035
20
-2.622428
30
0.0
11
3.457969
21
-2.195406
31
0.0
0
LINE
8
0
6
CONTINUOUS
10
4.415597
20
-3.055076
30
0.0
11
3.903035
21
-2.622428
31
0.0
0
LINE
8
0
6
CONTINUOUS
10
3.063966
20
-1.626159
30
0.0
11
2.844509
21
-1.062973
31
0.0
0
LINE
8
0
6
CONTINUOUS
10
6.313576
20
-7.065637
30
0.0
11
6.367679
21
-5.927880
31
0.0
0
LINE
8
0
6
CONTINUOUS
10
6.367679
20
-5.927880
30
0.0
11
6.044528
21
-4.835072
31
0.0
0
LINE
8
0
6
CONTINUOUS
10
6.399023
20
-7.164195
30
0.0
11
6.402346
21
-7.124326
31
0.0
0
LINE
8
0
6
CONTINUOUS
10
6.293221
20
-7.954646
30
0.0
11
6.362799
21
-7.598563
31
0.0
0
LINE
8
0
6
CONTINUOUS
10
1.726842
20
5.047181
30
0.0
11
1.382908
21
5.150251
31
0.0
0
LINE
8
0
6
CONTINUOUS
10
1.382908
20
5.150251
30
0.0
11
1.023404
21
5.185265
31
0.0
0
LINE
8
0
6
CONTINUOUS
10
2.264948
20
4.662303
30
0.0
11
2.024463
21
4.883042
31
0.0
0
LINE
8
0
6
CONTINUOUS
10
2.377069
20
3.767072
30
0.0
11
2.303965
21
4.556711
31
0.0
0
LINE
8
0
6
CONTINUOUS
10
-4.243905
20
-7.967784
30
0.0
11
-3.869230
21
-9.063722
31
0.0
0
LINE
8
0
6
CONTINUOUS
10
-4.246472
20
-7.954642
30
0.0
11
-4.243905
21
-7.967784
31
0.0
0
LINE
8
0
6
CONTINUOUS
10
-0.297372
20
-11.610497
30
0.0
11
1.023369
21
-11.750804
31
0.0
0
LINE
8
0
6
CONTINUOUS
10
-1.572324
20
-11.192681
30
0.0
11
-0.297372
21
-11.610497
31
0.0
0
LINE
8
0
6
CONTINUOUS
10
-2.694139
20
-10.498475
30
0.0
11
-1.572324
21
-11.192681
31
0.0
0
LINE
8
0
6
CONTINUOUS
10
-3.835377
20
-9.130391
30
0.0
11
-3.345286
21
-9.859542
31
0.0
0
LINE
8
0
6
CONTINUOUS
10
-3.869230
20
-9.063722
30
0.0
11
-3.835377
21
-9.130391
31
0.0
0
LINE
8
0
6
CONTINUOUS
10
-3.345286
20
-9.859542
30
0.0
11
-2.694139
21
-10.498475
31
0.0
0
LINE
8
0
6
CONTINUOUS
10
-2.368837
20
-3.055073
30
0.0
11
-2.877834
21
-3.456492
31
0.0
0
LINE
8
0
6
CONTINUOUS
10
0.319965
20
5.047182
30
0.0
11
0.022344
21
4.883043
31
0.0
0
LINE
8
0
6
CONTINUOUS
10
-0.218140
20
4.662304
30
0.0
11
-0.250536
21
4.624756
31
0.0
0
LINE
8
0
6
CONTINUOUS
10
-0.330268
20
3.767074
30
0.0
11
-0.491431
21
2.040600
31
0.0
0
LINE
8
0
6
CONTINUOUS
10
-0.491431
20
2.040600
30
0.0
11
-0.616873
21
0.683505
31
0.0
0
LINE
8
0
6
CONTINUOUS
10
-0.600528
20
0.758139
30
0.0
11
-0.477023
21
2.101173
31
0.0
0
LINE
8
0
6
CONTINUOUS
10
-0.616873
20
0.683505
30
0.0
11
-0.718066
21
-0.426276
31
0.0
0
LINE
8
0
6
CONTINUOUS
10
-0.700462
20
-0.337976
30
0.0
11
-0.600528
21
0.758139
31
0.0
0
LINE
8
0
6
CONTINUOUS
10
-0.718066
20
-0.426276
30
0.0
11
-0.807733
21
-1.088618
31
0.0
0
LINE
8
0
6
CONTINUOUS
10
-0.700462
20
-0.337976
30
0.0
11
-0.797739
21
-1.062972
31
0.0
0
LINE
8
0
6
CONTINUOUS
10
-1.017200
20
-1.626157
30
0.0
11
-1.411205
21
-2.195403
31
0.0
0
LINE
8
0
6
CONTINUOUS
10
-3.886357
20
-8.143174
30
0.0
11
-4.266831
21
-7.065631
31
0.0
0
LINE
8
0
6
CONTINUOUS
10
-4.363905
20
-5.953221
30
0.0
11
-4.355600
21
-7.124322
31
0.0
0
LINE
8
0
6
CONTINUOUS
10
-4.352275
20
-7.164189
30
0.0
11
-4.316051
21
-7.598559
31
0.0
0
LINE
8
0
6
CONTINUOUS
10
-4.000491
20
-4.835856
30
0.0
11
-4.363905
21
-5.953221
31
0.0
0
LINE
8
0
6
CONTINUOUS
10
-3.289497
20
-3.843698
30
0.0
11
-4.000491
21
-4.835856
31
0.0
0
LINE
8
0
6
CONTINUOUS
10
-3.997774
20
-4.835067
30
0.0
11
-3.286314
21
-3.857616
31
0.0
0
LINE
8
0
6
CONTINUOUS
10
-2.877834
20
-3.456492
30
0.0
11
-3.289497
21
-3.843698
31
0.0
0
LINE
8
0
6
CONTINUOUS
10
-3.286314
20
-3.857616
30
0.0
11
-2.877834
21
-3.456492
31
0.0
0
LINE
8
0
6
CONTINUOUS
10
1.023367
20
-10.789226
30
0.0
11
-0.282878
21
-10.670064
31
0.0
0
LINE
8
0
6
CONTINUOUS
10
-0.282878
20
-10.670064
30
0.0
11
-1.519782
21
-10.285226
31
0.0
0
LINE
8
0
6
CONTINUOUS
10
-1.519782
20
-10.285226
30
0.0
11
-2.643015
21
-9.611236
31
0.0
0
LINE
8
0
6
CONTINUOUS
10
-3.370078
20
-8.901935
30
0.0
11
-3.886357
21
-8.143174
31
0.0
0
LINE
8
0
6
CONTINUOUS
10
-2.643015
20
-9.611236
30
0.0
11
-3.368819
21
-8.903163
31
0.0
0
LINE
8
0
6
CONTINUOUS
10
-1.411205
20
-2.195403
30
0.0
11
-1.856273
21
-2.622425
31
0.0
0
LINE
8
0
6
CONTINUOUS
10
-1.856273
20
-2.622425
30
0.0
11
-2.368837
21
-3.055073
31
0.0
0
LINE
8
0
6
CONTINUOUS
10
-0.797739
20
-1.062972
30
0.0
11
-1.017200
21
-1.626157
31
0.0
0
LINE
8
0
6
CONTINUOUS
10
-4.320929
20
-5.927875
30
0.0
11
-4.266831
21
-7.065631
31
0.0
0
LINE
8
0
6
CONTINUOUS
10
-3.997774
20
-4.835067
30
0.0
11
-4.320929
21
-5.927875
31
0.0
0
LINE
8
0
6
CONTINUOUS
10
-4.355600
20
-7.124322
30
0.0
11
-4.352275
21
-7.164189
31
0.0
0
LINE
8
0
6
CONTINUOUS
10
-4.316051
20
-7.598559
30
0.0
11
-4.246472
21
-7.954642
31
0.0
0
LINE
8
0
6
CONTINUOUS
10
0.663899
20
5.150252
30
0.0
11
0.319965
21
5.047182
31
0.0
0
LINE
8
0
6
CONTINUOUS
10
1.023404
20
5.185265
30
0.0
11
0.663899
21
5.150252
31
0.0
0
LINE
8
0
6
CONTINUOUS
10
0.022344
20
4.883043
30
0.0
11
-0.218140
21
4.662304
31
0.0
0
LINE
8
0
6
CONTINUOUS
10
-0.257158
20
4.556712
30
0.0
11
-0.330268
21
3.767074
31
0.0
0
LINE
8
0
6
CONTINUOUS
10
2.148896
20
4.768825
30
0.0
11
2.050460
21
5.679133
31
0.0
0
LINE
8
0
6
CONTINUOUS
10
1.911484
20
6.143828
30
0.0
11
1.854666
21
6.207884
31
0.0
0
LINE
8
0
6
CONTINUOUS
10
2.050460
20
5.679133
30
0.0
11
2.047801
21
5.703735
31
0.0
0
LINE
8
0
6
CONTINUOUS
10
2.047801
20
5.703735
30
0.0
11
2.013131
21
5.931544
31
0.0
0
LINE
8
0
6
CONTINUOUS
10
2.013131
20
5.931544
30
0.0
11
1.911484
21
6.143828
31
0.0
0
LINE
8
0
6
CONTINUOUS
10
0.188485
20
5.188471
30
0.0
11
0.221160
21
5.230705
31
0.0
0
LINE
8
0
6
CONTINUOUS
10
0.036430
20
4.996413
30
0.0
11
0.188485
21
5.188471
31
0.0
0
LINE
8
0
6
CONTINUOUS
10
1.030320
20
5.574814
30
0.0
11
1.047152
21
5.572496
31
0.0
0
LINE
8
0
6
CONTINUOUS
10
1.325217
20
5.528370
30
0.0
11
1.359207
21
5.512694
31
0.0
0
LINE
8
0
6
CONTINUOUS
10
0.670864
20
5.502756
30
0.0
11
0.735527
21
5.531804
31
0.0
0
LINE
8
0
6
CONTINUOUS
10
0.548717
20
5.465348
30
0.0
11
0.670864
21
5.502756
31
0.0
0
LINE
8
0
6
CONTINUOUS
10
1.605036
20
5.399721
30
0.0
11
1.668744
21
5.347511
31
0.0
0
LINE
8
0
6
CONTINUOUS
10
0.014764
20
4.946360
30
0.0
11
0.036430
21
4.996413
31
0.0
0
LINE
8
0
6
CONTINUOUS
10
-0.018872
20
4.885612
30
0.0
11
0.014764
21
4.946360
31
0.0
0
ENDSEC
0
EOF
