999
unknown String-ID: 20550
0
SECTION
2
HEADER
9
$ACADVER
1
AC1009
9
$DWGCODEPAGE
3
unknown String-ID: 20561
0
ENDSEC
0
SECTION
2
TABLES
0
TABLE
2
LAYER
70
1
0
LAYER
2
0
70
0
62
7
6
CONTINUOUS
0
ENDTAB
0
ENDSEC
0
SECTION
2
ENTITIES
0
LINE
8
0
6
CONTINUOUS
10
-6.339391
20
20.534146
30
0.0
11
-6.410655
21
20.534146
31
0.0
0
LINE
8
0
6
CONTINUOUS
10
-6.339391
20
20.534146
30
0.0
11
-4.313317
21
20.534146
31
0.0
0
LINE
8
0
6
CONTINUOUS
10
-4.763990
20
24.308621
30
0.0
11
-4.313312
21
24.308621
31
0.0
0
LINE
8
0
6
CONTINUOUS
10
-4.313317
20
20.534146
30
0.0
11
-4.284254
21
20.534146
31
0.0
0
LINE
8
0
6
CONTINUOUS
10
-4.313312
20
24.308621
30
0.0
11
-4.284251
21
24.308621
31
0.0
0
LINE
8
0
6
CONTINUOUS
10
-6.410655
20
20.534146
30
0.0
11
-6.410655
21
20.598454
31
0.0
0
LINE
8
0
6
CONTINUOUS
10
-6.410655
20
20.598454
30
0.0
11
-6.410655
21
20.786992
31
0.0
0
LINE
8
0
6
CONTINUOUS
10
-6.410655
20
20.786992
30
0.0
11
-6.410655
21
21.086911
31
0.0
0
LINE
8
0
6
CONTINUOUS
10
-6.410655
20
21.086911
30
0.0
11
-6.410654
21
21.477765
31
0.0
0
LINE
8
0
6
CONTINUOUS
10
-6.410654
20
21.477765
30
0.0
11
-6.410653
21
21.932927
31
0.0
0
LINE
8
0
6
CONTINUOUS
10
-6.410653
20
21.932927
30
0.0
11
-6.410653
21
22.421384
31
0.0
0
LINE
8
0
6
CONTINUOUS
10
-6.410653
20
22.421384
30
0.0
11
-6.410653
21
22.909833
31
0.0
0
LINE
8
0
6
CONTINUOUS
10
-6.410653
20
22.909833
30
0.0
11
-6.410652
21
23.365002
31
0.0
0
LINE
8
0
6
CONTINUOUS
10
-6.410652
20
23.365002
30
0.0
11
-6.410652
21
23.755856
31
0.0
0
LINE
8
0
6
CONTINUOUS
10
-6.410652
20
23.755856
30
0.0
11
-6.410652
21
24.055775
31
0.0
0
LINE
8
0
6
CONTINUOUS
10
-6.410652
20
24.055775
30
0.0
11
-6.410652
21
24.244313
31
0.0
0
LINE
8
0
6
CONTINUOUS
10
-6.410652
20
24.244313
30
0.0
11
-6.410652
21
24.308621
31
0.0
0
LINE
8
0
6
CONTINUOUS
10
-6.319262
20
25.138142
30
0.0
11
-6.330582
21
25.138768
31
0.0
0
LINE
8
0
6
CONTINUOUS
10
-6.319262
20
25.138142
30
0.0
11
-4.775231
21
25.139516
31
0.0
0
LINE
8
0
6
CONTINUOUS
10
-4.763990
20
23.951772
30
0.0
11
-4.763990
21
24.740117
31
0.0
0
LINE
8
0
6
CONTINUOUS
10
-4.775231
20
25.139516
30
0.0
11
-4.763990
21
25.139539
31
0.0
0
LINE
8
0
6
CONTINUOUS
10
-6.345698
20
24.740063
30
0.0
11
-6.341007
21
24.816663
31
0.0
0
LINE
8
0
6
CONTINUOUS
10
-6.341007
20
24.816663
30
0.0
11
-6.336781
21
24.894841
31
0.0
0
LINE
8
0
6
CONTINUOUS
10
-6.336781
20
24.894841
30
0.0
11
-6.333307
21
24.969258
31
0.0
0
LINE
8
0
6
CONTINUOUS
10
-6.333307
20
24.969258
30
0.0
11
-6.330821
21
25.034863
31
0.0
0
LINE
8
0
6
CONTINUOUS
10
-6.330821
20
25.034863
30
0.0
11
-6.329492
21
25.087170
31
0.0
0
LINE
8
0
6
CONTINUOUS
10
-6.329492
20
25.087170
30
0.0
11
-6.329410
21
25.122601
31
0.0
0
LINE
8
0
6
CONTINUOUS
10
-6.329410
20
25.122601
30
0.0
11
-6.330582
21
25.138768
31
0.0
0
LINE
8
0
6
CONTINUOUS
10
-6.330582
20
25.138768
30
0.0
11
-6.332928
21
25.134549
31
0.0
0
LINE
8
0
6
CONTINUOUS
10
-6.332928
20
25.134549
30
0.0
11
-6.336286
21
25.110257
31
0.0
0
LINE
8
0
6
CONTINUOUS
10
-6.336286
20
25.110257
30
0.0
11
-6.340432
21
25.067517
31
0.0
0
LINE
8
0
6
CONTINUOUS
10
-6.340432
20
25.067517
30
0.0
11
-6.345078
21
25.009267
31
0.0
0
LINE
8
0
6
CONTINUOUS
10
-6.345078
20
25.009267
30
0.0
11
-6.349911
21
24.939465
31
0.0
0
LINE
8
0
6
CONTINUOUS
10
-6.404604
20
24.152425
30
0.0
11
-6.349911
21
24.939465
31
0.0
0
LINE
8
0
6
CONTINUOUS
10
-4.763990
20
24.816830
30
0.0
11
-4.763990
21
24.740117
31
0.0
0
LINE
8
0
6
CONTINUOUS
10
-4.763990
20
24.895131
30
0.0
11
-4.763990
21
24.816830
31
0.0
0
LINE
8
0
6
CONTINUOUS
10
-4.763990
20
24.969670
30
0.0
11
-4.763990
21
24.895131
31
0.0
0
LINE
8
0
6
CONTINUOUS
10
-4.763990
20
25.035390
30
0.0
11
-4.763990
21
24.969670
31
0.0
0
LINE
8
0
6
CONTINUOUS
10
-4.763990
20
25.087796
30
0.0
11
-4.763990
21
25.035390
31
0.0
0
LINE
8
0
6
CONTINUOUS
10
-4.763990
20
25.123318
30
0.0
11
-4.763990
21
25.087796
31
0.0
0
LINE
8
0
6
CONTINUOUS
10
-4.763990
20
25.139539
30
0.0
11
-4.763990
21
25.123318
31
0.0
0
LINE
8
0
6
CONTINUOUS
10
-6.387670
20
24.136097
30
0.0
11
-6.345698
21
24.740063
31
0.0
0
LINE
8
0
6
CONTINUOUS
10
-4.284254
20
20.598454
30
0.0
11
-4.284254
21
20.534146
31
0.0
0
LINE
8
0
6
CONTINUOUS
10
-4.284254
20
20.786992
30
0.0
11
-4.284254
21
20.598454
31
0.0
0
LINE
8
0
6
CONTINUOUS
10
-4.284254
20
21.086911
30
0.0
11
-4.284254
21
20.786992
31
0.0
0
LINE
8
0
6
CONTINUOUS
10
-4.284254
20
21.477765
30
0.0
11
-4.284254
21
21.086911
31
0.0
0
LINE
8
0
6
CONTINUOUS
10
-4.284253
20
21.932927
30
0.0
11
-4.284254
21
21.477765
31
0.0
0
LINE
8
0
6
CONTINUOUS
10
-4.284253
20
22.421391
30
0.0
11
-4.284253
21
21.932927
31
0.0
0
LINE
8
0
6
CONTINUOUS
10
-4.284253
20
22.909840
30
0.0
11
-4.284253
21
22.421391
31
0.0
0
LINE
8
0
6
CONTINUOUS
10
-4.284251
20
23.365002
30
0.0
11
-4.284253
21
22.909840
31
0.0
0
LINE
8
0
6
CONTINUOUS
10
-4.284251
20
23.755864
30
0.0
11
-4.284251
21
23.365002
31
0.0
0
LINE
8
0
6
CONTINUOUS
10
-4.284251
20
24.055783
30
0.0
11
-4.284251
21
23.755864
31
0.0
0
LINE
8
0
6
CONTINUOUS
10
-4.284251
20
24.244313
30
0.0
11
-4.284251
21
24.055783
31
0.0
0
LINE
8
0
6
CONTINUOUS
10
-4.284251
20
24.308621
30
0.0
11
-4.284251
21
24.244313
31
0.0
0
LINE
8
0
6
CONTINUOUS
10
-0.147614
20
23.972325
30
0.0
11
-0.114847
21
23.902115
31
0.0
0
LINE
8
0
6
CONTINUOUS
10
1.854667
20
22.448422
30
0.0
11
1.854666
21
22.817502
31
0.0
0
LINE
8
0
6
CONTINUOUS
10
1.854667
20
22.078297
30
0.0
11
1.854667
21
22.448422
31
0.0
0
LINE
8
0
6
CONTINUOUS
10
-0.068277
20
23.780125
30
0.0
11
-0.176319
21
24.011639
31
0.0
0
LINE
8
0
6
CONTINUOUS
10
1.854667
20
21.391331
30
0.0
11
1.854667
21
21.721364
31
0.0
0
LINE
8
0
6
CONTINUOUS
10
1.854667
20
21.721364
30
0.0
11
1.854667
21
22.078297
31
0.0
0
LINE
8
0
6
CONTINUOUS
10
1.854666
20
22.817502
30
0.0
11
1.854666
21
23.171361
31
0.0
0
LINE
8
0
6
CONTINUOUS
10
1.854666
20
23.171361
30
0.0
11
1.854667
21
23.380711
31
0.0
0
LINE
8
0
6
CONTINUOUS
10
-4.194152
20
24.315900
30
0.0
11
-4.226127
21
24.315900
31
0.0
0
LINE
8
0
6
CONTINUOUS
10
-0.176319
20
24.011639
30
0.0
11
-0.126630
21
24.090004
31
0.0
0
LINE
8
0
6
CONTINUOUS
10
-0.140797
20
24.315900
30
0.0
11
-1.088313
21
24.315900
31
0.0
0
LINE
8
0
6
CONTINUOUS
10
-3.288313
20
24.315900
30
0.0
11
-4.194152
21
24.315900
31
0.0
0
LINE
8
0
6
CONTINUOUS
10
-4.194152
20
20.526860
30
0.0
11
-4.226127
21
20.526860
31
0.0
0
LINE
8
0
6
CONTINUOUS
10
1.498461
20
20.526868
30
0.0
11
1.036895
21
20.459538
31
0.0
0
LINE
8
0
6
CONTINUOUS
10
0.545991
20
20.460271
30
0.0
11
1.036901
21
20.457860
31
0.0
0
LINE
8
0
6
CONTINUOUS
10
0.545991
20
20.460271
30
0.0
11
0.189842
21
20.526860
31
0.0
0
LINE
8
0
6
CONTINUOUS
10
1.854667
20
20.568539
30
0.0
11
1.854667
21
20.681424
31
0.0
0
LINE
8
0
6
CONTINUOUS
10
1.854667
20
20.681424
30
0.0
11
1.854667
21
20.861172
31
0.0
0
LINE
8
0
6
CONTINUOUS
10
1.854667
20
21.100873
30
0.0
11
1.854667
21
21.391331
31
0.0
0
LINE
8
0
6
CONTINUOUS
10
1.854667
20
20.861172
30
0.0
11
1.854667
21
21.100873
31
0.0
0
LINE
8
0
6
CONTINUOUS
10
1.854667
20
20.526868
30
0.0
11
1.854667
21
20.568539
31
0.0
0
LINE
8
0
6
CONTINUOUS
10
1.854667
20
20.526868
30
0.0
11
1.814610
21
20.526868
31
0.0
0
LINE
8
0
6
CONTINUOUS
10
0.189842
20
20.526860
30
0.0
11
-1.088313
21
20.526860
31
0.0
0
LINE
8
0
6
CONTINUOUS
10
-3.288313
20
20.526860
30
0.0
11
-4.194152
21
20.526860
31
0.0
0
LINE
8
0
6
CONTINUOUS
10
1.814610
20
20.526868
30
0.0
11
1.498461
21
20.526868
31
0.0
0
LINE
8
0
6
CONTINUOUS
10
-4.226127
20
22.448422
30
0.0
11
-4.226127
21
22.817502
31
0.0
0
LINE
8
0
6
CONTINUOUS
10
-4.226127
20
22.817502
30
0.0
11
-4.226127
21
23.171361
31
0.0
0
LINE
8
0
6
CONTINUOUS
10
-4.226127
20
21.391331
30
0.0
11
-4.226127
21
21.721364
31
0.0
0
LINE
8
0
6
CONTINUOUS
10
-4.226127
20
22.078297
30
0.0
11
-4.226127
21
22.448422
31
0.0
0
LINE
8
0
6
CONTINUOUS
10
-4.226127
20
23.780125
30
0.0
11
-4.226127
21
24.011639
31
0.0
0
LINE
8
0
6
CONTINUOUS
10
-4.226127
20
20.568547
30
0.0
11
-4.226127
21
20.681424
31
0.0
0
LINE
8
0
6
CONTINUOUS
10
-4.226127
20
23.171361
30
0.0
11
-4.226127
21
23.496404
31
0.0
0
LINE
8
0
6
CONTINUOUS
10
-4.226127
20
21.721364
30
0.0
11
-4.226127
21
22.078297
31
0.0
0
LINE
8
0
6
CONTINUOUS
10
-4.226127
20
21.100880
30
0.0
11
-4.226127
21
21.391331
31
0.0
0
LINE
8
0
6
CONTINUOUS
10
-4.226127
20
24.011639
30
0.0
11
-4.226127
21
24.182034
31
0.0
0
LINE
8
0
6
CONTINUOUS
10
-4.226127
20
24.284772
30
0.0
11
-4.226127
21
24.315900
31
0.0
0
LINE
8
0
6
CONTINUOUS
10
-4.226127
20
23.496404
30
0.0
11
-4.226127
21
23.780125
31
0.0
0
LINE
8
0
6
CONTINUOUS
10
-4.226127
20
20.526860
30
0.0
11
-4.226127
21
20.568547
31
0.0
0
LINE
8
0
6
CONTINUOUS
10
-4.226127
20
20.861172
30
0.0
11
-4.226127
21
21.100880
31
0.0
0
LINE
8
0
6
CONTINUOUS
10
-4.226127
20
20.681424
30
0.0
11
-4.226127
21
20.861172
31
0.0
0
LINE
8
0
6
CONTINUOUS
10
-4.226127
20
24.182034
30
0.0
11
-4.226127
21
24.284772
31
0.0
0
LINE
8
0
6
CONTINUOUS
10
-2.468313
20
-42.749995
30
0.0
11
-2.188313
21
-42.749995
31
0.0
0
LINE
8
0
6
CONTINUOUS
10
-3.288313
20
-47.894584
30
0.0
11
-3.288313
21
-47.950000
31
0.0
0
LINE
8
0
6
CONTINUOUS
10
-3.248313
20
-47.950000
30
0.0
11
-3.288313
21
-47.950000
31
0.0
0
LINE
8
0
6
CONTINUOUS
10
-3.138313
20
-47.950000
30
0.0
11
-3.248313
21
-47.950000
31
0.0
0
LINE
8
0
6
CONTINUOUS
10
-2.968313
20
-47.950000
30
0.0
11
-3.138313
21
-47.950000
31
0.0
0
LINE
8
0
6
CONTINUOUS
10
-2.738313
20
-47.950000
30
0.0
11
-2.968313
21
-47.950000
31
0.0
0
LINE
8
0
6
CONTINUOUS
10
-2.468313
20
-47.950000
30
0.0
11
-2.738313
21
-47.950000
31
0.0
0
LINE
8
0
6
CONTINUOUS
10
-2.188313
20
-47.950000
30
0.0
11
-2.468313
21
-47.950000
31
0.0
0
LINE
8
0
6
CONTINUOUS
10
-2.468313
20
-42.749995
30
0.0
11
-2.738313
21
-42.749995
31
0.0
0
LINE
8
0
6
CONTINUOUS
10
-2.738313
20
-42.749995
30
0.0
11
-2.968313
21
-42.749995
31
0.0
0
LINE
8
0
6
CONTINUOUS
10
-3.138313
20
-42.749995
30
0.0
11
-3.248313
21
-42.749995
31
0.0
0
LINE
8
0
6
CONTINUOUS
10
-1.088314
20
-47.950000
30
0.0
11
-1.128314
21
-47.950000
31
0.0
0
LINE
8
0
6
CONTINUOUS
10
-1.128314
20
-47.950000
30
0.0
11
-1.238313
21
-47.950000
31
0.0
0
LINE
8
0
6
CONTINUOUS
10
-1.238313
20
-47.950000
30
0.0
11
-1.408313
21
-47.950000
31
0.0
0
LINE
8
0
6
CONTINUOUS
10
-1.408313
20
-47.950000
30
0.0
11
-1.638314
21
-47.950000
31
0.0
0
LINE
8
0
6
CONTINUOUS
10
-1.638314
20
-47.950000
30
0.0
11
-1.908314
21
-47.950000
31
0.0
0
LINE
8
0
6
CONTINUOUS
10
-1.908314
20
-47.950000
30
0.0
11
-2.188313
21
-47.950000
31
0.0
0
LINE
8
0
6
CONTINUOUS
10
-3.248313
20
-42.749995
30
0.0
11
-3.288313
21
-42.749995
31
0.0
0
LINE
8
0
6
CONTINUOUS
10
-3.288313
20
-42.805412
30
0.0
11
-3.288313
21
-42.749995
31
0.0
0
LINE
8
0
6
CONTINUOUS
10
-3.288313
20
-47.894584
30
0.0
11
-3.288313
21
-42.805412
31
0.0
0
LINE
8
0
6
CONTINUOUS
10
-2.968313
20
-42.749995
30
0.0
11
-3.138313
21
-42.749995
31
0.0
0
LINE
8
0
6
CONTINUOUS
10
-1.128314
20
47.950002
30
0.0
11
-1.088314
21
47.950002
31
0.0
0
LINE
8
0
6
CONTINUOUS
10
-1.238313
20
47.950002
30
0.0
11
-1.128314
21
47.950002
31
0.0
0
LINE
8
0
6
CONTINUOUS
10
-1.408313
20
47.950002
30
0.0
11
-1.238313
21
47.950002
31
0.0
0
LINE
8
0
6
CONTINUOUS
10
-1.638314
20
47.950002
30
0.0
11
-1.408313
21
47.950002
31
0.0
0
LINE
8
0
6
CONTINUOUS
10
-1.908314
20
47.950002
30
0.0
11
-1.638314
21
47.950002
31
0.0
0
LINE
8
0
6
CONTINUOUS
10
-2.188313
20
47.950002
30
0.0
11
-1.908314
21
47.950002
31
0.0
0
LINE
8
0
6
CONTINUOUS
10
-3.288313
20
47.950002
30
0.0
11
-3.288313
21
47.879170
31
0.0
0
LINE
8
0
6
CONTINUOUS
10
-3.288313
20
47.950002
30
0.0
11
-3.248313
21
47.950002
31
0.0
0
LINE
8
0
6
CONTINUOUS
10
-3.248313
20
47.950002
30
0.0
11
-3.138313
21
47.950002
31
0.0
0
LINE
8
0
6
CONTINUOUS
10
-3.138313
20
47.950002
30
0.0
11
-2.968313
21
47.950002
31
0.0
0
LINE
8
0
6
CONTINUOUS
10
-2.968313
20
47.950002
30
0.0
11
-2.738313
21
47.950002
31
0.0
0
LINE
8
0
6
CONTINUOUS
10
-2.738313
20
47.950002
30
0.0
11
-2.468313
21
47.950002
31
0.0
0
LINE
8
0
6
CONTINUOUS
10
-2.468313
20
47.950002
30
0.0
11
-2.188313
21
47.950002
31
0.0
0
LINE
8
0
6
CONTINUOUS
10
-3.288313
20
42.699994
30
0.0
11
-3.248313
21
42.699994
31
0.0
0
LINE
8
0
6
CONTINUOUS
10
-3.248313
20
42.699994
30
0.0
11
-3.138313
21
42.699994
31
0.0
0
LINE
8
0
6
CONTINUOUS
10
-3.138313
20
42.699994
30
0.0
11
-2.968313
21
42.699994
31
0.0
0
LINE
8
0
6
CONTINUOUS
10
-2.968313
20
42.699994
30
0.0
11
-2.738313
21
42.699994
31
0.0
0
LINE
8
0
6
CONTINUOUS
10
-2.738313
20
42.699994
30
0.0
11
-2.468313
21
42.699994
31
0.0
0
LINE
8
0
6
CONTINUOUS
10
-2.468313
20
42.699994
30
0.0
11
-2.188313
21
42.699994
31
0.0
0
LINE
8
0
6
CONTINUOUS
10
-1.128314
20
42.699994
30
0.0
11
-1.088314
21
42.699994
31
0.0
0
LINE
8
0
6
CONTINUOUS
10
-1.238313
20
42.699994
30
0.0
11
-1.128314
21
42.699994
31
0.0
0
LINE
8
0
6
CONTINUOUS
10
-1.408313
20
42.699994
30
0.0
11
-1.238313
21
42.699994
31
0.0
0
LINE
8
0
6
CONTINUOUS
10
-1.638314
20
42.699994
30
0.0
11
-1.408313
21
42.699994
31
0.0
0
LINE
8
0
6
CONTINUOUS
10
-1.908314
20
42.699994
30
0.0
11
-1.638314
21
42.699994
31
0.0
0
LINE
8
0
6
CONTINUOUS
10
-2.188313
20
42.699994
30
0.0
11
-1.908314
21
42.699994
31
0.0
0
LINE
8
0
6
CONTINUOUS
10
-1.088314
20
-42.700000
30
0.0
11
-1.138313
21
-42.749995
31
0.0
0
LINE
8
0
6
CONTINUOUS
10
-1.088314
20
42.699994
30
0.0
11
-1.088314
21
42.668683
31
0.0
0
LINE
8
0
6
CONTINUOUS
10
-1.138313
20
42.749997
30
0.0
11
-1.088314
21
42.699994
31
0.0
0
LINE
8
0
6
CONTINUOUS
10
-1.638314
20
42.699994
30
0.0
11
-1.908314
21
42.699994
31
0.0
0
LINE
8
0
6
CONTINUOUS
10
-3.238313
20
-42.749995
30
0.0
11
-3.288313
21
-42.700000
31
0.0
0
LINE
8
0
6
CONTINUOUS
10
-3.288313
20
42.668683
30
0.0
11
-3.288313
21
42.699994
31
0.0
0
LINE
8
0
6
CONTINUOUS
10
-2.468313
20
42.699994
30
0.0
11
-2.188313
21
42.699994
31
0.0
0
LINE
8
0
6
CONTINUOUS
10
-3.288313
20
42.699994
30
0.0
11
-3.238313
21
42.749997
31
0.0
0
LINE
8
0
6
CONTINUOUS
10
-1.128314
20
42.749997
30
0.0
11
-1.088314
21
42.749997
31
0.0
0
LINE
8
0
6
CONTINUOUS
10
-1.238313
20
42.749997
30
0.0
11
-1.128314
21
42.749997
31
0.0
0
LINE
8
0
6
CONTINUOUS
10
-1.408313
20
42.749997
30
0.0
11
-1.238313
21
42.749997
31
0.0
0
LINE
8
0
6
CONTINUOUS
10
-1.638314
20
42.749997
30
0.0
11
-1.408313
21
42.749997
31
0.0
0
LINE
8
0
6
CONTINUOUS
10
-1.908314
20
42.749997
30
0.0
11
-1.638314
21
42.749997
31
0.0
0
LINE
8
0
6
CONTINUOUS
10
-2.188313
20
42.749997
30
0.0
11
-1.908314
21
42.749997
31
0.0
0
LINE
8
0
6
CONTINUOUS
10
-3.288313
20
42.820767
30
0.0
11
-3.288313
21
42.749997
31
0.0
0
LINE
8
0
6
CONTINUOUS
10
-3.288313
20
42.749997
30
0.0
11
-3.248313
21
42.749997
31
0.0
0
LINE
8
0
6
CONTINUOUS
10
-3.288313
20
47.879170
30
0.0
11
-3.288313
21
42.820767
31
0.0
0
LINE
8
0
6
CONTINUOUS
10
-3.248313
20
42.749997
30
0.0
11
-3.138313
21
42.749997
31
0.0
0
LINE
8
0
6
CONTINUOUS
10
-3.138313
20
42.749997
30
0.0
11
-2.968313
21
42.749997
31
0.0
0
LINE
8
0
6
CONTINUOUS
10
-2.968313
20
42.749997
30
0.0
11
-2.738313
21
42.749997
31
0.0
0
LINE
8
0
6
CONTINUOUS
10
-2.738313
20
42.749997
30
0.0
11
-2.468313
21
42.749997
31
0.0
0
LINE
8
0
6
CONTINUOUS
10
-2.468313
20
42.749997
30
0.0
11
-2.188313
21
42.749997
31
0.0
0
LINE
8
0
6
CONTINUOUS
10
-1.088314
20
47.950002
30
0.0
11
-1.088314
21
47.879170
31
0.0
0
LINE
8
0
6
CONTINUOUS
10
-1.088314
20
42.820767
30
0.0
11
-1.088314
21
42.749997
31
0.0
0
LINE
8
0
6
CONTINUOUS
10
-1.088314
20
47.879170
30
0.0
11
-1.088314
21
42.820767
31
0.0
0
LINE
8
0
6
CONTINUOUS
10
-1.088314
20
42.668683
30
0.0
11
-1.088314
21
42.614499
31
0.0
0
LINE
8
0
6
CONTINUOUS
10
-3.288313
20
42.614499
30
0.0
11
-3.288313
21
42.668683
31
0.0
0
LINE
8
0
6
CONTINUOUS
10
-1.088314
20
-42.749995
30
0.0
11
-1.128314
21
-42.749995
31
0.0
0
LINE
8
0
6
CONTINUOUS
10
-1.128314
20
-42.749995
30
0.0
11
-1.238313
21
-42.749995
31
0.0
0
LINE
8
0
6
CONTINUOUS
10
-1.238313
20
-42.749995
30
0.0
11
-1.408313
21
-42.749995
31
0.0
0
LINE
8
0
6
CONTINUOUS
10
-1.408313
20
-42.749995
30
0.0
11
-1.638314
21
-42.749995
31
0.0
0
LINE
8
0
6
CONTINUOUS
10
-1.638314
20
-42.749995
30
0.0
11
-1.908314
21
-42.749995
31
0.0
0
LINE
8
0
6
CONTINUOUS
10
-1.908314
20
-42.749995
30
0.0
11
-2.188313
21
-42.749995
31
0.0
0
LINE
8
0
6
CONTINUOUS
10
-1.088314
20
-42.749995
30
0.0
11
-1.088314
21
-42.805412
31
0.0
0
LINE
8
0
6
CONTINUOUS
10
-1.088314
20
-42.805412
30
0.0
11
-1.088314
21
-47.894584
31
0.0
0
LINE
8
0
6
CONTINUOUS
10
-1.088314
20
-47.894584
30
0.0
11
-1.088314
21
-47.950000
31
0.0
0
LINE
8
0
6
CONTINUOUS
10
-1.408313
20
-42.700000
30
0.0
11
-1.238313
21
-42.700000
31
0.0
0
LINE
8
0
6
CONTINUOUS
10
-1.128314
20
-42.700000
30
0.0
11
-1.088314
21
-42.700000
31
0.0
0
LINE
8
0
6
CONTINUOUS
10
-2.738313
20
-42.700000
30
0.0
11
-2.468313
21
-42.700000
31
0.0
0
LINE
8
0
6
CONTINUOUS
10
-3.288313
20
-42.700000
30
0.0
11
-3.248313
21
-42.700000
31
0.0
0
LINE
8
0
6
CONTINUOUS
10
-3.288313
20
-42.678569
30
0.0
11
-3.288313
21
-42.700000
31
0.0
0
LINE
8
0
6
CONTINUOUS
10
-2.188313
20
-42.700000
30
0.0
11
-1.908314
21
-42.700000
31
0.0
0
LINE
8
0
6
CONTINUOUS
10
-1.088314
20
-42.678569
30
0.0
11
-1.088314
21
-42.700000
31
0.0
0
LINE
8
0
6
CONTINUOUS
10
-1.908314
20
-42.700000
30
0.0
11
-1.638314
21
-42.700000
31
0.0
0
LINE
8
0
6
CONTINUOUS
10
-1.238313
20
-42.700000
30
0.0
11
-1.128314
21
-42.700000
31
0.0
0
LINE
8
0
6
CONTINUOUS
10
-2.468313
20
-42.700000
30
0.0
11
-2.188313
21
-42.700000
31
0.0
0
LINE
8
0
6
CONTINUOUS
10
-2.968313
20
-42.700000
30
0.0
11
-2.738313
21
-42.700000
31
0.0
0
LINE
8
0
6
CONTINUOUS
10
-3.248313
20
-42.700000
30
0.0
11
-3.138313
21
-42.700000
31
0.0
0
LINE
8
0
6
CONTINUOUS
10
-3.138313
20
-42.700000
30
0.0
11
-2.968313
21
-42.700000
31
0.0
0
LINE
8
0
6
CONTINUOUS
10
-1.638314
20
-42.700000
30
0.0
11
-1.408313
21
-42.700000
31
0.0
0
LINE
8
0
6
CONTINUOUS
10
-1.088314
20
42.614499
30
0.0
11
-1.088314
21
42.180282
31
0.0
0
LINE
8
0
6
CONTINUOUS
10
-1.088314
20
34.709124
30
0.0
11
-1.088314
21
24.315900
31
0.0
0
LINE
8
0
6
CONTINUOUS
10
-1.088314
20
20.526860
30
0.0
11
-1.088314
21
-42.620574
31
0.0
0
LINE
8
0
6
CONTINUOUS
10
-3.288313
20
-42.620574
30
0.0
11
-3.288313
21
20.526860
31
0.0
0
LINE
8
0
6
CONTINUOUS
10
-3.288313
20
24.315900
30
0.0
11
-3.288313
21
36.247627
31
0.0
0
LINE
8
0
6
CONTINUOUS
10
-3.288313
20
41.190894
30
0.0
11
-3.288313
21
42.614499
31
0.0
0
LINE
8
0
6
CONTINUOUS
10
-1.088314
20
-42.620574
30
0.0
11
-1.088314
21
-42.678569
31
0.0
0
LINE
8
0
6
CONTINUOUS
10
-3.288313
20
-42.678569
30
0.0
11
-3.288313
21
-42.620574
31
0.0
0
LINE
8
0
6
CONTINUOUS
10
1.762735
20
20.382291
30
0.0
11
1.762735
21
20.526868
31
0.0
0
LINE
8
0
6
CONTINUOUS
10
0.162735
20
20.382291
30
0.0
11
0.162735
21
20.526860
31
0.0
0
LINE
8
0
6
CONTINUOUS
10
1.762735
20
18.521535
30
0.0
11
1.762735
21
20.382291
31
0.0
0
LINE
8
0
6
CONTINUOUS
10
0.162735
20
18.521535
30
0.0
11
0.162735
21
20.382291
31
0.0
0
LINE
8
0
6
CONTINUOUS
10
1.762735
20
16.789044
30
0.0
11
1.762735
21
18.521535
31
0.0
0
LINE
8
0
6
CONTINUOUS
10
0.162735
20
16.789044
30
0.0
11
0.162735
21
18.521535
31
0.0
0
LINE
8
0
6
CONTINUOUS
10
1.762735
20
15.143079
30
0.0
11
1.762735
21
16.789044
31
0.0
0
LINE
8
0
6
CONTINUOUS
10
0.162735
20
15.143079
30
0.0
11
0.162735
21
16.789044
31
0.0
0
LINE
8
0
6
CONTINUOUS
10
1.762735
20
13.541909
30
0.0
11
1.762735
21
15.143079
31
0.0
0
LINE
8
0
6
CONTINUOUS
10
0.162735
20
13.541909
30
0.0
11
0.162735
21
15.143079
31
0.0
0
LINE
8
0
6
CONTINUOUS
10
1.762735
20
11.943791
30
0.0
11
1.762735
21
13.541909
31
0.0
0
LINE
8
0
6
CONTINUOUS
10
0.162735
20
11.943791
30
0.0
11
0.162735
21
13.541909
31
0.0
0
LINE
8
0
6
CONTINUOUS
10
1.762735
20
10.306989
30
0.0
11
1.762735
21
11.943791
31
0.0
0
LINE
8
0
6
CONTINUOUS
10
0.162735
20
10.306989
30
0.0
11
0.162735
21
11.943791
31
0.0
0
LINE
8
0
6
CONTINUOUS
10
1.762735
20
8.589761
30
0.0
11
1.762735
21
10.306989
31
0.0
0
LINE
8
0
6
CONTINUOUS
10
0.162735
20
8.589761
30
0.0
11
0.162735
21
10.306989
31
0.0
0
LINE
8
0
6
CONTINUOUS
10
1.762735
20
6.750375
30
0.0
11
1.762735
21
8.589761
31
0.0
0
LINE
8
0
6
CONTINUOUS
10
0.162735
20
6.750375
30
0.0
11
0.162735
21
8.589761
31
0.0
0
LINE
8
0
6
CONTINUOUS
10
1.762735
20
4.747086
30
0.0
11
1.762735
21
6.750375
31
0.0
0
LINE
8
0
6
CONTINUOUS
10
0.162735
20
4.747086
30
0.0
11
0.162735
21
6.750375
31
0.0
0
LINE
8
0
6
CONTINUOUS
10
1.762735
20
0.073575
30
0.0
11
1.762735
21
4.747086
31
0.0
0
LINE
8
0
6
CONTINUOUS
10
0.162735
20
0.073575
30
0.0
11
0.162735
21
4.747086
31
0.0
0
LINE
8
0
6
CONTINUOUS
10
1.762735
20
-5.561443
30
0.0
11
1.762735
21
0.073575
31
0.0
0
LINE
8
0
6
CONTINUOUS
10
0.162735
20
-5.561443
30
0.0
11
0.162735
21
0.073575
31
0.0
0
LINE
8
0
6
CONTINUOUS
10
1.762735
20
-11.847076
30
0.0
11
1.762735
21
-5.561443
31
0.0
0
LINE
8
0
6
CONTINUOUS
10
0.162735
20
-11.847079
30
0.0
11
0.162735
21
-5.561443
31
0.0
0
LINE
8
0
6
CONTINUOUS
10
1.762735
20
-18.472455
30
0.0
11
1.762735
21
-11.847076
31
0.0
0
LINE
8
0
6
CONTINUOUS
10
0.162735
20
-18.472455
30
0.0
11
0.162735
21
-11.847079
31
0.0
0
LINE
8
0
6
CONTINUOUS
10
1.762735
20
-25.126693
30
0.0
11
1.762735
21
-18.472455
31
0.0
0
LINE
8
0
6
CONTINUOUS
10
0.162735
20
-25.126695
30
0.0
11
0.162735
21
-18.472455
31
0.0
0
LINE
8
0
6
CONTINUOUS
10
1.762735
20
-31.498912
30
0.0
11
1.762735
21
-25.126693
31
0.0
0
LINE
8
0
6
CONTINUOUS
10
0.162735
20
-31.498914
30
0.0
11
0.162735
21
-25.126695
31
0.0
0
LINE
8
0
6
CONTINUOUS
10
1.762735
20
-37.278232
30
0.0
11
1.762735
21
-31.498912
31
0.0
0
LINE
8
0
6
CONTINUOUS
10
0.162735
20
-37.278234
30
0.0
11
0.162735
21
-31.498914
31
0.0
0
LINE
8
0
6
CONTINUOUS
10
1.762735
20
-42.153773
30
0.0
11
1.762735
21
-37.278232
31
0.0
0
LINE
8
0
6
CONTINUOUS
10
0.162735
20
-42.153775
30
0.0
11
0.162735
21
-37.278234
31
0.0
0
LINE
8
0
6
CONTINUOUS
10
1.762735
20
-45.814655
30
0.0
11
1.762735
21
-42.153773
31
0.0
0
LINE
8
0
6
CONTINUOUS
10
0.162735
20
-45.814656
30
0.0
11
0.162735
21
-42.153775
31
0.0
0
LINE
8
0
6
CONTINUOUS
10
1.762735
20
-47.950000
30
0.0
11
1.762735
21
-45.814655
31
0.0
0
LINE
8
0
6
CONTINUOUS
10
1.655556
20
-47.950000
30
0.0
11
1.762735
21
-47.950000
31
0.0
0
LINE
8
0
6
CONTINUOUS
10
1.362735
20
-47.950001
30
0.0
11
1.655556
21
-47.950000
31
0.0
0
LINE
8
0
6
CONTINUOUS
10
0.962736
20
-47.950001
30
0.0
11
1.362735
21
-47.950001
31
0.0
0
LINE
8
0
6
CONTINUOUS
10
0.562736
20
-47.950001
30
0.0
11
0.962736
21
-47.950001
31
0.0
0
LINE
8
0
6
CONTINUOUS
10
0.269915
20
-47.950002
30
0.0
11
0.562736
21
-47.950001
31
0.0
0
LINE
8
0
6
CONTINUOUS
10
0.162735
20
-47.950002
30
0.0
11
0.269915
21
-47.950002
31
0.0
0
LINE
8
0
6
CONTINUOUS
10
0.162735
20
-47.950002
30
0.0
11
0.162735
21
-45.814656
31
0.0
0
LINE
8
0
6
CONTINUOUS
10
-3.597349
20
37.059619
30
0.0
11
-3.559776
21
37.179988
31
0.0
0
LINE
8
0
6
CONTINUOUS
10
-3.597349
20
37.227083
30
0.0
11
-3.597349
21
37.059619
31
0.0
0
LINE
8
0
6
CONTINUOUS
10
-3.197678
20
37.142512
30
0.0
11
-3.197678
21
37.214991
31
0.0
0
LINE
8
0
6
CONTINUOUS
10
-3.359941
20
37.221438
30
0.0
11
-3.197678
21
37.142512
31
0.0
0
LINE
8
0
6
CONTINUOUS
10
-3.360850
20
38.674281
30
0.0
11
-3.171248
21
38.729404
31
0.0
0
LINE
8
0
6
CONTINUOUS
10
-3.171248
20
38.729404
30
0.0
11
-2.993529
21
38.662417
31
0.0
0
LINE
8
0
6
CONTINUOUS
10
-3.171248
20
38.853910
30
0.0
11
-3.171248
21
38.729404
31
0.0
0
LINE
8
0
6
CONTINUOUS
10
-3.372736
20
38.552165
30
0.0
11
-3.360850
21
38.674281
31
0.0
0
LINE
8
0
6
CONTINUOUS
10
-3.372736
20
38.696797
30
0.0
11
-3.372736
21
38.552165
31
0.0
0
LINE
8
0
6
CONTINUOUS
10
-2.671838
20
39.336795
30
0.0
11
-2.466323
21
39.367702
31
0.0
0
LINE
8
0
6
CONTINUOUS
10
-2.728120
20
39.218867
30
0.0
11
-2.671838
21
39.336795
31
0.0
0
LINE
8
0
6
CONTINUOUS
10
-2.728120
20
39.350680
30
0.0
11
-2.728120
21
39.218867
31
0.0
0
LINE
8
0
6
CONTINUOUS
10
1.046886
20
40.345508
30
0.0
11
1.190683
21
40.255504
31
0.0
0
LINE
8
0
6
CONTINUOUS
10
0.776115
20
40.202106
30
0.0
11
0.839600
21
40.318812
31
0.0
0
LINE
8
0
6
CONTINUOUS
10
0.776115
20
40.291384
30
0.0
11
0.776115
21
40.202106
31
0.0
0
LINE
8
0
6
CONTINUOUS
10
-1.660383
20
39.869525
30
0.0
11
-1.448175
21
39.874812
31
0.0
0
LINE
8
0
6
CONTINUOUS
10
-1.448175
20
39.874812
30
0.0
11
-1.334119
21
39.771632
31
0.0
0
LINE
8
0
6
CONTINUOUS
10
-1.448175
20
40.001073
30
0.0
11
-1.448175
21
39.874812
31
0.0
0
LINE
8
0
6
CONTINUOUS
10
-0.360071
20
40.186221
30
0.0
11
-0.150689
21
40.165652
31
0.0
0
LINE
8
0
6
CONTINUOUS
10
-0.150689
20
40.165652
30
0.0
11
-0.076928
21
40.050960
31
0.0
0
LINE
8
0
6
CONTINUOUS
10
-0.150689
20
40.292475
30
0.0
11
-0.150689
21
40.165652
31
0.0
0
LINE
8
0
6
CONTINUOUS
10
-0.495693
20
40.092090
30
0.0
11
-0.360071
21
40.186221
31
0.0
0
LINE
8
0
6
CONTINUOUS
10
-0.495693
20
40.213092
30
0.0
11
-0.495693
21
40.092090
31
0.0
0
LINE
8
0
6
CONTINUOUS
10
-3.681722
20
37.907199
30
0.0
11
-3.519459
21
37.986117
31
0.0
0
LINE
8
0
6
CONTINUOUS
10
-3.681722
20
38.063869
30
0.0
11
-3.681722
21
37.907199
31
0.0
0
LINE
8
0
6
CONTINUOUS
10
-3.319624
20
37.944667
30
0.0
11
-3.282051
21
37.824298
31
0.0
0
LINE
8
0
6
CONTINUOUS
10
-0.282783
20
37.263431
30
0.0
11
-0.093180
21
37.318561
31
0.0
0
LINE
8
0
6
CONTINUOUS
10
-0.093180
20
37.318561
30
0.0
11
0.084540
21
37.251575
31
0.0
0
LINE
8
0
6
CONTINUOUS
10
-0.093180
20
37.432809
30
0.0
11
-0.093180
21
37.318561
31
0.0
0
LINE
8
0
6
CONTINUOUS
10
-0.294668
20
37.141322
30
0.0
11
-0.282783
21
37.263431
31
0.0
0
LINE
8
0
6
CONTINUOUS
10
-0.294668
20
37.263591
30
0.0
11
-0.294668
21
37.141322
31
0.0
0
LINE
8
0
6
CONTINUOUS
10
-0.898396
20
37.492313
30
0.0
11
-0.708794
21
37.547443
31
0.0
0
LINE
8
0
6
CONTINUOUS
10
-0.910282
20
37.370204
30
0.0
11
-0.898396
21
37.492313
31
0.0
0
LINE
8
0
6
CONTINUOUS
10
-0.910282
20
37.507347
30
0.0
11
-0.910282
21
37.370204
31
0.0
0
LINE
8
0
6
CONTINUOUS
10
-1.514009
20
37.756549
30
0.0
11
-1.324407
21
37.811679
31
0.0
0
LINE
8
0
6
CONTINUOUS
10
-1.525895
20
37.634441
30
0.0
11
-1.514009
21
37.756549
31
0.0
0
LINE
8
0
6
CONTINUOUS
10
-1.525895
20
37.760413
30
0.0
11
-1.525895
21
37.634441
31
0.0
0
LINE
8
0
6
CONTINUOUS
10
-2.129623
20
38.042712
30
0.0
11
-1.940021
21
38.097835
31
0.0
0
LINE
8
0
6
CONTINUOUS
10
-1.940021
20
38.097835
30
0.0
11
-1.762302
21
38.030856
31
0.0
0
LINE
8
0
6
CONTINUOUS
10
-1.940021
20
38.218561
30
0.0
11
-1.940021
21
38.097835
31
0.0
0
LINE
8
0
6
CONTINUOUS
10
-2.129623
20
38.042712
30
0.0
11
-2.129623
21
38.257823
31
0.0
0
LINE
8
0
6
CONTINUOUS
10
-2.141509
20
37.920596
30
0.0
11
-2.129623
21
38.042712
31
0.0
0
LINE
8
0
6
CONTINUOUS
10
-2.141509
20
38.062245
30
0.0
11
-2.141509
21
37.920596
31
0.0
0
LINE
8
0
6
CONTINUOUS
10
-2.745237
20
38.335605
30
0.0
11
-2.555634
21
38.390727
31
0.0
0
LINE
8
0
6
CONTINUOUS
10
-2.555634
20
38.390727
30
0.0
11
-2.377914
21
38.323756
31
0.0
0
LINE
8
0
6
CONTINUOUS
10
-2.555634
20
38.507320
30
0.0
11
-2.555634
21
38.390727
31
0.0
0
LINE
8
0
6
CONTINUOUS
10
-2.757123
20
38.213496
30
0.0
11
-2.745237
21
38.335605
31
0.0
0
LINE
8
0
6
CONTINUOUS
10
-2.757123
20
38.347645
30
0.0
11
-2.757123
21
38.213496
31
0.0
0
LINE
8
0
6
CONTINUOUS
10
0.308186
20
37.816691
30
0.0
11
0.513701
21
37.847591
31
0.0
0
LINE
8
0
6
CONTINUOUS
10
0.251904
20
37.698756
30
0.0
11
0.308186
21
37.816691
31
0.0
0
LINE
8
0
6
CONTINUOUS
10
0.251904
20
37.811453
30
0.0
11
0.251904
21
37.698756
31
0.0
0
LINE
8
0
6
CONTINUOUS
10
-0.082304
20
38.114841
30
0.0
11
0.066931
21
38.027812
31
0.0
0
LINE
8
0
6
CONTINUOUS
10
-0.883823
20
38.374293
30
0.0
11
-0.678308
21
38.405192
31
0.0
0
LINE
8
0
6
CONTINUOUS
10
-0.678308
20
38.405192
30
0.0
11
-0.529074
21
38.318172
31
0.0
0
LINE
8
0
6
CONTINUOUS
10
-0.678308
20
38.523104
30
0.0
11
-0.678308
21
38.405192
31
0.0
0
LINE
8
0
6
CONTINUOUS
10
-0.940105
20
38.256366
30
0.0
11
-0.883823
21
38.374293
31
0.0
0
LINE
8
0
6
CONTINUOUS
10
-0.940105
20
38.383641
30
0.0
11
-0.940105
21
38.256366
31
0.0
0
LINE
8
0
6
CONTINUOUS
10
-1.479829
20
38.667003
30
0.0
11
-1.274314
21
38.697902
31
0.0
0
LINE
8
0
6
CONTINUOUS
10
-1.274314
20
38.697902
30
0.0
11
-1.125079
21
38.610873
31
0.0
0
LINE
8
0
6
CONTINUOUS
10
-1.274314
20
38.824532
30
0.0
11
-1.274314
21
38.697902
31
0.0
0
LINE
8
0
6
CONTINUOUS
10
-1.479829
20
38.667003
30
0.0
11
-1.479829
21
38.825056
31
0.0
0
LINE
8
0
6
CONTINUOUS
10
-1.536110
20
38.549075
30
0.0
11
-1.479829
21
38.667003
31
0.0
0
LINE
8
0
6
CONTINUOUS
10
-1.536110
20
38.667198
30
0.0
11
-1.536110
21
38.549075
31
0.0
0
LINE
8
0
6
CONTINUOUS
10
-2.075834
20
39.011302
30
0.0
11
-1.870319
21
39.042209
31
0.0
0
LINE
8
0
6
CONTINUOUS
10
-1.870319
20
39.042209
30
0.0
11
-1.721084
21
38.955180
31
0.0
0
LINE
8
0
6
CONTINUOUS
10
-1.870319
20
39.162240
30
0.0
11
-1.870319
21
39.042209
31
0.0
0
LINE
8
0
6
CONTINUOUS
10
-2.132115
20
38.893375
30
0.0
11
-2.075834
21
39.011302
31
0.0
0
LINE
8
0
6
CONTINUOUS
10
-2.132115
20
39.029803
30
0.0
11
-2.132115
21
38.893375
31
0.0
0
LINE
8
0
6
CONTINUOUS
10
0.877724
20
38.350490
30
0.0
11
1.089932
21
38.355777
31
0.0
0
LINE
8
0
6
CONTINUOUS
10
1.203988
20
38.252605
30
0.0
11
1.203988
21
38.467420
31
0.0
0
LINE
8
0
6
CONTINUOUS
10
1.089932
20
38.355777
30
0.0
11
1.203988
21
38.252605
31
0.0
0
LINE
8
0
6
CONTINUOUS
10
1.089932
20
38.480996
30
0.0
11
1.089932
21
38.355777
31
0.0
0
LINE
8
0
6
CONTINUOUS
10
0.877724
20
38.350490
30
0.0
11
0.877724
21
38.471233
31
0.0
0
LINE
8
0
6
CONTINUOUS
10
0.779570
20
38.242030
30
0.0
11
0.832322
21
38.300321
31
0.0
0
LINE
8
0
6
CONTINUOUS
10
0.832322
20
38.300321
30
0.0
11
0.877724
21
38.350490
31
0.0
0
LINE
8
0
6
CONTINUOUS
10
-0.391329
20
39.058444
30
0.0
11
-0.179122
21
39.063731
31
0.0
0
LINE
8
0
6
CONTINUOUS
10
-0.179122
20
39.063731
30
0.0
11
-0.065066
21
38.960559
31
0.0
0
LINE
8
0
6
CONTINUOUS
10
-0.179122
20
39.189027
30
0.0
11
-0.179122
21
39.063731
31
0.0
0
LINE
8
0
6
CONTINUOUS
10
-0.391329
20
39.058444
30
0.0
11
-0.391329
21
39.275222
31
0.0
0
LINE
8
0
6
CONTINUOUS
10
-0.489482
20
38.949985
30
0.0
11
-0.391329
21
39.058444
31
0.0
0
LINE
8
0
6
CONTINUOUS
10
-0.489482
20
39.065504
30
0.0
11
-0.489482
21
38.949985
31
0.0
0
LINE
8
0
6
CONTINUOUS
10
-1.025856
20
39.466800
30
0.0
11
-0.813649
21
39.472087
31
0.0
0
LINE
8
0
6
CONTINUOUS
10
-0.813649
20
39.472087
30
0.0
11
-0.699592
21
39.368915
31
0.0
0
LINE
8
0
6
CONTINUOUS
10
-0.813649
20
39.589463
30
0.0
11
-0.813649
21
39.472087
31
0.0
0
LINE
8
0
6
CONTINUOUS
10
-1.124009
20
39.358333
30
0.0
11
-1.025856
21
39.466800
31
0.0
0
LINE
8
0
6
CONTINUOUS
10
-1.124009
20
39.474036
30
0.0
11
-1.124009
21
39.358333
31
0.0
0
LINE
8
0
6
CONTINUOUS
10
0.918019
20
39.308002
30
0.0
11
1.127401
21
39.287440
31
0.0
0
LINE
8
0
6
CONTINUOUS
10
1.127401
20
39.287440
30
0.0
11
1.201162
21
39.172748
31
0.0
0
LINE
8
0
6
CONTINUOUS
10
1.127401
20
39.415602
30
0.0
11
1.127401
21
39.287440
31
0.0
0
LINE
8
0
6
CONTINUOUS
10
0.918019
20
39.308002
30
0.0
11
0.918019
21
39.445250
31
0.0
0
LINE
8
0
6
CONTINUOUS
10
0.782397
20
39.213878
30
0.0
11
0.918019
21
39.308002
31
0.0
0
LINE
8
0
6
CONTINUOUS
10
0.782397
20
39.328098
30
0.0
11
0.782397
21
39.213878
31
0.0
0
LINE
8
0
6
CONTINUOUS
10
-0.726763
20
36.733470
30
0.0
11
-0.564501
21
36.812396
31
0.0
0
LINE
8
0
6
CONTINUOUS
10
-0.726763
20
36.874184
30
0.0
11
-0.726763
21
36.733470
31
0.0
0
LINE
8
0
6
CONTINUOUS
10
-0.364666
20
36.770946
30
0.0
11
-0.327092
21
36.650577
31
0.0
0
LINE
8
0
6
CONTINUOUS
10
-1.465502
20
36.991756
30
0.0
11
-1.303240
21
37.070674
31
0.0
0
LINE
8
0
6
CONTINUOUS
10
-1.465502
20
37.128426
30
0.0
11
-1.465502
21
36.991756
31
0.0
0
LINE
8
0
6
CONTINUOUS
10
-1.303240
20
37.070674
30
0.0
11
-1.103405
21
37.029224
31
0.0
0
LINE
8
0
6
CONTINUOUS
10
-1.303240
20
37.188938
30
0.0
11
-1.303240
21
37.070674
31
0.0
0
LINE
8
0
6
CONTINUOUS
10
-2.204242
20
37.263255
30
0.0
11
-2.041980
21
37.342166
31
0.0
0
LINE
8
0
6
CONTINUOUS
10
-2.204242
20
37.409968
30
0.0
11
-2.204242
21
37.263255
31
0.0
0
LINE
8
0
6
CONTINUOUS
10
-2.041980
20
37.342166
30
0.0
11
-1.842145
21
37.300723
31
0.0
0
LINE
8
0
6
CONTINUOUS
10
-2.041980
20
37.460339
30
0.0
11
-2.041980
21
37.342166
31
0.0
0
LINE
8
0
6
CONTINUOUS
10
-1.842145
20
37.300723
30
0.0
11
-1.804572
21
37.180347
31
0.0
0
LINE
8
0
6
CONTINUOUS
10
-1.842145
20
37.388962
30
0.0
11
-1.842145
21
37.300723
31
0.0
0
LINE
8
0
6
CONTINUOUS
10
-2.942981
20
37.548740
30
0.0
11
-2.780720
21
37.627666
31
0.0
0
LINE
8
0
6
CONTINUOUS
10
-2.942981
20
37.706241
30
0.0
11
-2.942981
21
37.548740
31
0.0
0
LINE
8
0
6
CONTINUOUS
10
-2.780720
20
37.627666
30
0.0
11
-2.580884
21
37.586215
31
0.0
0
LINE
8
0
6
CONTINUOUS
10
-2.780720
20
37.753539
30
0.0
11
-2.780720
21
37.627666
31
0.0
0
LINE
8
0
6
CONTINUOUS
10
-2.580884
20
37.586215
30
0.0
11
-2.543311
21
37.465846
31
0.0
0
LINE
8
0
6
CONTINUOUS
10
-2.580884
20
37.676614
30
0.0
11
-2.580884
21
37.586215
31
0.0
0
LINE
8
0
6
CONTINUOUS
10
-1.204875
20
35.300694
30
0.0
11
-1.042612
21
35.379620
31
0.0
0
LINE
8
0
6
CONTINUOUS
10
-1.204875
20
35.444302
30
0.0
11
-1.204875
21
35.300694
31
0.0
0
LINE
8
0
6
CONTINUOUS
10
-1.042612
20
35.379620
30
0.0
11
-0.842777
21
35.338169
31
0.0
0
LINE
8
0
6
CONTINUOUS
10
-1.042612
20
35.486672
30
0.0
11
-1.042612
21
35.379620
31
0.0
0
LINE
8
0
6
CONTINUOUS
10
-1.085346
20
35.607212
30
0.0
11
-0.923084
21
35.686138
31
0.0
0
LINE
8
0
6
CONTINUOUS
10
-1.085346
20
35.757454
30
0.0
11
-1.085346
21
35.607212
31
0.0
0
LINE
8
0
6
CONTINUOUS
10
-0.923084
20
35.686138
30
0.0
11
-0.723249
21
35.644688
31
0.0
0
LINE
8
0
6
CONTINUOUS
10
-0.923084
20
35.790421
30
0.0
11
-0.923084
21
35.686138
31
0.0
0
LINE
8
0
6
CONTINUOUS
10
-0.723249
20
35.644688
30
0.0
11
-0.685676
21
35.524319
31
0.0
0
LINE
8
0
6
CONTINUOUS
10
-0.723249
20
35.741176
30
0.0
11
-0.723249
21
35.644688
31
0.0
0
LINE
8
0
6
CONTINUOUS
10
-0.965819
20
35.970028
30
0.0
11
-0.803556
21
36.048954
31
0.0
0
LINE
8
0
6
CONTINUOUS
10
-0.965819
20
36.106694
30
0.0
11
-0.965819
21
35.970028
31
0.0
0
LINE
8
0
6
CONTINUOUS
10
-0.803556
20
36.048954
30
0.0
11
-0.603721
21
36.007504
31
0.0
0
LINE
8
0
6
CONTINUOUS
10
-0.803556
20
36.161532
30
0.0
11
-0.803556
21
36.048954
31
0.0
0
LINE
8
0
6
CONTINUOUS
10
-0.846291
20
36.346652
30
0.0
11
-0.684028
21
36.425578
31
0.0
0
LINE
8
0
6
CONTINUOUS
10
-0.846291
20
36.483106
30
0.0
11
-0.846291
21
36.346652
31
0.0
0
LINE
8
0
6
CONTINUOUS
10
-0.684028
20
36.425578
30
0.0
11
-0.484193
21
36.384128
31
0.0
0
LINE
8
0
6
CONTINUOUS
10
-0.684028
20
36.535657
30
0.0
11
-0.684028
21
36.425578
31
0.0
0
LINE
8
0
6
CONTINUOUS
10
-0.446620
20
36.263759
30
0.0
11
-0.446620
21
36.466552
31
0.0
0
LINE
8
0
6
CONTINUOUS
10
-0.484193
20
36.384128
30
0.0
11
-0.446620
21
36.263759
31
0.0
0
LINE
8
0
6
CONTINUOUS
10
-0.484193
20
36.483387
30
0.0
11
-0.484193
21
36.384128
31
0.0
0
LINE
8
0
6
CONTINUOUS
10
-2.753623
20
36.713130
30
0.0
11
-2.716050
21
36.833499
31
0.0
0
LINE
8
0
6
CONTINUOUS
10
-2.753623
20
36.880302
30
0.0
11
-2.753623
21
36.713130
31
0.0
0
LINE
8
0
6
CONTINUOUS
10
-2.716050
20
36.833499
30
0.0
11
-2.516214
21
36.874950
31
0.0
0
LINE
8
0
6
CONTINUOUS
10
-2.716050
20
36.982152
30
0.0
11
-2.716050
21
36.833499
31
0.0
0
LINE
8
0
6
CONTINUOUS
10
-2.353952
20
36.796031
30
0.0
11
-2.353952
21
36.881704
31
0.0
0
LINE
8
0
6
CONTINUOUS
10
-2.516214
20
36.874950
30
0.0
11
-2.353952
21
36.796031
31
0.0
0
LINE
8
0
6
CONTINUOUS
10
-2.516214
20
36.982578
30
0.0
11
-2.516214
21
36.874950
31
0.0
0
LINE
8
0
6
CONTINUOUS
10
-1.966145
20
36.459697
30
0.0
11
-1.928572
21
36.580066
31
0.0
0
LINE
8
0
6
CONTINUOUS
10
-1.966145
20
36.619831
30
0.0
11
-1.966145
21
36.459697
31
0.0
0
LINE
8
0
6
CONTINUOUS
10
-1.928572
20
36.580066
30
0.0
11
-1.728736
21
36.621516
31
0.0
0
LINE
8
0
6
CONTINUOUS
10
-1.928572
20
36.717606
30
0.0
11
-1.928572
21
36.580066
31
0.0
0
LINE
8
0
6
CONTINUOUS
10
-2.163014
20
36.058590
30
0.0
11
-2.125442
21
36.178959
31
0.0
0
LINE
8
0
6
CONTINUOUS
10
-2.163014
20
36.222216
30
0.0
11
-2.163014
21
36.058590
31
0.0
0
LINE
8
0
6
CONTINUOUS
10
-2.125442
20
36.178959
30
0.0
11
-1.925606
21
36.220409
31
0.0
0
LINE
8
0
6
CONTINUOUS
10
-2.125442
20
36.316202
30
0.0
11
-2.125442
21
36.178959
31
0.0
0
LINE
8
0
6
CONTINUOUS
10
-1.763343
20
36.141491
30
0.0
11
-1.763343
21
36.232745
31
0.0
0
LINE
8
0
6
CONTINUOUS
10
-1.925606
20
36.220409
30
0.0
11
-1.763343
21
36.141491
31
0.0
0
LINE
8
0
6
CONTINUOUS
10
-1.925606
20
36.322984
30
0.0
11
-1.925606
21
36.220409
31
0.0
0
LINE
8
0
6
CONTINUOUS
10
-2.247386
20
35.707073
30
0.0
11
-2.209814
21
35.827450
31
0.0
0
LINE
8
0
6
CONTINUOUS
10
-2.247386
20
35.893047
30
0.0
11
-2.247386
21
35.707073
31
0.0
0
LINE
8
0
6
CONTINUOUS
10
-2.209814
20
35.827450
30
0.0
11
-2.009978
21
35.868893
31
0.0
0
LINE
8
0
6
CONTINUOUS
10
-2.209814
20
35.973611
30
0.0
11
-2.209814
21
35.827450
31
0.0
0
LINE
8
0
6
CONTINUOUS
10
-1.847716
20
35.789974
30
0.0
11
-1.847716
21
35.871123
31
0.0
0
LINE
8
0
6
CONTINUOUS
10
-2.009978
20
35.868893
30
0.0
11
-1.847716
21
35.789974
31
0.0
0
LINE
8
0
6
CONTINUOUS
10
-2.009978
20
35.962218
30
0.0
11
-2.009978
21
35.868893
31
0.0
0
LINE
8
0
6
CONTINUOUS
10
-3.133300
20
36.346797
30
0.0
11
-3.095727
21
36.467174
31
0.0
0
LINE
8
0
6
CONTINUOUS
10
-3.133300
20
36.523797
30
0.0
11
-3.133300
21
36.346797
31
0.0
0
LINE
8
0
6
CONTINUOUS
10
-3.095727
20
36.467174
30
0.0
11
-2.895891
21
36.508624
31
0.0
0
LINE
8
0
6
CONTINUOUS
10
-3.095727
20
36.612435
30
0.0
11
-3.095727
21
36.467174
31
0.0
0
LINE
8
0
6
CONTINUOUS
10
0.234132
20
36.639339
30
0.0
11
0.396394
21
36.718265
31
0.0
0
LINE
8
0
6
CONTINUOUS
10
0.234132
20
36.763950
30
0.0
11
0.234132
21
36.639339
31
0.0
0
LINE
8
0
6
CONTINUOUS
10
0.396394
20
36.718265
30
0.0
11
0.596230
21
36.676814
31
0.0
0
LINE
8
0
6
CONTINUOUS
10
0.396394
20
36.836763
30
0.0
11
0.396394
21
36.718265
31
0.0
0
LINE
8
0
6
CONTINUOUS
10
0.596230
20
36.676814
30
0.0
11
0.633803
21
36.556445
31
0.0
0
LINE
8
0
6
CONTINUOUS
10
0.596230
20
36.788252
30
0.0
11
0.596230
21
36.676814
31
0.0
0
LINE
8
0
6
CONTINUOUS
10
0.102647
20
35.289959
30
0.0
11
0.264909
21
35.368885
31
0.0
0
LINE
8
0
6
CONTINUOUS
10
0.102647
20
35.422294
30
0.0
11
0.102647
21
35.289959
31
0.0
0
LINE
8
0
6
CONTINUOUS
10
0.135518
20
35.598850
30
0.0
11
0.297781
21
35.677776
31
0.0
0
LINE
8
0
6
CONTINUOUS
10
0.135518
20
35.725791
30
0.0
11
0.135518
21
35.598850
31
0.0
0
LINE
8
0
6
CONTINUOUS
10
0.168390
20
35.942295
30
0.0
11
0.330651
21
36.021221
31
0.0
0
LINE
8
0
6
CONTINUOUS
10
0.168390
20
36.069478
30
0.0
11
0.168390
21
35.942295
31
0.0
0
LINE
8
0
6
CONTINUOUS
10
0.330651
20
36.021221
30
0.0
11
0.530487
21
35.979771
31
0.0
0
LINE
8
0
6
CONTINUOUS
10
0.330651
20
36.132638
30
0.0
11
0.330651
21
36.021221
31
0.0
0
LINE
8
0
6
CONTINUOUS
10
0.530487
20
35.979771
30
0.0
11
0.568059
21
35.859394
31
0.0
0
LINE
8
0
6
CONTINUOUS
10
0.530487
20
36.089041
30
0.0
11
0.530487
21
35.979771
31
0.0
0
LINE
8
0
6
CONTINUOUS
10
0.201261
20
36.291705
30
0.0
11
0.363523
21
36.370624
31
0.0
0
LINE
8
0
6
CONTINUOUS
10
0.201261
20
36.417032
30
0.0
11
0.201261
21
36.291705
31
0.0
0
LINE
8
0
6
CONTINUOUS
10
0.363523
20
36.370624
30
0.0
11
0.563358
21
36.329173
31
0.0
0
LINE
8
0
6
CONTINUOUS
10
0.363523
20
36.479998
30
0.0
11
0.363523
21
36.370624
31
0.0
0
LINE
8
0
6
CONTINUOUS
10
0.563358
20
36.329173
30
0.0
11
0.600932
21
36.208804
31
0.0
0
LINE
8
0
6
CONTINUOUS
10
0.563358
20
36.436937
30
0.0
11
0.563358
21
36.329173
31
0.0
0
LINE
8
0
6
CONTINUOUS
10
1.782299
20
36.289813
30
0.0
11
1.782299
21
36.414887
31
0.0
0
LINE
8
0
6
CONTINUOUS
10
1.620036
20
36.368732
30
0.0
11
1.782299
21
36.289813
31
0.0
0
LINE
8
0
6
CONTINUOUS
10
1.620036
20
36.368732
30
0.0
11
1.620036
21
36.477852
31
0.0
0
LINE
8
0
6
CONTINUOUS
10
1.420201
20
36.327289
30
0.0
11
1.620036
21
36.368732
31
0.0
0
LINE
8
0
6
CONTINUOUS
10
1.420201
20
36.327289
30
0.0
11
1.420201
21
36.434625
31
0.0
0
LINE
8
0
6
CONTINUOUS
10
1.382628
20
36.206912
30
0.0
11
1.420201
21
36.327289
31
0.0
0
LINE
8
0
6
CONTINUOUS
10
1.382628
20
36.328311
30
0.0
11
1.382628
21
36.206912
31
0.0
0
LINE
8
0
6
CONTINUOUS
10
1.815170
20
35.941479
30
0.0
11
1.815170
21
36.068099
31
0.0
0
LINE
8
0
6
CONTINUOUS
10
1.652908
20
36.020405
30
0.0
11
1.815170
21
35.941479
31
0.0
0
LINE
8
0
6
CONTINUOUS
10
1.652908
20
36.020405
30
0.0
11
1.652908
21
36.130325
31
0.0
0
LINE
8
0
6
CONTINUOUS
10
1.453073
20
35.978954
30
0.0
11
1.652908
21
36.020405
31
0.0
0
LINE
8
0
6
CONTINUOUS
10
1.453073
20
35.978954
30
0.0
11
1.453073
21
36.087199
31
0.0
0
LINE
8
0
6
CONTINUOUS
10
1.415499
20
35.858585
30
0.0
11
1.453073
21
35.978954
31
0.0
0
LINE
8
0
6
CONTINUOUS
10
1.415499
20
35.982149
30
0.0
11
1.415499
21
35.858585
31
0.0
0
LINE
8
0
6
CONTINUOUS
10
1.848041
20
35.600666
30
0.0
11
1.848041
21
35.728257
31
0.0
0
LINE
8
0
6
CONTINUOUS
10
1.685779
20
35.679577
30
0.0
11
1.848041
21
35.600666
31
0.0
0
LINE
8
0
6
CONTINUOUS
10
1.685779
20
35.679577
30
0.0
11
1.685779
21
35.786589
31
0.0
0
LINE
8
0
6
CONTINUOUS
10
1.485944
20
35.638134
30
0.0
11
1.685779
21
35.679577
31
0.0
0
LINE
8
0
6
CONTINUOUS
10
1.485944
20
35.638134
30
0.0
11
1.485944
21
35.745263
31
0.0
0
LINE
8
0
6
CONTINUOUS
10
1.448370
20
35.517758
30
0.0
11
1.485944
21
35.638134
31
0.0
0
LINE
8
0
6
CONTINUOUS
10
1.448370
20
35.647164
30
0.0
11
1.448370
21
35.517758
31
0.0
0
LINE
8
0
6
CONTINUOUS
10
1.880912
20
35.278576
30
0.0
11
1.880912
21
35.404682
31
0.0
0
LINE
8
0
6
CONTINUOUS
10
1.718650
20
35.357494
30
0.0
11
1.880912
21
35.278576
31
0.0
0
LINE
8
0
6
CONTINUOUS
10
1.718650
20
35.357494
30
0.0
11
1.718650
21
35.463441
31
0.0
0
LINE
8
0
6
CONTINUOUS
10
1.518815
20
35.316052
30
0.0
11
1.718650
21
35.357494
31
0.0
0
LINE
8
0
6
CONTINUOUS
10
1.518815
20
35.316052
30
0.0
11
1.518815
21
35.426097
31
0.0
0
LINE
8
0
6
CONTINUOUS
10
1.481242
20
35.195675
30
0.0
11
1.518815
21
35.316052
31
0.0
0
LINE
8
0
6
CONTINUOUS
10
1.481242
20
35.330837
30
0.0
11
1.481242
21
35.195675
31
0.0
0
LINE
8
0
6
CONTINUOUS
10
1.749427
20
36.637530
30
0.0
11
1.749427
21
36.761670
31
0.0
0
LINE
8
0
6
CONTINUOUS
10
1.587165
20
36.716456
30
0.0
11
1.749427
21
36.637530
31
0.0
0
LINE
8
0
6
CONTINUOUS
10
1.587165
20
36.716456
30
0.0
11
1.587165
21
36.834485
31
0.0
0
LINE
8
0
6
CONTINUOUS
10
1.387330
20
36.675006
30
0.0
11
1.587165
21
36.716456
31
0.0
0
LINE
8
0
6
CONTINUOUS
10
5.079286
20
36.454677
30
0.0
11
5.116859
21
36.334308
31
0.0
0
LINE
8
0
6
CONTINUOUS
10
4.879450
20
36.496135
30
0.0
11
5.079286
21
36.454677
31
0.0
0
LINE
8
0
6
CONTINUOUS
10
4.717188
20
36.417209
30
0.0
11
4.879450
21
36.496135
31
0.0
0
LINE
8
0
6
CONTINUOUS
10
4.717188
20
36.492655
30
0.0
11
4.717188
21
36.417209
31
0.0
0
LINE
8
0
6
CONTINUOUS
10
4.193373
20
35.810268
30
0.0
11
4.230946
21
35.689892
31
0.0
0
LINE
8
0
6
CONTINUOUS
10
3.909165
20
36.215579
30
0.0
11
4.109001
21
36.174122
31
0.0
0
LINE
8
0
6
CONTINUOUS
10
3.909165
20
36.215579
30
0.0
11
3.909165
21
36.380086
31
0.0
0
LINE
8
0
6
CONTINUOUS
10
3.746903
20
36.136654
30
0.0
11
3.909165
21
36.215579
31
0.0
0
LINE
8
0
6
CONTINUOUS
10
3.746903
20
36.226668
30
0.0
11
3.746903
21
36.136654
31
0.0
0
LINE
8
0
6
CONTINUOUS
10
3.949704
20
36.452426
30
0.0
11
3.949704
21
36.748787
31
0.0
0
LINE
8
0
6
CONTINUOUS
10
3.912132
20
36.572803
30
0.0
11
3.949704
21
36.452426
31
0.0
0
LINE
8
0
6
CONTINUOUS
10
3.912132
20
36.572803
30
0.0
11
3.912132
21
36.756582
31
0.0
0
LINE
8
0
6
CONTINUOUS
10
3.712296
20
36.614246
30
0.0
11
3.912132
21
36.572803
31
0.0
0
LINE
8
0
6
CONTINUOUS
10
4.699609
20
36.823009
30
0.0
11
4.737182
21
36.702632
31
0.0
0
LINE
8
0
6
CONTINUOUS
10
4.499774
20
36.864451
30
0.0
11
4.699609
21
36.823009
31
0.0
0
LINE
8
0
6
CONTINUOUS
10
4.337512
20
36.785533
30
0.0
11
4.499774
21
36.864451
31
0.0
0
LINE
8
0
6
CONTINUOUS
10
4.337512
20
36.871224
30
0.0
11
4.337512
21
36.785533
31
0.0
0
LINE
8
0
6
CONTINUOUS
10
2.430179
20
36.258693
30
0.0
11
2.467753
21
36.379062
31
0.0
0
LINE
8
0
6
CONTINUOUS
10
2.430179
20
36.372133
30
0.0
11
2.430179
21
36.258693
31
0.0
0
LINE
8
0
6
CONTINUOUS
10
2.949377
20
35.971058
30
0.0
11
2.949377
21
36.106736
31
0.0
0
LINE
8
0
6
CONTINUOUS
10
2.787116
20
36.049976
30
0.0
11
2.949377
21
35.971058
31
0.0
0
LINE
8
0
6
CONTINUOUS
10
2.787116
20
36.049976
30
0.0
11
2.787116
21
36.156878
31
0.0
0
LINE
8
0
6
CONTINUOUS
10
2.587281
20
36.008526
30
0.0
11
2.787116
21
36.049976
31
0.0
0
LINE
8
0
6
CONTINUOUS
10
2.587281
20
36.008526
30
0.0
11
2.587281
21
36.107356
31
0.0
0
LINE
8
0
6
CONTINUOUS
10
2.549707
20
35.888157
30
0.0
11
2.587281
21
36.008526
31
0.0
0
LINE
8
0
6
CONTINUOUS
10
2.549707
20
36.007480
30
0.0
11
2.549707
21
35.888157
31
0.0
0
LINE
8
0
6
CONTINUOUS
10
3.188434
20
35.257061
30
0.0
11
3.188434
21
35.402773
31
0.0
0
LINE
8
0
6
CONTINUOUS
10
3.026172
20
35.335987
30
0.0
11
3.188434
21
35.257061
31
0.0
0
LINE
8
0
6
CONTINUOUS
10
3.026172
20
35.335987
30
0.0
11
3.026172
21
35.445844
31
0.0
0
LINE
8
0
6
CONTINUOUS
10
2.826337
20
35.294529
30
0.0
11
3.026172
21
35.335987
31
0.0
0
LINE
8
0
6
CONTINUOUS
10
2.826337
20
35.294529
30
0.0
11
2.826337
21
35.388938
31
0.0
0
LINE
8
0
6
CONTINUOUS
10
2.788764
20
35.174160
30
0.0
11
2.826337
21
35.294529
31
0.0
0
LINE
8
0
6
CONTINUOUS
10
2.788764
20
35.290825
30
0.0
11
2.788764
21
35.174160
31
0.0
0
LINE
8
0
6
CONTINUOUS
10
4.926541
20
37.537433
30
0.0
11
4.926541
21
37.690941
31
0.0
0
LINE
8
0
6
CONTINUOUS
10
4.764279
20
37.616351
30
0.0
11
4.926541
21
37.537433
31
0.0
0
LINE
8
0
6
CONTINUOUS
10
4.764279
20
37.616351
30
0.0
11
4.764279
21
37.745081
31
0.0
0
LINE
8
0
6
CONTINUOUS
10
4.564444
20
37.574908
30
0.0
11
4.764279
21
37.616351
31
0.0
0
LINE
8
0
6
CONTINUOUS
10
4.564444
20
37.574908
30
0.0
11
4.564444
21
37.665063
31
0.0
0
LINE
8
0
6
CONTINUOUS
10
4.526870
20
37.454532
30
0.0
11
4.564444
21
37.574908
31
0.0
0
LINE
8
0
6
CONTINUOUS
10
4.526870
20
37.541649
30
0.0
11
4.526870
21
37.454532
31
0.0
0
LINE
8
0
6
CONTINUOUS
10
3.825705
20
37.291171
30
0.0
11
4.025539
21
37.332622
31
0.0
0
LINE
8
0
6
CONTINUOUS
10
3.825705
20
37.291171
30
0.0
11
3.825705
21
37.378480
31
0.0
0
LINE
8
0
6
CONTINUOUS
10
3.788131
20
37.170795
30
0.0
11
3.825705
21
37.291171
31
0.0
0
LINE
8
0
6
CONTINUOUS
10
3.788131
20
37.256892
30
0.0
11
3.788131
21
37.170795
31
0.0
0
LINE
8
0
6
CONTINUOUS
10
3.086965
20
37.022494
30
0.0
11
3.286800
21
37.063945
31
0.0
0
LINE
8
0
6
CONTINUOUS
10
3.086965
20
37.022494
30
0.0
11
3.086965
21
37.121396
31
0.0
0
LINE
8
0
6
CONTINUOUS
10
3.049391
20
36.902125
30
0.0
11
3.086965
21
37.022494
31
0.0
0
LINE
8
0
6
CONTINUOUS
10
3.049391
20
36.998892
30
0.0
11
3.049391
21
36.902125
31
0.0
0
LINE
8
0
6
CONTINUOUS
10
2.710322
20
36.728435
30
0.0
11
2.710322
21
36.867195
31
0.0
0
LINE
8
0
6
CONTINUOUS
10
2.548060
20
36.807353
30
0.0
11
2.710322
21
36.728435
31
0.0
0
LINE
8
0
6
CONTINUOUS
10
2.548060
20
36.807353
30
0.0
11
2.548060
21
36.926836
31
0.0
0
LINE
8
0
6
CONTINUOUS
10
2.348225
20
36.765910
30
0.0
11
2.548060
21
36.807353
31
0.0
0
LINE
8
0
6
CONTINUOUS
10
2.348225
20
36.765910
30
0.0
11
2.348225
21
36.867207
31
0.0
0
LINE
8
0
6
CONTINUOUS
10
2.310652
20
36.645534
30
0.0
11
2.348225
21
36.765910
31
0.0
0
LINE
8
0
6
CONTINUOUS
10
2.310652
20
36.749162
30
0.0
11
2.310652
21
36.645534
31
0.0
0
LINE
8
0
6
CONTINUOUS
10
3.107569
20
39.352824
30
0.0
11
3.107569
21
39.469718
31
0.0
0
LINE
8
0
6
CONTINUOUS
10
3.009416
20
39.461284
30
0.0
11
3.107569
21
39.352824
31
0.0
0
LINE
8
0
6
CONTINUOUS
10
2.048624
20
38.957355
30
0.0
11
2.162682
21
39.060527
31
0.0
0
LINE
8
0
6
CONTINUOUS
10
2.048624
20
39.056000
30
0.0
11
2.048624
21
38.957355
31
0.0
0
LINE
8
0
6
CONTINUOUS
10
1.414099
20
38.591930
30
0.0
11
1.528155
21
38.695102
31
0.0
0
LINE
8
0
6
CONTINUOUS
10
1.414099
20
38.693975
30
0.0
11
1.414099
21
38.591930
31
0.0
0
LINE
8
0
6
CONTINUOUS
10
3.704644
20
38.945308
30
0.0
11
3.853879
21
39.032336
31
0.0
0
LINE
8
0
6
CONTINUOUS
10
3.704644
20
39.016355
30
0.0
11
3.704644
21
38.945308
31
0.0
0
LINE
8
0
6
CONTINUOUS
10
4.115675
20
38.883510
30
0.0
11
4.115675
21
39.017973
31
0.0
0
LINE
8
0
6
CONTINUOUS
10
4.059393
20
39.001437
30
0.0
11
4.115675
21
38.883510
31
0.0
0
LINE
8
0
6
CONTINUOUS
10
3.257873
20
38.690982
30
0.0
11
3.463388
21
38.660075
31
0.0
0
LINE
8
0
6
CONTINUOUS
10
3.257873
20
38.690982
30
0.0
11
3.257873
21
38.817674
31
0.0
0
LINE
8
0
6
CONTINUOUS
10
3.108639
20
38.603946
30
0.0
11
3.257873
21
38.690982
31
0.0
0
LINE
8
0
6
CONTINUOUS
10
3.108639
20
38.694962
30
0.0
11
3.108639
21
38.603946
31
0.0
0
LINE
8
0
6
CONTINUOUS
10
3.519670
20
38.542148
30
0.0
11
3.519670
21
38.661364
31
0.0
0
LINE
8
0
6
CONTINUOUS
10
3.463388
20
38.660075
30
0.0
11
3.519670
21
38.542148
31
0.0
0
LINE
8
0
6
CONTINUOUS
10
3.463388
20
38.801416
30
0.0
11
3.463388
21
38.660075
31
0.0
0
LINE
8
0
6
CONTINUOUS
10
2.661869
20
38.399272
30
0.0
11
2.867383
21
38.368365
31
0.0
0
LINE
8
0
6
CONTINUOUS
10
2.661869
20
38.399272
30
0.0
11
2.661869
21
38.515494
31
0.0
0
LINE
8
0
6
CONTINUOUS
10
2.512633
20
38.312236
30
0.0
11
2.661869
21
38.399272
31
0.0
0
LINE
8
0
6
CONTINUOUS
10
2.512633
20
38.398938
30
0.0
11
2.512633
21
38.312236
31
0.0
0
LINE
8
0
6
CONTINUOUS
10
2.923665
20
38.250438
30
0.0
11
2.923665
21
38.378467
31
0.0
0
LINE
8
0
6
CONTINUOUS
10
2.867383
20
38.368365
30
0.0
11
2.923665
21
38.250438
31
0.0
0
LINE
8
0
6
CONTINUOUS
10
2.867383
20
38.501934
30
0.0
11
2.867383
21
38.368365
31
0.0
0
LINE
8
0
6
CONTINUOUS
10
2.065864
20
38.111850
30
0.0
11
2.271379
21
38.080951
31
0.0
0
LINE
8
0
6
CONTINUOUS
10
2.065864
20
38.111850
30
0.0
11
2.065864
21
38.235209
31
0.0
0
LINE
8
0
6
CONTINUOUS
10
1.916629
20
38.024821
30
0.0
11
2.065864
21
38.111850
31
0.0
0
LINE
8
0
6
CONTINUOUS
10
1.916629
20
38.132663
30
0.0
11
1.916629
21
38.024821
31
0.0
0
LINE
8
0
6
CONTINUOUS
10
2.327660
20
37.963023
30
0.0
11
2.327660
21
38.074449
31
0.0
0
LINE
8
0
6
CONTINUOUS
10
2.271379
20
38.080951
30
0.0
11
2.327660
21
37.963023
31
0.0
0
LINE
8
0
6
CONTINUOUS
10
2.271379
20
38.206079
30
0.0
11
2.271379
21
38.080951
31
0.0
0
LINE
8
0
6
CONTINUOUS
10
1.469858
20
37.845828
30
0.0
11
1.675373
21
37.814929
31
0.0
0
LINE
8
0
6
CONTINUOUS
10
1.469858
20
37.845828
30
0.0
11
1.469858
21
37.969578
31
0.0
0
LINE
8
0
6
CONTINUOUS
10
1.320623
20
37.758800
30
0.0
11
1.469858
21
37.845828
31
0.0
0
LINE
8
0
6
CONTINUOUS
10
1.320623
20
37.864881
30
0.0
11
1.320623
21
37.758800
31
0.0
0
LINE
8
0
6
CONTINUOUS
10
1.731655
20
37.697002
30
0.0
11
1.731655
21
37.809174
31
0.0
0
LINE
8
0
6
CONTINUOUS
10
1.675373
20
37.814929
30
0.0
11
1.731655
21
37.697002
31
0.0
0
LINE
8
0
6
CONTINUOUS
10
1.675373
20
37.941726
30
0.0
11
1.675373
21
37.814929
31
0.0
0
LINE
8
0
6
CONTINUOUS
10
4.539194
20
38.380199
30
0.0
11
4.728796
21
38.325069
31
0.0
0
LINE
8
0
6
CONTINUOUS
10
4.539194
20
38.380199
30
0.0
11
4.539194
21
38.496671
31
0.0
0
LINE
8
0
6
CONTINUOUS
10
4.361474
20
38.313220
30
0.0
11
4.539194
21
38.380199
31
0.0
0
LINE
8
0
6
CONTINUOUS
10
4.361474
20
38.403168
30
0.0
11
4.361474
21
38.313220
31
0.0
0
LINE
8
0
6
CONTINUOUS
10
3.923581
20
38.088138
30
0.0
11
4.113183
21
38.033015
31
0.0
0
LINE
8
0
6
CONTINUOUS
10
3.923581
20
38.088138
30
0.0
11
3.923581
21
38.207008
31
0.0
0
LINE
8
0
6
CONTINUOUS
10
3.745861
20
38.021152
30
0.0
11
3.923581
21
38.088138
31
0.0
0
LINE
8
0
6
CONTINUOUS
10
3.745861
20
38.101676
30
0.0
11
3.745861
21
38.021152
31
0.0
0
LINE
8
0
6
CONTINUOUS
10
4.125069
20
37.910899
30
0.0
11
4.125069
21
38.050693
31
0.0
0
LINE
8
0
6
CONTINUOUS
10
4.113183
20
38.033015
30
0.0
11
4.125069
21
37.910899
31
0.0
0
LINE
8
0
6
CONTINUOUS
10
4.113183
20
38.181602
30
0.0
11
4.113183
21
38.033015
31
0.0
0
LINE
8
0
6
CONTINUOUS
10
3.307967
20
37.804576
30
0.0
11
3.497569
21
37.749454
31
0.0
0
LINE
8
0
6
CONTINUOUS
10
3.307967
20
37.804576
30
0.0
11
3.307967
21
37.929264
31
0.0
0
LINE
8
0
6
CONTINUOUS
10
3.130247
20
37.737598
30
0.0
11
3.307967
21
37.804576
31
0.0
0
LINE
8
0
6
CONTINUOUS
10
3.130247
20
37.831986
30
0.0
11
3.130247
21
37.737598
31
0.0
0
LINE
8
0
6
CONTINUOUS
10
3.509455
20
37.627345
30
0.0
11
3.509455
21
37.752798
31
0.0
0
LINE
8
0
6
CONTINUOUS
10
3.497569
20
37.749454
30
0.0
11
3.509455
21
37.627345
31
0.0
0
LINE
8
0
6
CONTINUOUS
10
3.497569
20
37.889671
30
0.0
11
3.497569
21
37.749454
31
0.0
0
LINE
8
0
6
CONTINUOUS
10
2.692354
20
37.541904
30
0.0
11
2.881956
21
37.486766
31
0.0
0
LINE
8
0
6
CONTINUOUS
10
2.692354
20
37.541904
30
0.0
11
2.692354
21
37.653193
31
0.0
0
LINE
8
0
6
CONTINUOUS
10
2.514634
20
37.474917
30
0.0
11
2.692354
21
37.541904
31
0.0
0
LINE
8
0
6
CONTINUOUS
10
2.514634
20
37.569003
30
0.0
11
2.514634
21
37.474917
31
0.0
0
LINE
8
0
6
CONTINUOUS
10
2.893842
20
37.364657
30
0.0
11
2.893842
21
37.501041
31
0.0
0
LINE
8
0
6
CONTINUOUS
10
2.881956
20
37.486766
30
0.0
11
2.893842
21
37.364657
31
0.0
0
LINE
8
0
6
CONTINUOUS
10
2.881956
20
37.618530
30
0.0
11
2.881956
21
37.486766
31
0.0
0
LINE
8
0
6
CONTINUOUS
10
2.076740
20
37.315532
30
0.0
11
2.266342
21
37.260394
31
0.0
0
LINE
8
0
6
CONTINUOUS
10
2.076740
20
37.315532
30
0.0
11
2.076740
21
37.430811
31
0.0
0
LINE
8
0
6
CONTINUOUS
10
1.899020
20
37.248546
30
0.0
11
2.076740
21
37.315532
31
0.0
0
LINE
8
0
6
CONTINUOUS
10
1.899020
20
37.358842
30
0.0
11
1.899020
21
37.248546
31
0.0
0
LINE
8
0
6
CONTINUOUS
10
2.278228
20
37.138286
30
0.0
11
2.278228
21
37.261591
31
0.0
0
LINE
8
0
6
CONTINUOUS
10
2.266342
20
37.260394
30
0.0
11
2.278228
21
37.138286
31
0.0
0
LINE
8
0
6
CONTINUOUS
10
2.266342
20
37.382184
30
0.0
11
2.266342
21
37.260394
31
0.0
0
LINE
8
0
6
CONTINUOUS
10
5.665280
20
37.892871
30
0.0
11
5.665280
21
38.051233
31
0.0
0
LINE
8
0
6
CONTINUOUS
10
5.503019
20
37.971797
30
0.0
11
5.665280
21
37.892871
31
0.0
0
LINE
8
0
6
CONTINUOUS
10
5.503019
20
37.971797
30
0.0
11
5.503019
21
38.097085
31
0.0
0
LINE
8
0
6
CONTINUOUS
10
5.303184
20
37.930347
30
0.0
11
5.503019
21
37.971797
31
0.0
0
LINE
8
0
6
CONTINUOUS
10
5.303184
20
37.930347
30
0.0
11
5.303184
21
38.007864
31
0.0
0
LINE
8
0
6
CONTINUOUS
10
5.265610
20
37.809970
30
0.0
11
5.303184
21
37.930347
31
0.0
0
LINE
8
0
6
CONTINUOUS
10
5.265610
20
37.873080
30
0.0
11
5.265610
21
37.809970
31
0.0
0
LINE
8
0
6
CONTINUOUS
10
2.134249
20
40.162311
30
0.0
11
2.343631
21
40.182872
31
0.0
0
LINE
8
0
6
CONTINUOUS
10
2.134249
20
40.162311
30
0.0
11
2.134249
21
40.290263
31
0.0
0
LINE
8
0
6
CONTINUOUS
10
2.060487
20
40.047618
30
0.0
11
2.134249
21
40.162311
31
0.0
0
LINE
8
0
6
CONTINUOUS
10
2.060487
20
40.126062
30
0.0
11
2.060487
21
40.047618
31
0.0
0
LINE
8
0
6
CONTINUOUS
10
2.479252
20
40.088748
30
0.0
11
2.479252
21
40.206901
31
0.0
0
LINE
8
0
6
CONTINUOUS
10
2.343631
20
40.182872
30
0.0
11
2.479252
21
40.088748
31
0.0
0
LINE
8
0
6
CONTINUOUS
10
2.343631
20
40.326576
30
0.0
11
2.343631
21
40.182872
31
0.0
0
LINE
8
0
6
CONTINUOUS
10
3.431735
20
39.867419
30
0.0
11
3.643942
21
39.862125
31
0.0
0
LINE
8
0
6
CONTINUOUS
10
3.431735
20
39.867419
30
0.0
11
3.431735
21
39.994407
31
0.0
0
LINE
8
0
6
CONTINUOUS
10
3.317679
20
39.764247
30
0.0
11
3.431735
21
39.867419
31
0.0
0
LINE
8
0
6
CONTINUOUS
10
3.317679
20
39.839861
30
0.0
11
3.317679
21
39.764247
31
0.0
0
LINE
8
0
6
CONTINUOUS
10
3.742095
20
39.753665
30
0.0
11
3.742095
21
39.878387
31
0.0
0
LINE
8
0
6
CONTINUOUS
10
3.643942
20
39.862125
30
0.0
11
3.742095
21
39.753665
31
0.0
0
LINE
8
0
6
CONTINUOUS
10
3.643942
20
40.012115
30
0.0
11
3.643942
21
39.862125
31
0.0
0
LINE
8
0
6
CONTINUOUS
10
4.449883
20
39.357921
30
0.0
11
4.655398
21
39.327022
31
0.0
0
LINE
8
0
6
CONTINUOUS
10
4.449883
20
39.357921
30
0.0
11
4.449883
21
39.477500
31
0.0
0
LINE
8
0
6
CONTINUOUS
10
4.300648
20
39.270892
30
0.0
11
4.449883
21
39.357921
31
0.0
0
LINE
8
0
6
CONTINUOUS
10
4.300648
20
39.362994
30
0.0
11
4.300648
21
39.270892
31
0.0
0
LINE
8
0
6
CONTINUOUS
10
4.711679
20
39.209094
30
0.0
11
4.711679
21
39.337008
31
0.0
0
LINE
8
0
6
CONTINUOUS
10
4.655398
20
39.327022
30
0.0
11
4.711679
21
39.209094
31
0.0
0
LINE
8
0
6
CONTINUOUS
10
4.655398
20
39.471147
30
0.0
11
4.655398
21
39.327022
31
0.0
0
LINE
8
0
6
CONTINUOUS
10
5.154809
20
38.715777
30
0.0
11
5.344410
21
38.660655
31
0.0
0
LINE
8
0
6
CONTINUOUS
10
5.154809
20
38.715777
30
0.0
11
5.154809
21
38.838830
31
0.0
0
LINE
8
0
6
CONTINUOUS
10
4.977088
20
38.648807
30
0.0
11
5.154809
21
38.715777
31
0.0
0
LINE
8
0
6
CONTINUOUS
10
4.977088
20
38.718870
30
0.0
11
4.977088
21
38.648807
31
0.0
0
LINE
8
0
6
CONTINUOUS
10
5.543336
20
37.166263
30
0.0
11
5.580908
21
37.045894
31
0.0
0
LINE
8
0
6
CONTINUOUS
10
5.343502
20
37.207713
30
0.0
11
5.543336
21
37.166263
31
0.0
0
LINE
8
0
6
CONTINUOUS
10
-3.359941
20
37.221438
30
0.0
11
-3.359941
21
37.322598
31
0.0
0
LINE
8
0
6
CONTINUOUS
10
-3.559776
20
37.179988
30
0.0
11
-3.359941
21
37.221438
31
0.0
0
LINE
8
0
6
CONTINUOUS
10
-3.559776
20
37.327399
30
0.0
11
-3.559776
21
37.179988
31
0.0
0
LINE
8
0
6
CONTINUOUS
10
-2.466323
20
39.367702
30
0.0
11
-2.317089
21
39.280673
31
0.0
0
LINE
8
0
6
CONTINUOUS
10
-2.466323
20
39.488019
30
0.0
11
-2.466323
21
39.367702
31
0.0
0
LINE
8
0
6
CONTINUOUS
10
0.839600
20
40.318812
30
0.0
11
1.046886
21
40.345508
31
0.0
0
LINE
8
0
6
CONTINUOUS
10
0.839600
20
40.454460
30
0.0
11
0.839600
21
40.318812
31
0.0
0
LINE
8
0
6
CONTINUOUS
10
-1.758536
20
39.761066
30
0.0
11
-1.660383
21
39.869525
31
0.0
0
LINE
8
0
6
CONTINUOUS
10
-1.758536
20
39.888541
30
0.0
11
-1.758536
21
39.761066
31
0.0
0
LINE
8
0
6
CONTINUOUS
10
-3.519459
20
37.986117
30
0.0
11
-3.319624
21
37.944667
31
0.0
0
LINE
8
0
6
CONTINUOUS
10
-3.519459
20
38.109721
30
0.0
11
-3.519459
21
37.986117
31
0.0
0
LINE
8
0
6
CONTINUOUS
10
-0.708794
20
37.547443
30
0.0
11
-0.531074
21
37.480456
31
0.0
0
LINE
8
0
6
CONTINUOUS
10
-0.708794
20
37.659499
30
0.0
11
-0.708794
21
37.547443
31
0.0
0
LINE
8
0
6
CONTINUOUS
10
-1.324407
20
37.811679
30
0.0
11
-1.146687
21
37.744693
31
0.0
0
LINE
8
0
6
CONTINUOUS
10
-1.324407
20
37.936882
30
0.0
11
-1.324407
21
37.811679
31
0.0
0
LINE
8
0
6
CONTINUOUS
10
0.513701
20
37.847591
30
0.0
11
0.662936
21
37.760562
31
0.0
0
LINE
8
0
6
CONTINUOUS
10
0.513701
20
37.971860
30
0.0
11
0.513701
21
37.847591
31
0.0
0
LINE
8
0
6
CONTINUOUS
10
-0.082304
20
38.114841
30
0.0
11
-0.082304
21
38.297891
31
0.0
0
LINE
8
0
6
CONTINUOUS
10
-0.287820
20
38.083942
30
0.0
11
-0.082304
21
38.114841
31
0.0
0
LINE
8
0
6
CONTINUOUS
10
-0.287820
20
38.083942
30
0.0
11
-0.287820
21
38.214031
31
0.0
0
LINE
8
0
6
CONTINUOUS
10
-0.344100
20
37.966014
30
0.0
11
-0.287820
21
38.083942
31
0.0
0
LINE
8
0
6
CONTINUOUS
10
-0.344100
20
38.076226
30
0.0
11
-0.344100
21
37.966014
31
0.0
0
LINE
8
0
6
CONTINUOUS
10
0.243197
20
38.691745
30
0.0
11
0.455405
21
38.697024
31
0.0
0
LINE
8
0
6
CONTINUOUS
10
0.455405
20
38.697024
30
0.0
11
0.569461
21
38.593852
31
0.0
0
LINE
8
0
6
CONTINUOUS
10
0.455405
20
38.818034
30
0.0
11
0.455405
21
38.697024
31
0.0
0
LINE
8
0
6
CONTINUOUS
10
0.145045
20
38.583278
30
0.0
11
0.243197
21
38.691745
31
0.0
0
LINE
8
0
6
CONTINUOUS
10
0.145045
20
38.695734
30
0.0
11
0.145045
21
38.583278
31
0.0
0
LINE
8
0
6
CONTINUOUS
10
0.278974
20
39.735934
30
0.0
11
0.488355
21
39.715373
31
0.0
0
LINE
8
0
6
CONTINUOUS
10
0.488355
20
39.715373
30
0.0
11
0.562118
21
39.600680
31
0.0
0
LINE
8
0
6
CONTINUOUS
10
0.488355
20
39.835057
30
0.0
11
0.488355
21
39.715373
31
0.0
0
LINE
8
0
6
CONTINUOUS
10
0.143352
20
39.641811
30
0.0
11
0.278974
21
39.735934
31
0.0
0
LINE
8
0
6
CONTINUOUS
10
0.143352
20
39.752486
30
0.0
11
0.143352
21
39.641811
31
0.0
0
LINE
8
0
6
CONTINUOUS
10
-0.564501
20
36.812396
30
0.0
11
-0.364666
21
36.770946
31
0.0
0
LINE
8
0
6
CONTINUOUS
10
-0.564501
20
36.933828
30
0.0
11
-0.564501
21
36.812396
31
0.0
0
LINE
8
0
6
CONTINUOUS
10
-1.103405
20
37.029224
30
0.0
11
-1.065832
21
36.908847
31
0.0
0
LINE
8
0
6
CONTINUOUS
10
-1.103405
20
37.128386
30
0.0
11
-1.103405
21
37.029224
31
0.0
0
LINE
8
0
6
CONTINUOUS
10
-0.842777
20
35.338169
30
0.0
11
-0.805204
21
35.217800
31
0.0
0
LINE
8
0
6
CONTINUOUS
10
-0.842777
20
35.434431
30
0.0
11
-0.842777
21
35.338169
31
0.0
0
LINE
8
0
6
CONTINUOUS
10
-0.603721
20
36.007504
30
0.0
11
-0.566148
21
35.887135
31
0.0
0
LINE
8
0
6
CONTINUOUS
10
-0.603721
20
36.108714
30
0.0
11
-0.603721
21
36.007504
31
0.0
0
LINE
8
0
6
CONTINUOUS
10
-1.566474
20
36.542590
30
0.0
11
-1.566474
21
36.632099
31
0.0
0
LINE
8
0
6
CONTINUOUS
10
-1.728736
20
36.621516
30
0.0
11
-1.566474
21
36.542590
31
0.0
0
LINE
8
0
6
CONTINUOUS
10
-1.728736
20
36.723120
30
0.0
11
-1.728736
21
36.621516
31
0.0
0
LINE
8
0
6
CONTINUOUS
10
-2.733629
20
36.429706
30
0.0
11
-2.733629
21
36.505356
31
0.0
0
LINE
8
0
6
CONTINUOUS
10
-2.895891
20
36.508624
30
0.0
11
-2.733629
21
36.429706
31
0.0
0
LINE
8
0
6
CONTINUOUS
10
-2.895891
20
36.604365
30
0.0
11
-2.895891
21
36.508624
31
0.0
0
LINE
8
0
6
CONTINUOUS
10
0.264909
20
35.368885
30
0.0
11
0.464744
21
35.327427
31
0.0
0
LINE
8
0
6
CONTINUOUS
10
0.264909
20
35.470609
30
0.0
11
0.264909
21
35.368885
31
0.0
0
LINE
8
0
6
CONTINUOUS
10
0.464744
20
35.327427
30
0.0
11
0.502318
21
35.207058
31
0.0
0
LINE
8
0
6
CONTINUOUS
10
0.464744
20
35.431926
30
0.0
11
0.464744
21
35.327427
31
0.0
0
LINE
8
0
6
CONTINUOUS
10
0.297781
20
35.677776
30
0.0
11
0.497616
21
35.636318
31
0.0
0
LINE
8
0
6
CONTINUOUS
10
0.297781
20
35.784742
30
0.0
11
0.297781
21
35.677776
31
0.0
0
LINE
8
0
6
CONTINUOUS
10
0.497616
20
35.636318
30
0.0
11
0.535189
21
35.515949
31
0.0
0
LINE
8
0
6
CONTINUOUS
10
0.497616
20
35.744481
30
0.0
11
0.497616
21
35.636318
31
0.0
0
LINE
8
0
6
CONTINUOUS
10
1.387330
20
36.675006
30
0.0
11
1.387330
21
36.785973
31
0.0
0
LINE
8
0
6
CONTINUOUS
10
1.349757
20
36.554637
30
0.0
11
1.387330
21
36.675006
31
0.0
0
LINE
8
0
6
CONTINUOUS
10
1.349757
20
36.675568
30
0.0
11
1.349757
21
36.554637
31
0.0
0
LINE
8
0
6
CONTINUOUS
10
3.993538
20
35.851711
30
0.0
11
4.193373
21
35.810268
31
0.0
0
LINE
8
0
6
CONTINUOUS
10
3.831275
20
35.772801
30
0.0
11
3.993538
21
35.851711
31
0.0
0
LINE
8
0
6
CONTINUOUS
10
3.831275
20
35.852123
30
0.0
11
3.831275
21
35.772801
31
0.0
0
LINE
8
0
6
CONTINUOUS
10
4.146574
20
36.053745
30
0.0
11
4.146574
21
36.361593
31
0.0
0
LINE
8
0
6
CONTINUOUS
10
4.109001
20
36.174122
30
0.0
11
4.146574
21
36.053745
31
0.0
0
LINE
8
0
6
CONTINUOUS
10
4.109001
20
36.311357
30
0.0
11
4.109001
21
36.174122
31
0.0
0
LINE
8
0
6
CONTINUOUS
10
3.550034
20
36.535319
30
0.0
11
3.712296
21
36.614246
31
0.0
0
LINE
8
0
6
CONTINUOUS
10
3.550034
20
36.623448
30
0.0
11
3.550034
21
36.535319
31
0.0
0
LINE
8
0
6
CONTINUOUS
10
2.829851
20
36.341594
30
0.0
11
2.829851
21
36.476723
31
0.0
0
LINE
8
0
6
CONTINUOUS
10
2.667589
20
36.420520
30
0.0
11
2.829851
21
36.341594
31
0.0
0
LINE
8
0
6
CONTINUOUS
10
2.667589
20
36.420520
30
0.0
11
2.667589
21
36.530226
31
0.0
0
LINE
8
0
6
CONTINUOUS
10
2.467753
20
36.379062
30
0.0
11
2.667589
21
36.420520
31
0.0
0
LINE
8
0
6
CONTINUOUS
10
2.467753
20
36.478101
30
0.0
11
2.467753
21
36.379062
31
0.0
0
LINE
8
0
6
CONTINUOUS
10
3.068906
20
35.608837
30
0.0
11
3.068906
21
35.753179
31
0.0
0
LINE
8
0
6
CONTINUOUS
10
2.906644
20
35.687756
30
0.0
11
3.068906
21
35.608837
31
0.0
0
LINE
8
0
6
CONTINUOUS
10
2.906644
20
35.687756
30
0.0
11
2.906644
21
35.801345
31
0.0
0
LINE
8
0
6
CONTINUOUS
10
2.706809
20
35.646305
30
0.0
11
2.906644
21
35.687756
31
0.0
0
LINE
8
0
6
CONTINUOUS
10
2.706809
20
35.646305
30
0.0
11
2.706809
21
35.749916
31
0.0
0
LINE
8
0
6
CONTINUOUS
10
2.669236
20
35.525929
30
0.0
11
2.706809
21
35.646305
31
0.0
0
LINE
8
0
6
CONTINUOUS
10
2.669236
20
35.642663
30
0.0
11
2.669236
21
35.525929
31
0.0
0
LINE
8
0
6
CONTINUOUS
10
4.187802
20
37.253703
30
0.0
11
4.187802
21
37.400541
31
0.0
0
LINE
8
0
6
CONTINUOUS
10
4.025539
20
37.332622
30
0.0
11
4.187802
21
37.253703
31
0.0
0
LINE
8
0
6
CONTINUOUS
10
4.025539
20
37.450914
30
0.0
11
4.025539
21
37.332622
31
0.0
0
LINE
8
0
6
CONTINUOUS
10
3.449062
20
36.985026
30
0.0
11
3.449062
21
37.122123
31
0.0
0
LINE
8
0
6
CONTINUOUS
10
3.286800
20
37.063945
30
0.0
11
3.449062
21
36.985026
31
0.0
0
LINE
8
0
6
CONTINUOUS
10
3.286800
20
37.182635
30
0.0
11
3.286800
21
37.063945
31
0.0
0
LINE
8
0
6
CONTINUOUS
10
1.495204
20
39.713481
30
0.0
11
1.704586
21
39.734042
31
0.0
0
LINE
8
0
6
CONTINUOUS
10
1.495204
20
39.713481
30
0.0
11
1.495204
21
39.833468
31
0.0
0
LINE
8
0
6
CONTINUOUS
10
1.421442
20
39.598788
30
0.0
11
1.495204
21
39.713481
31
0.0
0
LINE
8
0
6
CONTINUOUS
10
1.421442
20
39.689347
30
0.0
11
1.421442
21
39.598788
31
0.0
0
LINE
8
0
6
CONTINUOUS
10
1.840207
20
39.639926
30
0.0
11
1.840207
21
39.750900
31
0.0
0
LINE
8
0
6
CONTINUOUS
10
1.704586
20
39.734042
30
0.0
11
1.840207
21
39.639926
31
0.0
0
LINE
8
0
6
CONTINUOUS
10
1.704586
20
39.864241
30
0.0
11
1.704586
21
39.734042
31
0.0
0
LINE
8
0
6
CONTINUOUS
10
3.009416
20
39.461284
30
0.0
11
3.009416
21
39.593302
31
0.0
0
LINE
8
0
6
CONTINUOUS
10
2.797208
20
39.466571
30
0.0
11
3.009416
21
39.461284
31
0.0
0
LINE
8
0
6
CONTINUOUS
10
2.797208
20
39.466571
30
0.0
11
2.797208
21
39.585143
31
0.0
0
LINE
8
0
6
CONTINUOUS
10
2.683152
20
39.363399
30
0.0
11
2.797208
21
39.466571
31
0.0
0
LINE
8
0
6
CONTINUOUS
10
2.683152
20
39.445630
30
0.0
11
2.683152
21
39.363399
31
0.0
0
LINE
8
0
6
CONTINUOUS
10
2.162682
20
39.060527
30
0.0
11
2.374889
21
39.055240
31
0.0
0
LINE
8
0
6
CONTINUOUS
10
2.162682
20
39.187437
30
0.0
11
2.162682
21
39.060527
31
0.0
0
LINE
8
0
6
CONTINUOUS
10
2.473042
20
38.946788
30
0.0
11
2.473042
21
39.058649
31
0.0
0
LINE
8
0
6
CONTINUOUS
10
2.374889
20
39.055240
30
0.0
11
2.473042
21
38.946788
31
0.0
0
LINE
8
0
6
CONTINUOUS
10
2.374889
20
39.186218
30
0.0
11
2.374889
21
39.055240
31
0.0
0
LINE
8
0
6
CONTINUOUS
10
1.528155
20
38.695102
30
0.0
11
1.740361
21
38.689815
31
0.0
0
LINE
8
0
6
CONTINUOUS
10
1.528155
20
38.815936
30
0.0
11
1.528155
21
38.695102
31
0.0
0
LINE
8
0
6
CONTINUOUS
10
1.838515
20
38.581355
30
0.0
11
1.838515
21
38.693958
31
0.0
0
LINE
8
0
6
CONTINUOUS
10
1.740361
20
38.689815
30
0.0
11
1.838515
21
38.581355
31
0.0
0
LINE
8
0
6
CONTINUOUS
10
1.740361
20
38.816368
30
0.0
11
1.740361
21
38.689815
31
0.0
0
LINE
8
0
6
CONTINUOUS
10
0.893628
20
38.355777
30
0.0
11
1.105835
21
38.350490
31
0.0
0
LINE
8
0
6
CONTINUOUS
10
0.893628
20
38.355777
30
0.0
11
0.893628
21
38.483274
31
0.0
0
LINE
8
0
6
CONTINUOUS
10
0.779572
20
38.252605
30
0.0
11
0.893628
21
38.355777
31
0.0
0
LINE
8
0
6
CONTINUOUS
10
0.779572
20
38.369646
30
0.0
11
0.779572
21
38.252605
31
0.0
0
LINE
8
0
6
CONTINUOUS
10
1.105835
20
38.350490
30
0.0
11
1.203988
21
38.242030
31
0.0
0
LINE
8
0
6
CONTINUOUS
10
1.105835
20
38.475535
30
0.0
11
1.105835
21
38.350490
31
0.0
0
LINE
8
0
6
CONTINUOUS
10
4.059393
20
39.001437
30
0.0
11
4.059393
21
39.151213
31
0.0
0
LINE
8
0
6
CONTINUOUS
10
3.853879
20
39.032336
30
0.0
11
4.059393
21
39.001437
31
0.0
0
LINE
8
0
6
CONTINUOUS
10
3.853879
20
39.150405
30
0.0
11
3.853879
21
39.032336
31
0.0
0
LINE
8
0
6
CONTINUOUS
10
4.740682
20
38.202960
30
0.0
11
4.740682
21
38.339188
31
0.0
0
LINE
8
0
6
CONTINUOUS
10
4.728796
20
38.325069
30
0.0
11
4.740682
21
38.202960
31
0.0
0
LINE
8
0
6
CONTINUOUS
10
4.728796
20
38.464681
30
0.0
11
4.728796
21
38.325069
31
0.0
0
LINE
8
0
6
CONTINUOUS
10
5.356294
20
38.538547
30
0.0
11
5.356294
21
38.681721
31
0.0
0
LINE
8
0
6
CONTINUOUS
10
5.344410
20
38.660655
30
0.0
11
5.356294
21
38.538547
31
0.0
0
LINE
8
0
6
CONTINUOUS
10
5.344410
20
38.820257
30
0.0
11
5.344410
21
38.660655
31
0.0
0
LINE
8
0
6
CONTINUOUS
10
5.181239
20
37.128787
30
0.0
11
5.343502
21
37.207713
31
0.0
0
LINE
8
0
6
CONTINUOUS
10
5.181239
20
37.200417
30
0.0
11
5.181239
21
37.128787
31
0.0
0
LINE
8
0
6
CONTINUOUS
10
3.481301
20
36.068974
30
0.0
11
3.778944
21
36.267123
31
0.0
0
LINE
8
0
6
CONTINUOUS
10
3.408782
20
36.028370
30
0.0
11
3.481301
21
36.068974
31
0.0
0
LINE
8
0
6
CONTINUOUS
10
3.697796
20
36.220775
30
0.0
11
3.408782
21
36.028370
31
0.0
0
LINE
8
0
6
CONTINUOUS
10
3.778944
20
36.267123
30
0.0
11
4.031915
21
36.486568
31
0.0
0
LINE
8
0
6
CONTINUOUS
10
3.943409
20
36.433833
30
0.0
11
3.697796
21
36.220775
31
0.0
0
LINE
8
0
6
CONTINUOUS
10
4.031915
20
36.486568
30
0.0
11
4.236012
21
36.724872
31
0.0
0
LINE
8
0
6
CONTINUOUS
10
4.141542
20
36.665172
30
0.0
11
3.943409
21
36.433833
31
0.0
0
LINE
8
0
6
CONTINUOUS
10
4.236012
20
36.724872
30
0.0
11
4.387011
21
36.979541
31
0.0
0
LINE
8
0
6
CONTINUOUS
10
4.288115
20
36.912356
30
0.0
11
4.141542
21
36.665172
31
0.0
0
LINE
8
0
6
CONTINUOUS
10
4.387011
20
36.979541
30
0.0
11
4.480683
21
37.248088
31
0.0
0
LINE
8
0
6
CONTINUOUS
10
4.379051
20
37.173045
30
0.0
11
4.288115
21
36.912356
31
0.0
0
LINE
8
0
6
CONTINUOUS
10
4.480683
20
37.248088
30
0.0
11
4.512826
21
37.527919
31
0.0
0
LINE
8
0
6
CONTINUOUS
10
4.410268
20
37.444820
30
0.0
11
4.379051
21
37.173045
31
0.0
0
LINE
8
0
6
CONTINUOUS
10
4.512826
20
37.527919
30
0.0
11
4.480683
21
37.807757
31
0.0
0
LINE
8
0
6
CONTINUOUS
10
4.379050
20
37.716594
30
0.0
11
4.410268
21
37.444820
31
0.0
0
LINE
8
0
6
CONTINUOUS
10
4.480683
20
37.807757
30
0.0
11
4.387011
21
38.076297
31
0.0
0
LINE
8
0
6
CONTINUOUS
10
4.288115
20
37.977275
30
0.0
11
4.379050
21
37.716594
31
0.0
0
LINE
8
0
6
CONTINUOUS
10
4.387011
20
38.076297
30
0.0
11
4.236012
21
38.330966
31
0.0
0
LINE
8
0
6
CONTINUOUS
10
4.141541
20
38.224467
30
0.0
11
4.288115
21
37.977275
31
0.0
0
LINE
8
0
6
CONTINUOUS
10
4.236012
20
38.330966
30
0.0
11
4.031914
21
38.569270
31
0.0
0
LINE
8
0
6
CONTINUOUS
10
3.943409
20
38.455798
30
0.0
11
4.141541
21
38.224467
31
0.0
0
LINE
8
0
6
CONTINUOUS
10
4.031914
20
38.569270
30
0.0
11
3.778944
21
38.788722
31
0.0
0
LINE
8
0
6
CONTINUOUS
10
3.697796
20
38.668864
30
0.0
11
3.943409
21
38.455798
31
0.0
0
LINE
8
0
6
CONTINUOUS
10
3.778944
20
38.788722
30
0.0
11
3.481300
21
38.986865
31
0.0
0
LINE
8
0
6
CONTINUOUS
10
3.408780
20
38.861270
30
0.0
11
3.697796
21
38.668864
31
0.0
0
LINE
8
0
6
CONTINUOUS
10
3.481300
20
38.986865
30
0.0
11
3.143157
21
39.161296
31
0.0
0
LINE
8
0
6
CONTINUOUS
10
3.080444
20
39.030635
30
0.0
11
3.408780
21
38.861270
31
0.0
0
LINE
8
0
6
CONTINUOUS
10
3.143157
20
39.161296
30
0.0
11
2.768678
21
39.309543
31
0.0
0
LINE
8
0
6
CONTINUOUS
10
2.716862
20
39.174571
30
0.0
11
3.080444
21
39.030635
31
0.0
0
LINE
8
0
6
CONTINUOUS
10
2.768678
20
39.309543
30
0.0
11
2.362035
21
39.429149
31
0.0
0
LINE
8
0
6
CONTINUOUS
10
2.322116
20
39.290683
30
0.0
11
2.716862
21
39.174571
31
0.0
0
LINE
8
0
6
CONTINUOUS
10
2.362035
20
39.429149
30
0.0
11
1.927444
21
39.517627
31
0.0
0
LINE
8
0
6
CONTINUOUS
10
1.900283
20
39.376575
30
0.0
11
2.322116
21
39.290683
31
0.0
0
LINE
8
0
6
CONTINUOUS
10
1.455443
20
39.429866
30
0.0
11
1.900283
21
39.376575
31
0.0
0
LINE
8
0
6
CONTINUOUS
10
1.469189
20
39.572528
30
0.0
11
0.991675
21
39.591357
31
0.0
0
LINE
8
0
6
CONTINUOUS
10
0.991675
20
39.448154
30
0.0
11
1.455443
21
39.429866
31
0.0
0
LINE
8
0
6
CONTINUOUS
10
0.991675
20
39.591357
30
0.0
11
0.514162
21
39.572528
31
0.0
0
LINE
8
0
6
CONTINUOUS
10
0.527907
20
39.429866
30
0.0
11
0.991675
21
39.448154
31
0.0
0
LINE
8
0
6
CONTINUOUS
10
0.083067
20
39.376575
30
0.0
11
0.527907
21
39.429866
31
0.0
0
LINE
8
0
6
CONTINUOUS
10
0.055906
20
39.517627
30
0.0
11
-0.378685
21
39.429149
31
0.0
0
LINE
8
0
6
CONTINUOUS
10
-0.338766
20
39.290683
30
0.0
11
0.083067
21
39.376575
31
0.0
0
LINE
8
0
6
CONTINUOUS
10
-0.378685
20
39.429149
30
0.0
11
-0.785328
21
39.309543
31
0.0
0
LINE
8
0
6
CONTINUOUS
10
-0.733512
20
39.174571
30
0.0
11
-0.338766
21
39.290683
31
0.0
0
LINE
8
0
6
CONTINUOUS
10
-0.785328
20
39.309543
30
0.0
11
-1.159807
21
39.161296
31
0.0
0
LINE
8
0
6
CONTINUOUS
10
-1.097093
20
39.030635
30
0.0
11
-0.733512
21
39.174571
31
0.0
0
LINE
8
0
6
CONTINUOUS
10
-1.159807
20
39.161296
30
0.0
11
-1.497950
21
38.986865
31
0.0
0
LINE
8
0
6
CONTINUOUS
10
-1.425431
20
38.861270
30
0.0
11
-1.097093
21
39.030635
31
0.0
0
LINE
8
0
6
CONTINUOUS
10
-1.497950
20
38.986865
30
0.0
11
-1.795594
21
38.788722
31
0.0
0
LINE
8
0
6
CONTINUOUS
10
-1.714446
20
38.668864
30
0.0
11
-1.425431
21
38.861270
31
0.0
0
LINE
8
0
6
CONTINUOUS
10
-1.795594
20
38.788722
30
0.0
11
-2.048564
21
38.569270
31
0.0
0
LINE
8
0
6
CONTINUOUS
10
-1.960059
20
38.455798
30
0.0
11
-1.714446
21
38.668864
31
0.0
0
LINE
8
0
6
CONTINUOUS
10
-2.048564
20
38.569270
30
0.0
11
-2.252661
21
38.330966
31
0.0
0
LINE
8
0
6
CONTINUOUS
10
-2.158192
20
38.224467
30
0.0
11
-1.960059
21
38.455798
31
0.0
0
LINE
8
0
6
CONTINUOUS
10
-2.252661
20
38.330966
30
0.0
11
-2.403661
21
38.076297
31
0.0
0
LINE
8
0
6
CONTINUOUS
10
-2.304765
20
37.977275
30
0.0
11
-2.158192
21
38.224467
31
0.0
0
LINE
8
0
6
CONTINUOUS
10
-2.403661
20
38.076297
30
0.0
11
-2.497332
21
37.807757
31
0.0
0
LINE
8
0
6
CONTINUOUS
10
-2.395700
20
37.716594
30
0.0
11
-2.304765
21
37.977275
31
0.0
0
LINE
8
0
6
CONTINUOUS
10
-2.497332
20
37.807757
30
0.0
11
-2.529476
21
37.527919
31
0.0
0
LINE
8
0
6
CONTINUOUS
10
-2.426918
20
37.444820
30
0.0
11
-2.395700
21
37.716594
31
0.0
0
LINE
8
0
6
CONTINUOUS
10
-2.529476
20
37.527919
30
0.0
11
-2.497332
21
37.248088
31
0.0
0
LINE
8
0
6
CONTINUOUS
10
-2.395700
20
37.173045
30
0.0
11
-2.426918
21
37.444820
31
0.0
0
LINE
8
0
6
CONTINUOUS
10
-2.497332
20
37.248088
30
0.0
11
-2.403661
21
36.979541
31
0.0
0
LINE
8
0
6
CONTINUOUS
10
-2.304765
20
36.912356
30
0.0
11
-2.395700
21
37.173045
31
0.0
0
LINE
8
0
6
CONTINUOUS
10
-2.403661
20
36.979541
30
0.0
11
-2.252661
21
36.724872
31
0.0
0
LINE
8
0
6
CONTINUOUS
10
-2.158191
20
36.665172
30
0.0
11
-2.304765
21
36.912356
31
0.0
0
LINE
8
0
6
CONTINUOUS
10
-2.252661
20
36.724872
30
0.0
11
-2.048564
21
36.486568
31
0.0
0
LINE
8
0
6
CONTINUOUS
10
-1.960058
20
36.433833
30
0.0
11
-2.158191
21
36.665172
31
0.0
0
LINE
8
0
6
CONTINUOUS
10
-2.048564
20
36.486568
30
0.0
11
-1.795594
21
36.267123
31
0.0
0
LINE
8
0
6
CONTINUOUS
10
-1.714445
20
36.220775
30
0.0
11
-1.960058
21
36.433833
31
0.0
0
LINE
8
0
6
CONTINUOUS
10
-1.497950
20
36.068974
30
0.0
11
-1.425431
21
36.028370
31
0.0
0
LINE
8
0
6
CONTINUOUS
10
-1.795594
20
36.267123
30
0.0
11
-1.497950
21
36.068974
31
0.0
0
LINE
8
0
6
CONTINUOUS
10
-1.425431
20
36.028370
30
0.0
11
-1.714445
21
36.220775
31
0.0
0
LINE
8
0
6
CONTINUOUS
10
2.279912
20
36.390498
30
0.0
11
2.482381
21
36.493114
31
0.0
0
LINE
8
0
6
CONTINUOUS
10
2.237916
20
36.371593
30
0.0
11
2.279912
21
36.390498
31
0.0
0
LINE
8
0
6
CONTINUOUS
10
2.433816
20
36.470874
30
0.0
11
2.237916
21
36.371593
31
0.0
0
LINE
8
0
6
CONTINUOUS
10
2.482381
20
36.493114
30
0.0
11
2.660600
21
36.609698
31
0.0
0
LINE
8
0
6
CONTINUOUS
10
2.606252
20
36.583675
30
0.0
11
2.433816
21
36.470874
31
0.0
0
LINE
8
0
6
CONTINUOUS
10
2.660600
20
36.609698
30
0.0
11
2.812070
21
36.738803
31
0.0
0
LINE
8
0
6
CONTINUOUS
10
2.812070
20
36.738803
30
0.0
11
2.934277
21
36.879001
31
0.0
0
LINE
8
0
6
CONTINUOUS
10
2.871008
20
36.844188
30
0.0
11
2.752795
21
36.708575
31
0.0
0
LINE
8
0
6
CONTINUOUS
10
2.934277
20
36.879001
30
0.0
11
3.024690
21
37.028827
31
0.0
0
LINE
8
0
6
CONTINUOUS
10
2.958460
20
36.989101
30
0.0
11
2.871008
21
36.844188
31
0.0
0
LINE
8
0
6
CONTINUOUS
10
3.024690
20
37.028827
30
0.0
11
3.080778
21
37.186824
31
0.0
0
LINE
8
0
6
CONTINUOUS
10
3.012716
20
37.141917
30
0.0
11
2.958460
21
36.989101
31
0.0
0
LINE
8
0
6
CONTINUOUS
10
3.080778
20
37.186824
30
0.0
11
3.100024
21
37.351451
31
0.0
0
LINE
8
0
6
CONTINUOUS
10
3.031341
20
37.301234
30
0.0
11
3.012716
21
37.141917
31
0.0
0
LINE
8
0
6
CONTINUOUS
10
3.100024
20
37.351451
30
0.0
11
3.080778
21
37.516078
31
0.0
0
LINE
8
0
6
CONTINUOUS
10
3.012716
20
37.460567
30
0.0
11
3.031341
21
37.301234
31
0.0
0
LINE
8
0
6
CONTINUOUS
10
3.080778
20
37.516078
30
0.0
11
3.024690
21
37.674068
31
0.0
0
LINE
8
0
6
CONTINUOUS
10
2.958460
20
37.613383
30
0.0
11
3.012716
21
37.460567
31
0.0
0
LINE
8
0
6
CONTINUOUS
10
3.024690
20
37.674068
30
0.0
11
2.934277
21
37.823894
31
0.0
0
LINE
8
0
6
CONTINUOUS
10
2.871008
20
37.758288
30
0.0
11
2.958460
21
37.613383
31
0.0
0
LINE
8
0
6
CONTINUOUS
10
2.934277
20
37.823894
30
0.0
11
2.812070
21
37.964091
31
0.0
0
LINE
8
0
6
CONTINUOUS
10
2.752795
20
37.893909
30
0.0
11
2.871008
21
37.758288
31
0.0
0
LINE
8
0
6
CONTINUOUS
10
2.812070
20
37.964091
30
0.0
11
2.660600
21
38.093188
31
0.0
0
LINE
8
0
6
CONTINUOUS
10
2.606251
20
38.018809
30
0.0
11
2.752795
21
37.893909
31
0.0
0
LINE
8
0
6
CONTINUOUS
10
2.660600
20
38.093188
30
0.0
11
2.482380
21
38.209773
31
0.0
0
LINE
8
0
6
CONTINUOUS
10
2.433816
20
38.131602
30
0.0
11
2.606251
21
38.018809
31
0.0
0
LINE
8
0
6
CONTINUOUS
10
2.482380
20
38.209773
30
0.0
11
2.279912
21
38.312389
31
0.0
0
LINE
8
0
6
CONTINUOUS
10
2.237916
20
38.230884
30
0.0
11
2.433816
21
38.131602
31
0.0
0
LINE
8
0
6
CONTINUOUS
10
2.279912
20
38.312389
30
0.0
11
2.055686
21
38.399600
31
0.0
0
LINE
8
0
6
CONTINUOUS
10
2.020989
20
38.315265
30
0.0
11
2.237916
21
38.230884
31
0.0
0
LINE
8
0
6
CONTINUOUS
10
2.055686
20
38.399600
30
0.0
11
1.812201
21
38.469966
31
0.0
0
LINE
8
0
6
CONTINUOUS
10
1.785468
20
38.383327
30
0.0
11
2.020989
21
38.315265
31
0.0
0
LINE
8
0
6
CONTINUOUS
10
1.533787
20
38.433688
30
0.0
11
1.785468
21
38.383327
31
0.0
0
LINE
8
0
6
CONTINUOUS
10
1.551983
20
38.522029
30
0.0
11
1.277594
21
38.554324
31
0.0
0
LINE
8
0
6
CONTINUOUS
10
1.268377
20
38.464923
30
0.0
11
1.533787
21
38.433688
31
0.0
0
LINE
8
0
6
CONTINUOUS
10
1.277594
20
38.554324
30
0.0
11
0.991675
21
38.565402
31
0.0
0
LINE
8
0
6
CONTINUOUS
10
0.991675
20
38.475650
30
0.0
11
1.268377
21
38.464923
31
0.0
0
LINE
8
0
6
CONTINUOUS
10
0.991675
20
38.565402
30
0.0
11
0.705756
21
38.554324
31
0.0
0
LINE
8
0
6
CONTINUOUS
10
0.714973
20
38.464923
30
0.0
11
0.991675
21
38.475650
31
0.0
0
LINE
8
0
6
CONTINUOUS
10
0.705756
20
38.554324
30
0.0
11
0.431368
21
38.522029
31
0.0
0
LINE
8
0
6
CONTINUOUS
10
0.449564
20
38.433681
30
0.0
11
0.714973
21
38.464923
31
0.0
0
LINE
8
0
6
CONTINUOUS
10
0.197882
20
38.383327
30
0.0
11
0.449564
21
38.433681
31
0.0
0
LINE
8
0
6
CONTINUOUS
10
0.171148
20
38.469966
30
0.0
11
-0.072335
21
38.399600
31
0.0
0
LINE
8
0
6
CONTINUOUS
10
-0.037639
20
38.315265
30
0.0
11
0.197882
21
38.383327
31
0.0
0
LINE
8
0
6
CONTINUOUS
10
-0.072335
20
38.399600
30
0.0
11
-0.296562
21
38.312389
31
0.0
0
LINE
8
0
6
CONTINUOUS
10
-0.254565
20
38.230884
30
0.0
11
-0.037639
21
38.315265
31
0.0
0
LINE
8
0
6
CONTINUOUS
10
-0.296562
20
38.312389
30
0.0
11
-0.499031
21
38.209773
31
0.0
0
LINE
8
0
6
CONTINUOUS
10
-0.450464
20
38.131602
30
0.0
11
-0.254565
21
38.230884
31
0.0
0
LINE
8
0
6
CONTINUOUS
10
-0.499031
20
38.209773
30
0.0
11
-0.677250
21
38.093188
31
0.0
0
LINE
8
0
6
CONTINUOUS
10
-0.622902
20
38.018809
30
0.0
11
-0.450464
21
38.131602
31
0.0
0
LINE
8
0
6
CONTINUOUS
10
-0.677250
20
38.093188
30
0.0
11
-0.828720
21
37.964091
31
0.0
0
LINE
8
0
6
CONTINUOUS
10
-0.769444
20
37.893909
30
0.0
11
-0.622902
21
38.018809
31
0.0
0
LINE
8
0
6
CONTINUOUS
10
-0.828720
20
37.964091
30
0.0
11
-0.950926
21
37.823894
31
0.0
0
LINE
8
0
6
CONTINUOUS
10
-0.887658
20
37.758288
30
0.0
11
-0.769444
21
37.893909
31
0.0
0
LINE
8
0
6
CONTINUOUS
10
-0.950926
20
37.823894
30
0.0
11
-1.041341
21
37.674068
31
0.0
0
LINE
8
0
6
CONTINUOUS
10
-0.975109
20
37.613383
30
0.0
11
-0.887658
21
37.758288
31
0.0
0
LINE
8
0
6
CONTINUOUS
10
-1.041341
20
37.674068
30
0.0
11
-1.097427
21
37.516078
31
0.0
0
LINE
8
0
6
CONTINUOUS
10
-1.029365
20
37.460567
30
0.0
11
-0.975109
21
37.613383
31
0.0
0
LINE
8
0
6
CONTINUOUS
10
-1.097427
20
37.516078
30
0.0
11
-1.116674
21
37.351451
31
0.0
0
LINE
8
0
6
CONTINUOUS
10
-1.047991
20
37.301234
30
0.0
11
-1.029365
21
37.460567
31
0.0
0
LINE
8
0
6
CONTINUOUS
10
-1.116674
20
37.351451
30
0.0
11
-1.097427
21
37.186824
31
0.0
0
LINE
8
0
6
CONTINUOUS
10
-1.029365
20
37.141917
30
0.0
11
-1.047991
21
37.301234
31
0.0
0
LINE
8
0
6
CONTINUOUS
10
-1.097427
20
37.186824
30
0.0
11
-1.041341
21
37.028827
31
0.0
0
LINE
8
0
6
CONTINUOUS
10
-0.975109
20
36.989101
30
0.0
11
-1.029365
21
37.141917
31
0.0
0
LINE
8
0
6
CONTINUOUS
10
-1.041341
20
37.028827
30
0.0
11
-0.950926
21
36.879001
31
0.0
0
LINE
8
0
6
CONTINUOUS
10
-0.887658
20
36.844188
30
0.0
11
-0.975109
21
36.989101
31
0.0
0
LINE
8
0
6
CONTINUOUS
10
-0.950926
20
36.879001
30
0.0
11
-0.828720
21
36.738803
31
0.0
0
LINE
8
0
6
CONTINUOUS
10
-0.769443
20
36.708575
30
0.0
11
-0.887658
21
36.844188
31
0.0
0
LINE
8
0
6
CONTINUOUS
10
-0.828720
20
36.738803
30
0.0
11
-0.677249
21
36.609698
31
0.0
0
LINE
8
0
6
CONTINUOUS
10
-0.677249
20
36.609698
30
0.0
11
-0.499031
21
36.493114
31
0.0
0
LINE
8
0
6
CONTINUOUS
10
-0.450464
20
36.470874
30
0.0
11
-0.622901
21
36.583675
31
0.0
0
LINE
8
0
6
CONTINUOUS
10
-0.296561
20
36.390498
30
0.0
11
-0.254565
21
36.371593
31
0.0
0
LINE
8
0
6
CONTINUOUS
10
-0.499031
20
36.493114
30
0.0
11
-0.296561
21
36.390498
31
0.0
0
LINE
8
0
6
CONTINUOUS
10
-0.254565
20
36.371593
30
0.0
11
-0.450464
21
36.470874
31
0.0
0
LINE
8
0
6
CONTINUOUS
10
3.286800
20
37.063945
30
0.0
11
3.086965
21
37.022494
31
0.0
0
LINE
8
0
6
CONTINUOUS
10
3.449062
20
36.985026
30
0.0
11
3.286800
21
37.063945
31
0.0
0
LINE
8
0
6
CONTINUOUS
10
3.411489
20
36.864650
30
0.0
11
3.449062
21
36.985026
31
0.0
0
LINE
8
0
6
CONTINUOUS
10
3.211654
20
36.823199
30
0.0
11
3.411489
21
36.864650
31
0.0
0
LINE
8
0
6
CONTINUOUS
10
3.049391
20
36.902125
30
0.0
11
3.211654
21
36.823199
31
0.0
0
LINE
8
0
6
CONTINUOUS
10
3.086965
20
37.022494
30
0.0
11
3.049391
21
36.902125
31
0.0
0
LINE
8
0
6
CONTINUOUS
10
0.426497
20
39.506557
30
0.0
11
0.562118
21
39.600680
31
0.0
0
LINE
8
0
6
CONTINUOUS
10
0.217114
20
39.527118
30
0.0
11
0.426497
21
39.506557
31
0.0
0
LINE
8
0
6
CONTINUOUS
10
0.143352
20
39.641811
30
0.0
11
0.217114
21
39.527118
31
0.0
0
LINE
8
0
6
CONTINUOUS
10
0.278974
20
39.735934
30
0.0
11
0.143352
21
39.641811
31
0.0
0
LINE
8
0
6
CONTINUOUS
10
0.488355
20
39.715373
30
0.0
11
0.278974
21
39.735934
31
0.0
0
LINE
8
0
6
CONTINUOUS
10
0.562118
20
39.600680
30
0.0
11
0.488355
21
39.715373
31
0.0
0
LINE
8
0
6
CONTINUOUS
10
-1.870319
20
39.042209
30
0.0
11
-2.075834
21
39.011302
31
0.0
0
LINE
8
0
6
CONTINUOUS
10
-1.721084
20
38.955180
30
0.0
11
-1.870319
21
39.042209
31
0.0
0
LINE
8
0
6
CONTINUOUS
10
-1.777364
20
38.837253
30
0.0
11
-1.721084
21
38.955180
31
0.0
0
LINE
8
0
6
CONTINUOUS
10
-1.982879
20
38.806354
30
0.0
11
-1.777364
21
38.837253
31
0.0
0
LINE
8
0
6
CONTINUOUS
10
-2.132115
20
38.893375
30
0.0
11
-1.982879
21
38.806354
31
0.0
0
LINE
8
0
6
CONTINUOUS
10
-2.075834
20
39.011302
30
0.0
11
-2.132115
21
38.893375
31
0.0
0
LINE
8
0
6
CONTINUOUS
10
2.178424
20
37.875995
30
0.0
11
2.327660
21
37.963023
31
0.0
0
LINE
8
0
6
CONTINUOUS
10
1.972909
20
37.906894
30
0.0
11
2.178424
21
37.875995
31
0.0
0
LINE
8
0
6
CONTINUOUS
10
1.916629
20
38.024821
30
0.0
11
1.972909
21
37.906894
31
0.0
0
LINE
8
0
6
CONTINUOUS
10
2.065864
20
38.111850
30
0.0
11
1.916629
21
38.024821
31
0.0
0
LINE
8
0
6
CONTINUOUS
10
2.271379
20
38.080951
30
0.0
11
2.065864
21
38.111850
31
0.0
0
LINE
8
0
6
CONTINUOUS
10
2.327660
20
37.963023
30
0.0
11
2.271379
21
38.080951
31
0.0
0
LINE
8
0
6
CONTINUOUS
10
2.467753
20
36.379062
30
0.0
11
2.430179
21
36.258693
31
0.0
0
LINE
8
0
6
CONTINUOUS
10
2.667589
20
36.420520
30
0.0
11
2.467753
21
36.379062
31
0.0
0
LINE
8
0
6
CONTINUOUS
10
2.829851
20
36.341594
30
0.0
11
2.667589
21
36.420520
31
0.0
0
LINE
8
0
6
CONTINUOUS
10
2.792278
20
36.221225
30
0.0
11
2.829851
21
36.341594
31
0.0
0
LINE
8
0
6
CONTINUOUS
10
2.592443
20
36.179775
30
0.0
11
2.792278
21
36.221225
31
0.0
0
LINE
8
0
6
CONTINUOUS
10
2.430179
20
36.258693
30
0.0
11
2.592443
21
36.179775
31
0.0
0
LINE
8
0
6
CONTINUOUS
10
4.879450
20
36.496135
30
0.0
11
4.717188
21
36.417209
31
0.0
0
LINE
8
0
6
CONTINUOUS
10
5.079286
20
36.454677
30
0.0
11
4.879450
21
36.496135
31
0.0
0
LINE
8
0
6
CONTINUOUS
10
5.116859
20
36.334308
30
0.0
11
5.079286
21
36.454677
31
0.0
0
LINE
8
0
6
CONTINUOUS
10
4.954597
20
36.255389
30
0.0
11
5.116859
21
36.334308
31
0.0
0
LINE
8
0
6
CONTINUOUS
10
4.754761
20
36.296840
30
0.0
11
4.954597
21
36.255389
31
0.0
0
LINE
8
0
6
CONTINUOUS
10
4.717188
20
36.417209
30
0.0
11
4.754761
21
36.296840
31
0.0
0
LINE
8
0
6
CONTINUOUS
10
-0.608882
20
36.184834
30
0.0
11
-0.446620
21
36.263759
31
0.0
0
LINE
8
0
6
CONTINUOUS
10
-0.808718
20
36.226283
30
0.0
11
-0.608882
21
36.184834
31
0.0
0
LINE
8
0
6
CONTINUOUS
10
-0.846291
20
36.346652
30
0.0
11
-0.808718
21
36.226283
31
0.0
0
LINE
8
0
6
CONTINUOUS
10
-0.684028
20
36.425578
30
0.0
11
-0.846291
21
36.346652
31
0.0
0
LINE
8
0
6
CONTINUOUS
10
-0.484193
20
36.384128
30
0.0
11
-0.684028
21
36.425578
31
0.0
0
LINE
8
0
6
CONTINUOUS
10
-0.446620
20
36.263759
30
0.0
11
-0.484193
21
36.384128
31
0.0
0
LINE
8
0
6
CONTINUOUS
10
2.781303
20
39.254932
30
0.0
11
2.993512
21
39.249644
31
0.0
0
LINE
8
0
6
CONTINUOUS
10
2.683152
20
39.363399
30
0.0
11
2.781303
21
39.254932
31
0.0
0
LINE
8
0
6
CONTINUOUS
10
2.797208
20
39.466571
30
0.0
11
2.683152
21
39.363399
31
0.0
0
LINE
8
0
6
CONTINUOUS
10
3.009416
20
39.461284
30
0.0
11
2.797208
21
39.466571
31
0.0
0
LINE
8
0
6
CONTINUOUS
10
3.107569
20
39.352824
30
0.0
11
3.009416
21
39.461284
31
0.0
0
LINE
8
0
6
CONTINUOUS
10
2.993512
20
39.249644
30
0.0
11
3.107569
21
39.352824
31
0.0
0
LINE
8
0
6
CONTINUOUS
10
-3.435086
20
36.980693
30
0.0
11
-3.235252
21
37.022143
31
0.0
0
LINE
8
0
6
CONTINUOUS
10
-3.597349
20
37.059619
30
0.0
11
-3.435086
21
36.980693
31
0.0
0
LINE
8
0
6
CONTINUOUS
10
-3.559776
20
37.179988
30
0.0
11
-3.597349
21
37.059619
31
0.0
0
LINE
8
0
6
CONTINUOUS
10
-3.359941
20
37.221438
30
0.0
11
-3.559776
21
37.179988
31
0.0
0
LINE
8
0
6
CONTINUOUS
10
-3.197678
20
37.142512
30
0.0
11
-3.359941
21
37.221438
31
0.0
0
LINE
8
0
6
CONTINUOUS
10
-3.235252
20
37.022143
30
0.0
11
-3.197678
21
37.142512
31
0.0
0
LINE
8
0
6
CONTINUOUS
10
-1.324407
20
37.811679
30
0.0
11
-1.514009
21
37.756549
31
0.0
0
LINE
8
0
6
CONTINUOUS
10
-1.146687
20
37.744693
30
0.0
11
-1.324407
21
37.811679
31
0.0
0
LINE
8
0
6
CONTINUOUS
10
-1.158571
20
37.622592
30
0.0
11
-1.146687
21
37.744693
31
0.0
0
LINE
8
0
6
CONTINUOUS
10
-1.348175
20
37.567454
30
0.0
11
-1.158571
21
37.622592
31
0.0
0
LINE
8
0
6
CONTINUOUS
10
-1.525895
20
37.634441
30
0.0
11
-1.348175
21
37.567454
31
0.0
0
LINE
8
0
6
CONTINUOUS
10
-1.514009
20
37.756549
30
0.0
11
-1.525895
21
37.634441
31
0.0
0
LINE
8
0
6
CONTINUOUS
10
0.471539
20
36.477519
30
0.0
11
0.633803
21
36.556445
31
0.0
0
LINE
8
0
6
CONTINUOUS
10
0.271705
20
36.518962
30
0.0
11
0.471539
21
36.477519
31
0.0
0
LINE
8
0
6
CONTINUOUS
10
0.234132
20
36.639339
30
0.0
11
0.271705
21
36.518962
31
0.0
0
LINE
8
0
6
CONTINUOUS
10
0.396394
20
36.718265
30
0.0
11
0.234132
21
36.639339
31
0.0
0
LINE
8
0
6
CONTINUOUS
10
0.596230
20
36.676814
30
0.0
11
0.396394
21
36.718265
31
0.0
0
LINE
8
0
6
CONTINUOUS
10
0.633803
20
36.556445
30
0.0
11
0.596230
21
36.676814
31
0.0
0
LINE
8
0
6
CONTINUOUS
10
3.909165
20
36.215579
30
0.0
11
3.746903
21
36.136654
31
0.0
0
LINE
8
0
6
CONTINUOUS
10
4.109001
20
36.174122
30
0.0
11
3.909165
21
36.215579
31
0.0
0
LINE
8
0
6
CONTINUOUS
10
4.146574
20
36.053745
30
0.0
11
4.109001
21
36.174122
31
0.0
0
LINE
8
0
6
CONTINUOUS
10
3.984312
20
35.974835
30
0.0
11
4.146574
21
36.053745
31
0.0
0
LINE
8
0
6
CONTINUOUS
10
3.784476
20
36.016277
30
0.0
11
3.984312
21
35.974835
31
0.0
0
LINE
8
0
6
CONTINUOUS
10
3.746903
20
36.136654
30
0.0
11
3.784476
21
36.016277
31
0.0
0
LINE
8
0
6
CONTINUOUS
10
1.610633
20
35.438839
30
0.0
11
1.810468
21
35.480282
31
0.0
0
LINE
8
0
6
CONTINUOUS
10
1.448370
20
35.517758
30
0.0
11
1.610633
21
35.438839
31
0.0
0
LINE
8
0
6
CONTINUOUS
10
1.485944
20
35.638134
30
0.0
11
1.448370
21
35.517758
31
0.0
0
LINE
8
0
6
CONTINUOUS
10
1.685779
20
35.679577
30
0.0
11
1.485944
21
35.638134
31
0.0
0
LINE
8
0
6
CONTINUOUS
10
1.848041
20
35.600666
30
0.0
11
1.685779
21
35.679577
31
0.0
0
LINE
8
0
6
CONTINUOUS
10
1.810468
20
35.480282
30
0.0
11
1.848041
21
35.600666
31
0.0
0
LINE
8
0
6
CONTINUOUS
10
0.839600
20
40.318812
30
0.0
11
0.776115
21
40.202106
31
0.0
0
LINE
8
0
6
CONTINUOUS
10
1.046886
20
40.345508
30
0.0
11
0.839600
21
40.318812
31
0.0
0
LINE
8
0
6
CONTINUOUS
10
1.190683
20
40.255504
30
0.0
11
1.046886
21
40.345508
31
0.0
0
LINE
8
0
6
CONTINUOUS
10
1.127196
20
40.138789
30
0.0
11
1.190683
21
40.255504
31
0.0
0
LINE
8
0
6
CONTINUOUS
10
0.919913
20
40.112094
30
0.0
11
1.127196
21
40.138789
31
0.0
0
LINE
8
0
6
CONTINUOUS
10
0.776115
20
40.202106
30
0.0
11
0.919913
21
40.112094
31
0.0
0
LINE
8
0
6
CONTINUOUS
10
3.142131
20
37.615489
30
0.0
11
3.331734
21
37.560359
31
0.0
0
LINE
8
0
6
CONTINUOUS
10
3.130247
20
37.737598
30
0.0
11
3.142131
21
37.615489
31
0.0
0
LINE
8
0
6
CONTINUOUS
10
3.307967
20
37.804576
30
0.0
11
3.130247
21
37.737598
31
0.0
0
LINE
8
0
6
CONTINUOUS
10
3.497569
20
37.749454
30
0.0
11
3.307967
21
37.804576
31
0.0
0
LINE
8
0
6
CONTINUOUS
10
3.509455
20
37.627345
30
0.0
11
3.497569
21
37.749454
31
0.0
0
LINE
8
0
6
CONTINUOUS
10
3.331734
20
37.560359
30
0.0
11
3.509455
21
37.627345
31
0.0
0
LINE
8
0
6
CONTINUOUS
10
-0.421931
20
39.977405
30
0.0
11
-0.212548
21
39.956836
31
0.0
0
LINE
8
0
6
CONTINUOUS
10
-0.495693
20
40.092090
30
0.0
11
-0.421931
21
39.977405
31
0.0
0
LINE
8
0
6
CONTINUOUS
10
-0.360071
20
40.186221
30
0.0
11
-0.495693
21
40.092090
31
0.0
0
LINE
8
0
6
CONTINUOUS
10
-0.150689
20
40.165652
30
0.0
11
-0.360071
21
40.186221
31
0.0
0
LINE
8
0
6
CONTINUOUS
10
-0.076928
20
40.050960
30
0.0
11
-0.150689
21
40.165652
31
0.0
0
LINE
8
0
6
CONTINUOUS
10
-0.212548
20
39.956836
30
0.0
11
-0.076928
21
40.050960
31
0.0
0
LINE
8
0
6
CONTINUOUS
10
-2.745237
20
38.335605
30
0.0
11
-2.757123
21
38.213496
31
0.0
0
LINE
8
0
6
CONTINUOUS
10
-2.555634
20
38.390727
30
0.0
11
-2.745237
21
38.335605
31
0.0
0
LINE
8
0
6
CONTINUOUS
10
-2.377914
20
38.323756
30
0.0
11
-2.555634
21
38.390727
31
0.0
0
LINE
8
0
6
CONTINUOUS
10
-2.389798
20
38.201640
30
0.0
11
-2.377914
21
38.323756
31
0.0
0
LINE
8
0
6
CONTINUOUS
10
-2.579402
20
38.146518
30
0.0
11
-2.389798
21
38.201640
31
0.0
0
LINE
8
0
6
CONTINUOUS
10
-2.757123
20
38.213496
30
0.0
11
-2.579402
21
38.146518
31
0.0
0
LINE
8
0
6
CONTINUOUS
10
0.893628
20
38.355777
30
0.0
11
0.832319
21
38.300320
31
0.0
0
LINE
8
0
6
CONTINUOUS
10
0.832319
20
38.300320
30
0.0
11
0.779572
21
38.252605
31
0.0
0
LINE
8
0
6
CONTINUOUS
10
1.105835
20
38.350490
30
0.0
11
0.893628
21
38.355777
31
0.0
0
LINE
8
0
6
CONTINUOUS
10
1.203988
20
38.242030
30
0.0
11
1.105835
21
38.350490
31
0.0
0
LINE
8
0
6
CONTINUOUS
10
1.089931
20
38.138858
30
0.0
11
1.203988
21
38.242030
31
0.0
0
LINE
8
0
6
CONTINUOUS
10
0.877723
20
38.144153
30
0.0
11
1.089931
21
38.138858
31
0.0
0
LINE
8
0
6
CONTINUOUS
10
0.779572
20
38.252605
30
0.0
11
0.784355
21
38.247320
31
0.0
0
LINE
8
0
6
CONTINUOUS
10
0.784355
20
38.247320
30
0.0
11
0.877723
21
38.144153
31
0.0
0
LINE
8
0
6
CONTINUOUS
10
1.718650
20
35.357494
30
0.0
11
1.518815
21
35.316052
31
0.0
0
LINE
8
0
6
CONTINUOUS
10
1.880912
20
35.278576
30
0.0
11
1.718650
21
35.357494
31
0.0
0
LINE
8
0
6
CONTINUOUS
10
1.843340
20
35.158199
30
0.0
11
1.880912
21
35.278576
31
0.0
0
LINE
8
0
6
CONTINUOUS
10
1.643504
20
35.116749
30
0.0
11
1.843340
21
35.158199
31
0.0
0
LINE
8
0
6
CONTINUOUS
10
1.481242
20
35.195675
30
0.0
11
1.643504
21
35.116749
31
0.0
0
LINE
8
0
6
CONTINUOUS
10
1.518815
20
35.316052
30
0.0
11
1.481242
21
35.195675
31
0.0
0
LINE
8
0
6
CONTINUOUS
10
-2.041980
20
37.342166
30
0.0
11
-2.204242
21
37.263255
31
0.0
0
LINE
8
0
6
CONTINUOUS
10
-1.842145
20
37.300723
30
0.0
11
-2.041980
21
37.342166
31
0.0
0
LINE
8
0
6
CONTINUOUS
10
-1.804572
20
37.180347
30
0.0
11
-1.842145
21
37.300723
31
0.0
0
LINE
8
0
6
CONTINUOUS
10
-1.966834
20
37.101420
30
0.0
11
-1.804572
21
37.180347
31
0.0
0
LINE
8
0
6
CONTINUOUS
10
-2.166670
20
37.142879
30
0.0
11
-1.966834
21
37.101420
31
0.0
0
LINE
8
0
6
CONTINUOUS
10
-2.204242
20
37.263255
30
0.0
11
-2.166670
21
37.142879
31
0.0
0
LINE
8
0
6
CONTINUOUS
10
1.528155
20
38.695102
30
0.0
11
1.414099
21
38.591930
31
0.0
0
LINE
8
0
6
CONTINUOUS
10
1.740361
20
38.689815
30
0.0
11
1.528155
21
38.695102
31
0.0
0
LINE
8
0
6
CONTINUOUS
10
1.838515
20
38.581355
30
0.0
11
1.740361
21
38.689815
31
0.0
0
LINE
8
0
6
CONTINUOUS
10
1.724457
20
38.478183
30
0.0
11
1.838515
21
38.581355
31
0.0
0
LINE
8
0
6
CONTINUOUS
10
1.512250
20
38.483470
30
0.0
11
1.724457
21
38.478183
31
0.0
0
LINE
8
0
6
CONTINUOUS
10
1.414099
20
38.591930
30
0.0
11
1.512250
21
38.483470
31
0.0
0
LINE
8
0
6
CONTINUOUS
10
-2.466323
20
39.367702
30
0.0
11
-2.671838
21
39.336795
31
0.0
0
LINE
8
0
6
CONTINUOUS
10
-2.317089
20
39.280673
30
0.0
11
-2.466323
21
39.367702
31
0.0
0
LINE
8
0
6
CONTINUOUS
10
-2.373368
20
39.162746
30
0.0
11
-2.317089
21
39.280673
31
0.0
0
LINE
8
0
6
CONTINUOUS
10
-2.578884
20
39.131839
30
0.0
11
-2.373368
21
39.162746
31
0.0
0
LINE
8
0
6
CONTINUOUS
10
-2.728120
20
39.218867
30
0.0
11
-2.578884
21
39.131839
31
0.0
0
LINE
8
0
6
CONTINUOUS
10
-2.671838
20
39.336795
30
0.0
11
-2.728120
21
39.218867
31
0.0
0
LINE
8
0
6
CONTINUOUS
10
2.548060
20
36.807353
30
0.0
11
2.348225
21
36.765910
31
0.0
0
LINE
8
0
6
CONTINUOUS
10
2.710322
20
36.728435
30
0.0
11
2.548060
21
36.807353
31
0.0
0
LINE
8
0
6
CONTINUOUS
10
2.672750
20
36.608058
30
0.0
11
2.710322
21
36.728435
31
0.0
0
LINE
8
0
6
CONTINUOUS
10
2.472914
20
36.566608
30
0.0
11
2.672750
21
36.608058
31
0.0
0
LINE
8
0
6
CONTINUOUS
10
2.310652
20
36.645534
30
0.0
11
2.472914
21
36.566608
31
0.0
0
LINE
8
0
6
CONTINUOUS
10
2.348225
20
36.765910
30
0.0
11
2.310652
21
36.645534
31
0.0
0
LINE
8
0
6
CONTINUOUS
10
0.243197
20
38.691745
30
0.0
11
0.145045
21
38.583278
31
0.0
0
LINE
8
0
6
CONTINUOUS
10
0.455405
20
38.697024
30
0.0
11
0.243197
21
38.691745
31
0.0
0
LINE
8
0
6
CONTINUOUS
10
0.569461
20
38.593852
30
0.0
11
0.455405
21
38.697024
31
0.0
0
LINE
8
0
6
CONTINUOUS
10
0.471310
20
38.485393
30
0.0
11
0.569461
21
38.593852
31
0.0
0
LINE
8
0
6
CONTINUOUS
10
0.259102
20
38.480105
30
0.0
11
0.471310
21
38.485393
31
0.0
0
LINE
8
0
6
CONTINUOUS
10
0.145045
20
38.583278
30
0.0
11
0.259102
21
38.480105
31
0.0
0
LINE
8
0
6
CONTINUOUS
10
4.562961
20
38.135982
30
0.0
11
4.740682
21
38.202960
31
0.0
0
LINE
8
0
6
CONTINUOUS
10
4.373358
20
38.191112
30
0.0
11
4.562961
21
38.135982
31
0.0
0
LINE
8
0
6
CONTINUOUS
10
4.361474
20
38.313220
30
0.0
11
4.373358
21
38.191112
31
0.0
0
LINE
8
0
6
CONTINUOUS
10
4.539194
20
38.380199
30
0.0
11
4.361474
21
38.313220
31
0.0
0
LINE
8
0
6
CONTINUOUS
10
4.728796
20
38.325069
30
0.0
11
4.539194
21
38.380199
31
0.0
0
LINE
8
0
6
CONTINUOUS
10
4.740682
20
38.202960
30
0.0
11
4.728796
21
38.325069
31
0.0
0
LINE
8
0
6
CONTINUOUS
10
-3.095727
20
36.467174
30
0.0
11
-3.133300
21
36.346797
31
0.0
0
LINE
8
0
6
CONTINUOUS
10
-2.895891
20
36.508624
30
0.0
11
-3.095727
21
36.467174
31
0.0
0
LINE
8
0
6
CONTINUOUS
10
-2.733629
20
36.429706
30
0.0
11
-2.895891
21
36.508624
31
0.0
0
LINE
8
0
6
CONTINUOUS
10
-2.771203
20
36.309329
30
0.0
11
-2.733629
21
36.429706
31
0.0
0
LINE
8
0
6
CONTINUOUS
10
-2.971037
20
36.267879
30
0.0
11
-2.771203
21
36.309329
31
0.0
0
LINE
8
0
6
CONTINUOUS
10
-3.133300
20
36.346797
30
0.0
11
-2.971037
21
36.267879
31
0.0
0
LINE
8
0
6
CONTINUOUS
10
-0.678308
20
38.405192
30
0.0
11
-0.883823
21
38.374293
31
0.0
0
LINE
8
0
6
CONTINUOUS
10
-0.529074
20
38.318172
30
0.0
11
-0.678308
21
38.405192
31
0.0
0
LINE
8
0
6
CONTINUOUS
10
-0.585354
20
38.200244
30
0.0
11
-0.529074
21
38.318172
31
0.0
0
LINE
8
0
6
CONTINUOUS
10
-0.790869
20
38.169345
30
0.0
11
-0.585354
21
38.200244
31
0.0
0
LINE
8
0
6
CONTINUOUS
10
-0.940105
20
38.256366
30
0.0
11
-0.790869
21
38.169345
31
0.0
0
LINE
8
0
6
CONTINUOUS
10
-0.883823
20
38.374293
30
0.0
11
-0.940105
21
38.256366
31
0.0
0
LINE
8
0
6
CONTINUOUS
10
1.582419
20
37.609965
30
0.0
11
1.731655
21
37.697002
31
0.0
0
LINE
8
0
6
CONTINUOUS
10
1.376903
20
37.640872
30
0.0
11
1.582419
21
37.609965
31
0.0
0
LINE
8
0
6
CONTINUOUS
10
1.320623
20
37.758800
30
0.0
11
1.376903
21
37.640872
31
0.0
0
LINE
8
0
6
CONTINUOUS
10
1.469858
20
37.845828
30
0.0
11
1.320623
21
37.758800
31
0.0
0
LINE
8
0
6
CONTINUOUS
10
1.675373
20
37.814929
30
0.0
11
1.469858
21
37.845828
31
0.0
0
LINE
8
0
6
CONTINUOUS
10
1.731655
20
37.697002
30
0.0
11
1.675373
21
37.814929
31
0.0
0
LINE
8
0
6
CONTINUOUS
10
-1.047774
20
35.486843
30
0.0
11
-0.847938
21
35.445393
31
0.0
0
LINE
8
0
6
CONTINUOUS
10
-1.085346
20
35.607212
30
0.0
11
-1.047774
21
35.486843
31
0.0
0
LINE
8
0
6
CONTINUOUS
10
-0.923084
20
35.686138
30
0.0
11
-1.085346
21
35.607212
31
0.0
0
LINE
8
0
6
CONTINUOUS
10
-0.723249
20
35.644688
30
0.0
11
-0.923084
21
35.686138
31
0.0
0
LINE
8
0
6
CONTINUOUS
10
-0.685676
20
35.524319
30
0.0
11
-0.723249
21
35.644688
31
0.0
0
LINE
8
0
6
CONTINUOUS
10
-0.847938
20
35.445393
30
0.0
11
-0.685676
21
35.524319
31
0.0
0
LINE
8
0
6
CONTINUOUS
10
0.856158
20
39.099193
30
0.0
11
1.065542
21
39.078624
31
0.0
0
LINE
8
0
6
CONTINUOUS
10
0.782397
20
39.213878
30
0.0
11
0.856158
21
39.099193
31
0.0
0
LINE
8
0
6
CONTINUOUS
10
0.918019
20
39.308002
30
0.0
11
0.782397
21
39.213878
31
0.0
0
LINE
8
0
6
CONTINUOUS
10
1.127401
20
39.287440
30
0.0
11
0.918019
21
39.308002
31
0.0
0
LINE
8
0
6
CONTINUOUS
10
1.201162
20
39.172748
30
0.0
11
1.127401
21
39.287440
31
0.0
0
LINE
8
0
6
CONTINUOUS
10
1.065542
20
39.078624
30
0.0
11
1.201162
21
39.172748
31
0.0
0
LINE
8
0
6
CONTINUOUS
10
-0.803556
20
36.048954
30
0.0
11
-0.965819
21
35.970028
31
0.0
0
LINE
8
0
6
CONTINUOUS
10
-0.603721
20
36.007504
30
0.0
11
-0.803556
21
36.048954
31
0.0
0
LINE
8
0
6
CONTINUOUS
10
-0.566148
20
35.887135
30
0.0
11
-0.603721
21
36.007504
31
0.0
0
LINE
8
0
6
CONTINUOUS
10
-0.728410
20
35.808209
30
0.0
11
-0.566148
21
35.887135
31
0.0
0
LINE
8
0
6
CONTINUOUS
10
-0.928246
20
35.849659
30
0.0
11
-0.728410
21
35.808209
31
0.0
0
LINE
8
0
6
CONTINUOUS
10
-0.965819
20
35.970028
30
0.0
11
-0.928246
21
35.849659
31
0.0
0
LINE
8
0
6
CONTINUOUS
10
1.089932
20
38.355777
30
0.0
11
0.877724
21
38.350490
31
0.0
0
LINE
8
0
6
CONTINUOUS
10
1.203988
20
38.252605
30
0.0
11
1.089932
21
38.355777
31
0.0
0
LINE
8
0
6
CONTINUOUS
10
1.105836
20
38.144153
30
0.0
11
1.203988
21
38.252605
31
0.0
0
LINE
8
0
6
CONTINUOUS
10
0.893628
20
38.138858
30
0.0
11
1.105836
21
38.144153
31
0.0
0
LINE
8
0
6
CONTINUOUS
10
0.779570
20
38.242030
30
0.0
11
0.893628
21
38.138858
31
0.0
0
LINE
8
0
6
CONTINUOUS
10
0.877724
20
38.350490
30
0.0
11
0.779570
21
38.242030
31
0.0
0
LINE
8
0
6
CONTINUOUS
10
2.162682
20
39.060527
30
0.0
11
2.048624
21
38.957355
31
0.0
0
LINE
8
0
6
CONTINUOUS
10
2.374889
20
39.055240
30
0.0
11
2.162682
21
39.060527
31
0.0
0
LINE
8
0
6
CONTINUOUS
10
2.473042
20
38.946788
30
0.0
11
2.374889
21
39.055240
31
0.0
0
LINE
8
0
6
CONTINUOUS
10
2.358985
20
38.843608
30
0.0
11
2.473042
21
38.946788
31
0.0
0
LINE
8
0
6
CONTINUOUS
10
2.146777
20
38.848895
30
0.0
11
2.358985
21
38.843608
31
0.0
0
LINE
8
0
6
CONTINUOUS
10
2.048624
20
38.957355
30
0.0
11
2.146777
21
38.848895
31
0.0
0
LINE
8
0
6
CONTINUOUS
10
3.257873
20
38.690982
30
0.0
11
3.108639
21
38.603946
31
0.0
0
LINE
8
0
6
CONTINUOUS
10
3.463388
20
38.660075
30
0.0
11
3.257873
21
38.690982
31
0.0
0
LINE
8
0
6
CONTINUOUS
10
3.519670
20
38.542148
30
0.0
11
3.463388
21
38.660075
31
0.0
0
LINE
8
0
6
CONTINUOUS
10
3.370434
20
38.455119
30
0.0
11
3.519670
21
38.542148
31
0.0
0
LINE
8
0
6
CONTINUOUS
10
3.164918
20
38.486018
30
0.0
11
3.370434
21
38.455119
31
0.0
0
LINE
8
0
6
CONTINUOUS
10
3.108639
20
38.603946
30
0.0
11
3.164918
21
38.486018
31
0.0
0
LINE
8
0
6
CONTINUOUS
10
-2.905410
20
37.428371
30
0.0
11
-2.705573
21
37.386920
31
0.0
0
LINE
8
0
6
CONTINUOUS
10
-2.942981
20
37.548740
30
0.0
11
-2.905410
21
37.428371
31
0.0
0
LINE
8
0
6
CONTINUOUS
10
-2.780720
20
37.627666
30
0.0
11
-2.942981
21
37.548740
31
0.0
0
LINE
8
0
6
CONTINUOUS
10
-2.580884
20
37.586215
30
0.0
11
-2.780720
21
37.627666
31
0.0
0
LINE
8
0
6
CONTINUOUS
10
-2.543311
20
37.465846
30
0.0
11
-2.580884
21
37.586215
31
0.0
0
LINE
8
0
6
CONTINUOUS
10
-2.705573
20
37.386920
30
0.0
11
-2.543311
21
37.465846
31
0.0
0
LINE
8
0
6
CONTINUOUS
10
-0.708794
20
37.547443
30
0.0
11
-0.898396
21
37.492313
31
0.0
0
LINE
8
0
6
CONTINUOUS
10
-0.531074
20
37.480456
30
0.0
11
-0.708794
21
37.547443
31
0.0
0
LINE
8
0
6
CONTINUOUS
10
-0.542958
20
37.358356
30
0.0
11
-0.531074
21
37.480456
31
0.0
0
LINE
8
0
6
CONTINUOUS
10
-0.732561
20
37.303218
30
0.0
11
-0.542958
21
37.358356
31
0.0
0
LINE
8
0
6
CONTINUOUS
10
-0.910282
20
37.370204
30
0.0
11
-0.732561
21
37.303218
31
0.0
0
LINE
8
0
6
CONTINUOUS
10
-0.898396
20
37.492313
30
0.0
11
-0.910282
21
37.370204
31
0.0
0
LINE
8
0
6
CONTINUOUS
10
3.947348
20
37.843921
30
0.0
11
4.125069
21
37.910899
31
0.0
0
LINE
8
0
6
CONTINUOUS
10
3.757744
20
37.899051
30
0.0
11
3.947348
21
37.843921
31
0.0
0
LINE
8
0
6
CONTINUOUS
10
3.745861
20
38.021152
30
0.0
11
3.757744
21
37.899051
31
0.0
0
LINE
8
0
6
CONTINUOUS
10
3.923581
20
38.088138
30
0.0
11
3.745861
21
38.021152
31
0.0
0
LINE
8
0
6
CONTINUOUS
10
4.113183
20
38.033015
30
0.0
11
3.923581
21
38.088138
31
0.0
0
LINE
8
0
6
CONTINUOUS
10
4.125069
20
37.910899
30
0.0
11
4.113183
21
38.033015
31
0.0
0
LINE
8
0
6
CONTINUOUS
10
-0.179122
20
39.063731
30
0.0
11
-0.391329
21
39.058444
31
0.0
0
LINE
8
0
6
CONTINUOUS
10
-0.065066
20
38.960559
30
0.0
11
-0.179122
21
39.063731
31
0.0
0
LINE
8
0
6
CONTINUOUS
10
-0.163217
20
38.852100
30
0.0
11
-0.065066
21
38.960559
31
0.0
0
LINE
8
0
6
CONTINUOUS
10
-0.375425
20
38.846812
30
0.0
11
-0.163217
21
38.852100
31
0.0
0
LINE
8
0
6
CONTINUOUS
10
-0.489482
20
38.949985
30
0.0
11
-0.375425
21
38.846812
31
0.0
0
LINE
8
0
6
CONTINUOUS
10
-0.391329
20
39.058444
30
0.0
11
-0.489482
21
38.949985
31
0.0
0
LINE
8
0
6
CONTINUOUS
10
1.910904
20
37.126437
30
0.0
11
2.100507
21
37.071307
31
0.0
0
LINE
8
0
6
CONTINUOUS
10
1.899020
20
37.248546
30
0.0
11
1.910904
21
37.126437
31
0.0
0
LINE
8
0
6
CONTINUOUS
10
2.076740
20
37.315532
30
0.0
11
1.899020
21
37.248546
31
0.0
0
LINE
8
0
6
CONTINUOUS
10
2.266342
20
37.260394
30
0.0
11
2.076740
21
37.315532
31
0.0
0
LINE
8
0
6
CONTINUOUS
10
2.278228
20
37.138286
30
0.0
11
2.266342
21
37.260394
31
0.0
0
LINE
8
0
6
CONTINUOUS
10
2.100507
20
37.071307
30
0.0
11
2.278228
21
37.138286
31
0.0
0
LINE
8
0
6
CONTINUOUS
10
-0.813649
20
39.472087
30
0.0
11
-1.025856
21
39.466800
31
0.0
0
LINE
8
0
6
CONTINUOUS
10
-0.699592
20
39.368915
30
0.0
11
-0.813649
21
39.472087
31
0.0
0
LINE
8
0
6
CONTINUOUS
10
-0.797744
20
39.260448
30
0.0
11
-0.699592
21
39.368915
31
0.0
0
LINE
8
0
6
CONTINUOUS
10
-1.009952
20
39.255160
30
0.0
11
-0.797744
21
39.260448
31
0.0
0
LINE
8
0
6
CONTINUOUS
10
-1.124009
20
39.358333
30
0.0
11
-1.009952
21
39.255160
31
0.0
0
LINE
8
0
6
CONTINUOUS
10
-1.025856
20
39.466800
30
0.0
11
-1.124009
21
39.358333
31
0.0
0
LINE
8
0
6
CONTINUOUS
10
-2.085124
20
35.628147
30
0.0
11
-1.885289
21
35.669598
31
0.0
0
LINE
8
0
6
CONTINUOUS
10
-2.247386
20
35.707073
30
0.0
11
-2.085124
21
35.628147
31
0.0
0
LINE
8
0
6
CONTINUOUS
10
-2.209814
20
35.827450
30
0.0
11
-2.247386
21
35.707073
31
0.0
0
LINE
8
0
6
CONTINUOUS
10
-2.009978
20
35.868893
30
0.0
11
-2.209814
21
35.827450
31
0.0
0
LINE
8
0
6
CONTINUOUS
10
-1.847716
20
35.789974
30
0.0
11
-2.009978
21
35.868893
31
0.0
0
LINE
8
0
6
CONTINUOUS
10
-1.885289
20
35.669598
30
0.0
11
-1.847716
21
35.789974
31
0.0
0
LINE
8
0
6
CONTINUOUS
10
0.264909
20
35.368885
30
0.0
11
0.102647
21
35.289959
31
0.0
0
LINE
8
0
6
CONTINUOUS
10
0.464744
20
35.327427
30
0.0
11
0.264909
21
35.368885
31
0.0
0
LINE
8
0
6
CONTINUOUS
10
0.502318
20
35.207058
30
0.0
11
0.464744
21
35.327427
31
0.0
0
LINE
8
0
6
CONTINUOUS
10
0.340055
20
35.128140
30
0.0
11
0.502318
21
35.207058
31
0.0
0
LINE
8
0
6
CONTINUOUS
10
0.140220
20
35.169590
30
0.0
11
0.340055
21
35.128140
31
0.0
0
LINE
8
0
6
CONTINUOUS
10
0.102647
20
35.289959
30
0.0
11
0.140220
21
35.169590
31
0.0
0
LINE
8
0
6
CONTINUOUS
10
-3.360850
20
38.674281
30
0.0
11
-3.372736
21
38.552165
31
0.0
0
LINE
8
0
6
CONTINUOUS
10
-3.171248
20
38.729404
30
0.0
11
-3.360850
21
38.674281
31
0.0
0
LINE
8
0
6
CONTINUOUS
10
-2.993529
20
38.662417
30
0.0
11
-3.171248
21
38.729404
31
0.0
0
LINE
8
0
6
CONTINUOUS
10
-3.005412
20
38.540317
30
0.0
11
-2.993529
21
38.662417
31
0.0
0
LINE
8
0
6
CONTINUOUS
10
-3.195016
20
38.485187
30
0.0
11
-3.005412
21
38.540317
31
0.0
0
LINE
8
0
6
CONTINUOUS
10
-3.372736
20
38.552165
30
0.0
11
-3.195016
21
38.485187
31
0.0
0
LINE
8
0
6
CONTINUOUS
10
4.449883
20
39.357921
30
0.0
11
4.300648
21
39.270892
31
0.0
0
LINE
8
0
6
CONTINUOUS
10
4.655398
20
39.327022
30
0.0
11
4.449883
21
39.357921
31
0.0
0
LINE
8
0
6
CONTINUOUS
10
4.711679
20
39.209094
30
0.0
11
4.655398
21
39.327022
31
0.0
0
LINE
8
0
6
CONTINUOUS
10
4.562444
20
39.122066
30
0.0
11
4.711679
21
39.209094
31
0.0
0
LINE
8
0
6
CONTINUOUS
10
4.356928
20
39.152972
30
0.0
11
4.562444
21
39.122066
31
0.0
0
LINE
8
0
6
CONTINUOUS
10
4.300648
20
39.270892
30
0.0
11
4.356928
21
39.152972
31
0.0
0
LINE
8
0
6
CONTINUOUS
10
-0.967466
20
35.138874
30
0.0
11
-0.805204
21
35.217800
31
0.0
0
LINE
8
0
6
CONTINUOUS
10
-1.167302
20
35.180325
30
0.0
11
-0.967466
21
35.138874
31
0.0
0
LINE
8
0
6
CONTINUOUS
10
-1.204875
20
35.300694
30
0.0
11
-1.167302
21
35.180325
31
0.0
0
LINE
8
0
6
CONTINUOUS
10
-1.042612
20
35.379620
30
0.0
11
-1.204875
21
35.300694
31
0.0
0
LINE
8
0
6
CONTINUOUS
10
-0.842777
20
35.338169
30
0.0
11
-1.042612
21
35.379620
31
0.0
0
LINE
8
0
6
CONTINUOUS
10
-0.805204
20
35.217800
30
0.0
11
-0.842777
21
35.338169
31
0.0
0
LINE
8
0
6
CONTINUOUS
10
3.587607
20
36.414958
30
0.0
11
3.787442
21
36.373500
31
0.0
0
LINE
8
0
6
CONTINUOUS
10
3.550034
20
36.535319
30
0.0
11
3.587607
21
36.414958
31
0.0
0
LINE
8
0
6
CONTINUOUS
10
3.712296
20
36.614246
30
0.0
11
3.550034
21
36.535319
31
0.0
0
LINE
8
0
6
CONTINUOUS
10
3.912132
20
36.572803
30
0.0
11
3.712296
21
36.614246
31
0.0
0
LINE
8
0
6
CONTINUOUS
10
3.949704
20
36.452426
30
0.0
11
3.912132
21
36.572803
31
0.0
0
LINE
8
0
6
CONTINUOUS
10
3.787442
20
36.373500
30
0.0
11
3.949704
21
36.452426
31
0.0
0
LINE
8
0
6
CONTINUOUS
10
4.988971
20
38.526698
30
0.0
11
5.178575
21
38.471568
31
0.0
0
LINE
8
0
6
CONTINUOUS
10
4.977088
20
38.648807
30
0.0
11
4.988971
21
38.526698
31
0.0
0
LINE
8
0
6
CONTINUOUS
10
5.154809
20
38.715777
30
0.0
11
4.977088
21
38.648807
31
0.0
0
LINE
8
0
6
CONTINUOUS
10
5.344410
20
38.660655
30
0.0
11
5.154809
21
38.715777
31
0.0
0
LINE
8
0
6
CONTINUOUS
10
5.356294
20
38.538547
30
0.0
11
5.344410
21
38.660655
31
0.0
0
LINE
8
0
6
CONTINUOUS
10
5.178575
20
38.471568
30
0.0
11
5.356294
21
38.538547
31
0.0
0
LINE
8
0
6
CONTINUOUS
10
3.431735
20
39.867419
30
0.0
11
3.317679
21
39.764247
31
0.0
0
LINE
8
0
6
CONTINUOUS
10
3.643942
20
39.862125
30
0.0
11
3.431735
21
39.867419
31
0.0
0
LINE
8
0
6
CONTINUOUS
10
3.742095
20
39.753665
30
0.0
11
3.643942
21
39.862125
31
0.0
0
LINE
8
0
6
CONTINUOUS
10
3.628038
20
39.650500
30
0.0
11
3.742095
21
39.753665
31
0.0
0
LINE
8
0
6
CONTINUOUS
10
3.415830
20
39.655780
30
0.0
11
3.628038
21
39.650500
31
0.0
0
LINE
8
0
6
CONTINUOUS
10
3.317679
20
39.764247
30
0.0
11
3.415830
21
39.655780
31
0.0
0
LINE
8
0
6
CONTINUOUS
10
-1.386874
20
38.462047
30
0.0
11
-1.181359
21
38.492946
31
0.0
0
LINE
8
0
6
CONTINUOUS
10
-1.536110
20
38.549075
30
0.0
11
-1.386874
21
38.462047
31
0.0
0
LINE
8
0
6
CONTINUOUS
10
-1.479829
20
38.667003
30
0.0
11
-1.536110
21
38.549075
31
0.0
0
LINE
8
0
6
CONTINUOUS
10
-1.274314
20
38.697902
30
0.0
11
-1.479829
21
38.667003
31
0.0
0
LINE
8
0
6
CONTINUOUS
10
-1.125079
20
38.610873
30
0.0
11
-1.274314
21
38.697902
31
0.0
0
LINE
8
0
6
CONTINUOUS
10
-1.181359
20
38.492946
30
0.0
11
-1.125079
21
38.610873
31
0.0
0
LINE
8
0
6
CONTINUOUS
10
3.853879
20
39.032336
30
0.0
11
3.704644
21
38.945308
31
0.0
0
LINE
8
0
6
CONTINUOUS
10
4.059393
20
39.001437
30
0.0
11
3.853879
21
39.032336
31
0.0
0
LINE
8
0
6
CONTINUOUS
10
4.115675
20
38.883510
30
0.0
11
4.059393
21
39.001437
31
0.0
0
LINE
8
0
6
CONTINUOUS
10
3.966439
20
38.796481
30
0.0
11
4.115675
21
38.883510
31
0.0
0
LINE
8
0
6
CONTINUOUS
10
3.760923
20
38.827388
30
0.0
11
3.966439
21
38.796481
31
0.0
0
LINE
8
0
6
CONTINUOUS
10
3.704644
20
38.945308
30
0.0
11
3.760923
21
38.827388
31
0.0
0
LINE
8
0
6
CONTINUOUS
10
-0.282783
20
37.263431
30
0.0
11
-0.294668
21
37.141322
31
0.0
0
LINE
8
0
6
CONTINUOUS
10
-0.093180
20
37.318561
30
0.0
11
-0.282783
21
37.263431
31
0.0
0
LINE
8
0
6
CONTINUOUS
10
0.084540
20
37.251575
30
0.0
11
-0.093180
21
37.318561
31
0.0
0
LINE
8
0
6
CONTINUOUS
10
0.072656
20
37.129474
30
0.0
11
0.084540
21
37.251575
31
0.0
0
LINE
8
0
6
CONTINUOUS
10
-0.116948
20
37.074336
30
0.0
11
0.072656
21
37.129474
31
0.0
0
LINE
8
0
6
CONTINUOUS
10
-0.294668
20
37.141322
30
0.0
11
-0.116948
21
37.074336
31
0.0
0
LINE
8
0
6
CONTINUOUS
10
-0.489355
20
36.571651
30
0.0
11
-0.327092
21
36.650577
31
0.0
0
LINE
8
0
6
CONTINUOUS
10
-0.689190
20
36.613101
30
0.0
11
-0.489355
21
36.571651
31
0.0
0
LINE
8
0
6
CONTINUOUS
10
-0.726763
20
36.733470
30
0.0
11
-0.689190
21
36.613101
31
0.0
0
LINE
8
0
6
CONTINUOUS
10
-0.564501
20
36.812396
30
0.0
11
-0.726763
21
36.733470
31
0.0
0
LINE
8
0
6
CONTINUOUS
10
-0.364666
20
36.770946
30
0.0
11
-0.564501
21
36.812396
31
0.0
0
LINE
8
0
6
CONTINUOUS
10
-0.327092
20
36.650577
30
0.0
11
-0.364666
21
36.770946
31
0.0
0
LINE
8
0
6
CONTINUOUS
10
2.706809
20
35.646305
30
0.0
11
2.669236
21
35.525929
31
0.0
0
LINE
8
0
6
CONTINUOUS
10
2.906644
20
35.687756
30
0.0
11
2.706809
21
35.646305
31
0.0
0
LINE
8
0
6
CONTINUOUS
10
3.068906
20
35.608837
30
0.0
11
2.906644
21
35.687756
31
0.0
0
LINE
8
0
6
CONTINUOUS
10
3.031333
20
35.488461
30
0.0
11
3.068906
21
35.608837
31
0.0
0
LINE
8
0
6
CONTINUOUS
10
2.831498
20
35.447018
30
0.0
11
3.031333
21
35.488461
31
0.0
0
LINE
8
0
6
CONTINUOUS
10
2.669236
20
35.525929
30
0.0
11
2.831498
21
35.447018
31
0.0
0
LINE
8
0
6
CONTINUOUS
10
1.704586
20
39.734042
30
0.0
11
1.495204
21
39.713481
31
0.0
0
LINE
8
0
6
CONTINUOUS
10
1.840207
20
39.639926
30
0.0
11
1.704586
21
39.734042
31
0.0
0
LINE
8
0
6
CONTINUOUS
10
1.766445
20
39.525233
30
0.0
11
1.840207
21
39.639926
31
0.0
0
LINE
8
0
6
CONTINUOUS
10
1.557063
20
39.504665
30
0.0
11
1.766445
21
39.525233
31
0.0
0
LINE
8
0
6
CONTINUOUS
10
1.421442
20
39.598788
30
0.0
11
1.557063
21
39.504665
31
0.0
0
LINE
8
0
6
CONTINUOUS
10
1.495204
20
39.713481
30
0.0
11
1.421442
21
39.598788
31
0.0
0
LINE
8
0
6
CONTINUOUS
10
4.025539
20
37.332622
30
0.0
11
3.825705
21
37.291171
31
0.0
0
LINE
8
0
6
CONTINUOUS
10
4.187802
20
37.253703
30
0.0
11
4.025539
21
37.332622
31
0.0
0
LINE
8
0
6
CONTINUOUS
10
4.150228
20
37.133327
30
0.0
11
4.187802
21
37.253703
31
0.0
0
LINE
8
0
6
CONTINUOUS
10
3.950394
20
37.091884
30
0.0
11
4.150228
21
37.133327
31
0.0
0
LINE
8
0
6
CONTINUOUS
10
3.788131
20
37.170795
30
0.0
11
3.950394
21
37.091884
31
0.0
0
LINE
8
0
6
CONTINUOUS
10
3.825705
20
37.291171
30
0.0
11
3.788131
21
37.170795
31
0.0
0
LINE
8
0
6
CONTINUOUS
10
-1.303240
20
37.070674
30
0.0
11
-1.465502
21
36.991756
31
0.0
0
LINE
8
0
6
CONTINUOUS
10
-1.103405
20
37.029224
30
0.0
11
-1.303240
21
37.070674
31
0.0
0
LINE
8
0
6
CONTINUOUS
10
-1.065832
20
36.908847
30
0.0
11
-1.103405
21
37.029224
31
0.0
0
LINE
8
0
6
CONTINUOUS
10
-1.228094
20
36.829928
30
0.0
11
-1.065832
21
36.908847
31
0.0
0
LINE
8
0
6
CONTINUOUS
10
-1.427931
20
36.871379
30
0.0
11
-1.228094
21
36.829928
31
0.0
0
LINE
8
0
6
CONTINUOUS
10
-1.465502
20
36.991756
30
0.0
11
-1.427931
21
36.871379
31
0.0
0
LINE
8
0
6
CONTINUOUS
10
-0.194865
20
37.878985
30
0.0
11
0.010651
21
37.909885
31
0.0
0
LINE
8
0
6
CONTINUOUS
10
-0.344100
20
37.966014
30
0.0
11
-0.194865
21
37.878985
31
0.0
0
LINE
8
0
6
CONTINUOUS
10
-0.287820
20
38.083942
30
0.0
11
-0.344100
21
37.966014
31
0.0
0
LINE
8
0
6
CONTINUOUS
10
-0.082304
20
38.114841
30
0.0
11
-0.287820
21
38.083942
31
0.0
0
LINE
8
0
6
CONTINUOUS
10
0.066931
20
38.027812
30
0.0
11
-0.082304
21
38.114841
31
0.0
0
LINE
8
0
6
CONTINUOUS
10
0.010651
20
37.909885
30
0.0
11
0.066931
21
38.027812
31
0.0
0
LINE
8
0
6
CONTINUOUS
10
1.544890
20
36.127995
30
0.0
11
1.744726
21
36.169445
31
0.0
0
LINE
8
0
6
CONTINUOUS
10
1.382628
20
36.206912
30
0.0
11
1.544890
21
36.127995
31
0.0
0
LINE
8
0
6
CONTINUOUS
10
1.420201
20
36.327289
30
0.0
11
1.382628
21
36.206912
31
0.0
0
LINE
8
0
6
CONTINUOUS
10
1.620036
20
36.368732
30
0.0
11
1.420201
21
36.327289
31
0.0
0
LINE
8
0
6
CONTINUOUS
10
1.782299
20
36.289813
30
0.0
11
1.620036
21
36.368732
31
0.0
0
LINE
8
0
6
CONTINUOUS
10
1.744726
20
36.169445
30
0.0
11
1.782299
21
36.289813
31
0.0
0
LINE
8
0
6
CONTINUOUS
10
3.868849
20
35.652424
30
0.0
11
4.068684
21
35.610966
31
0.0
0
LINE
8
0
6
CONTINUOUS
10
3.831275
20
35.772801
30
0.0
11
3.868849
21
35.652424
31
0.0
0
LINE
8
0
6
CONTINUOUS
10
3.993538
20
35.851711
30
0.0
11
3.831275
21
35.772801
31
0.0
0
LINE
8
0
6
CONTINUOUS
10
4.193373
20
35.810268
30
0.0
11
3.993538
21
35.851711
31
0.0
0
LINE
8
0
6
CONTINUOUS
10
4.230946
20
35.689892
30
0.0
11
4.193373
21
35.810268
31
0.0
0
LINE
8
0
6
CONTINUOUS
10
4.068684
20
35.610966
30
0.0
11
4.230946
21
35.689892
31
0.0
0
LINE
8
0
6
CONTINUOUS
10
4.764279
20
37.616351
30
0.0
11
4.564444
21
37.574908
31
0.0
0
LINE
8
0
6
CONTINUOUS
10
4.926541
20
37.537433
30
0.0
11
4.764279
21
37.616351
31
0.0
0
LINE
8
0
6
CONTINUOUS
10
4.888968
20
37.417056
30
0.0
11
4.926541
21
37.537433
31
0.0
0
LINE
8
0
6
CONTINUOUS
10
4.689133
20
37.375613
30
0.0
11
4.888968
21
37.417056
31
0.0
0
LINE
8
0
6
CONTINUOUS
10
4.526870
20
37.454532
30
0.0
11
4.689133
21
37.375613
31
0.0
0
LINE
8
0
6
CONTINUOUS
10
4.564444
20
37.574908
30
0.0
11
4.526870
21
37.454532
31
0.0
0
LINE
8
0
6
CONTINUOUS
10
-1.940021
20
38.097835
30
0.0
11
-2.129623
21
38.042712
31
0.0
0
LINE
8
0
6
CONTINUOUS
10
-1.762302
20
38.030856
30
0.0
11
-1.940021
21
38.097835
31
0.0
0
LINE
8
0
6
CONTINUOUS
10
-1.774185
20
37.908748
30
0.0
11
-1.762302
21
38.030856
31
0.0
0
LINE
8
0
6
CONTINUOUS
10
-1.963788
20
37.853625
30
0.0
11
-1.774185
21
37.908748
31
0.0
0
LINE
8
0
6
CONTINUOUS
10
-2.141509
20
37.920596
30
0.0
11
-1.963788
21
37.853625
31
0.0
0
LINE
8
0
6
CONTINUOUS
10
-2.129623
20
38.042712
30
0.0
11
-2.141509
21
37.920596
31
0.0
0
LINE
8
0
6
CONTINUOUS
10
5.303184
20
37.930347
30
0.0
11
5.265610
21
37.809970
31
0.0
0
LINE
8
0
6
CONTINUOUS
10
5.503019
20
37.971797
30
0.0
11
5.303184
21
37.930347
31
0.0
0
LINE
8
0
6
CONTINUOUS
10
5.665280
20
37.892871
30
0.0
11
5.503019
21
37.971797
31
0.0
0
LINE
8
0
6
CONTINUOUS
10
5.627708
20
37.772494
30
0.0
11
5.665280
21
37.892871
31
0.0
0
LINE
8
0
6
CONTINUOUS
10
5.427873
20
37.731052
30
0.0
11
5.627708
21
37.772494
31
0.0
0
LINE
8
0
6
CONTINUOUS
10
5.265610
20
37.809970
30
0.0
11
5.427873
21
37.731052
31
0.0
0
LINE
8
0
6
CONTINUOUS
10
0.405798
20
35.780476
30
0.0
11
0.568059
21
35.859394
31
0.0
0
LINE
8
0
6
CONTINUOUS
10
0.205962
20
35.821919
30
0.0
11
0.405798
21
35.780476
31
0.0
0
LINE
8
0
6
CONTINUOUS
10
0.168390
20
35.942295
30
0.0
11
0.205962
21
35.821919
31
0.0
0
LINE
8
0
6
CONTINUOUS
10
0.330651
20
36.021221
30
0.0
11
0.168390
21
35.942295
31
0.0
0
LINE
8
0
6
CONTINUOUS
10
0.530487
20
35.979771
30
0.0
11
0.330651
21
36.021221
31
0.0
0
LINE
8
0
6
CONTINUOUS
10
0.568059
20
35.859394
30
0.0
11
0.530487
21
35.979771
31
0.0
0
LINE
8
0
6
CONTINUOUS
10
1.652908
20
36.020405
30
0.0
11
1.453073
21
35.978954
31
0.0
0
LINE
8
0
6
CONTINUOUS
10
1.815170
20
35.941479
30
0.0
11
1.652908
21
36.020405
31
0.0
0
LINE
8
0
6
CONTINUOUS
10
1.777597
20
35.821110
30
0.0
11
1.815170
21
35.941479
31
0.0
0
LINE
8
0
6
CONTINUOUS
10
1.577762
20
35.779659
30
0.0
11
1.777597
21
35.821110
31
0.0
0
LINE
8
0
6
CONTINUOUS
10
1.415499
20
35.858585
30
0.0
11
1.577762
21
35.779659
31
0.0
0
LINE
8
0
6
CONTINUOUS
10
1.453073
20
35.978954
30
0.0
11
1.415499
21
35.858585
31
0.0
0
LINE
8
0
6
CONTINUOUS
10
0.173091
20
35.478481
30
0.0
11
0.372926
21
35.437031
31
0.0
0
LINE
8
0
6
CONTINUOUS
10
0.135518
20
35.598850
30
0.0
11
0.173091
21
35.478481
31
0.0
0
LINE
8
0
6
CONTINUOUS
10
0.297781
20
35.677776
30
0.0
11
0.135518
21
35.598850
31
0.0
0
LINE
8
0
6
CONTINUOUS
10
0.497616
20
35.636318
30
0.0
11
0.297781
21
35.677776
31
0.0
0
LINE
8
0
6
CONTINUOUS
10
0.535189
20
35.515949
30
0.0
11
0.497616
21
35.636318
31
0.0
0
LINE
8
0
6
CONTINUOUS
10
0.372926
20
35.437031
30
0.0
11
0.535189
21
35.515949
31
0.0
0
LINE
8
0
6
CONTINUOUS
10
-2.516214
20
36.874950
30
0.0
11
-2.716050
21
36.833499
31
0.0
0
LINE
8
0
6
CONTINUOUS
10
-2.353952
20
36.796031
30
0.0
11
-2.516214
21
36.874950
31
0.0
0
LINE
8
0
6
CONTINUOUS
10
-2.391525
20
36.675662
30
0.0
11
-2.353952
21
36.796031
31
0.0
0
LINE
8
0
6
CONTINUOUS
10
-2.591360
20
36.634204
30
0.0
11
-2.391525
21
36.675662
31
0.0
0
LINE
8
0
6
CONTINUOUS
10
-2.753623
20
36.713130
30
0.0
11
-2.591360
21
36.634204
31
0.0
0
LINE
8
0
6
CONTINUOUS
10
-2.716050
20
36.833499
30
0.0
11
-2.753623
21
36.713130
31
0.0
0
LINE
8
0
6
CONTINUOUS
10
2.526518
20
37.352809
30
0.0
11
2.716121
21
37.297679
31
0.0
0
LINE
8
0
6
CONTINUOUS
10
2.514634
20
37.474917
30
0.0
11
2.526518
21
37.352809
31
0.0
0
LINE
8
0
6
CONTINUOUS
10
2.692354
20
37.541904
30
0.0
11
2.514634
21
37.474917
31
0.0
0
LINE
8
0
6
CONTINUOUS
10
2.881956
20
37.486766
30
0.0
11
2.692354
21
37.541904
31
0.0
0
LINE
8
0
6
CONTINUOUS
10
2.893842
20
37.364657
30
0.0
11
2.881956
21
37.486766
31
0.0
0
LINE
8
0
6
CONTINUOUS
10
2.716121
20
37.297679
30
0.0
11
2.893842
21
37.364657
31
0.0
0
LINE
8
0
6
CONTINUOUS
10
2.134249
20
40.162311
30
0.0
11
2.060487
21
40.047618
31
0.0
0
LINE
8
0
6
CONTINUOUS
10
2.343631
20
40.182872
30
0.0
11
2.134249
21
40.162311
31
0.0
0
LINE
8
0
6
CONTINUOUS
10
2.479252
20
40.088748
30
0.0
11
2.343631
21
40.182872
31
0.0
0
LINE
8
0
6
CONTINUOUS
10
2.405490
20
39.974063
30
0.0
11
2.479252
21
40.088748
31
0.0
0
LINE
8
0
6
CONTINUOUS
10
2.196108
20
39.953494
30
0.0
11
2.405490
21
39.974063
31
0.0
0
LINE
8
0
6
CONTINUOUS
10
2.060487
20
40.047618
30
0.0
11
2.196108
21
39.953494
31
0.0
0
LINE
8
0
6
CONTINUOUS
10
-1.928572
20
36.580066
30
0.0
11
-1.966145
21
36.459697
31
0.0
0
LINE
8
0
6
CONTINUOUS
10
-1.728736
20
36.621516
30
0.0
11
-1.928572
21
36.580066
31
0.0
0
LINE
8
0
6
CONTINUOUS
10
-1.566474
20
36.542590
30
0.0
11
-1.728736
21
36.621516
31
0.0
0
LINE
8
0
6
CONTINUOUS
10
-1.604047
20
36.422221
30
0.0
11
-1.566474
21
36.542590
31
0.0
0
LINE
8
0
6
CONTINUOUS
10
-1.803882
20
36.380771
30
0.0
11
-1.604047
21
36.422221
31
0.0
0
LINE
8
0
6
CONTINUOUS
10
-1.966145
20
36.459697
30
0.0
11
-1.803882
21
36.380771
31
0.0
0
LINE
8
0
6
CONTINUOUS
10
-1.448175
20
39.874812
30
0.0
11
-1.660383
21
39.869525
31
0.0
0
LINE
8
0
6
CONTINUOUS
10
-1.334119
20
39.771632
30
0.0
11
-1.448175
21
39.874812
31
0.0
0
LINE
8
0
6
CONTINUOUS
10
-1.432271
20
39.663180
30
0.0
11
-1.334119
21
39.771632
31
0.0
0
LINE
8
0
6
CONTINUOUS
10
-1.644479
20
39.657893
30
0.0
11
-1.432271
21
39.663180
31
0.0
0
LINE
8
0
6
CONTINUOUS
10
-1.758536
20
39.761066
30
0.0
11
-1.644479
21
39.657893
31
0.0
0
LINE
8
0
6
CONTINUOUS
10
-1.660383
20
39.869525
30
0.0
11
-1.758536
21
39.761066
31
0.0
0
LINE
8
0
6
CONTINUOUS
10
4.375085
20
36.665156
30
0.0
11
4.574920
21
36.623706
31
0.0
0
LINE
8
0
6
CONTINUOUS
10
4.337512
20
36.785533
30
0.0
11
4.375085
21
36.665156
31
0.0
0
LINE
8
0
6
CONTINUOUS
10
4.499774
20
36.864451
30
0.0
11
4.337512
21
36.785533
31
0.0
0
LINE
8
0
6
CONTINUOUS
10
4.699609
20
36.823009
30
0.0
11
4.499774
21
36.864451
31
0.0
0
LINE
8
0
6
CONTINUOUS
10
4.737182
20
36.702632
30
0.0
11
4.699609
21
36.823009
31
0.0
0
LINE
8
0
6
CONTINUOUS
10
4.574920
20
36.623706
30
0.0
11
4.737182
21
36.702632
31
0.0
0
LINE
8
0
6
CONTINUOUS
10
0.438669
20
36.129879
30
0.0
11
0.600932
21
36.208804
31
0.0
0
LINE
8
0
6
CONTINUOUS
10
0.238834
20
36.171337
30
0.0
11
0.438669
21
36.129879
31
0.0
0
LINE
8
0
6
CONTINUOUS
10
0.201261
20
36.291705
30
0.0
11
0.238834
21
36.171337
31
0.0
0
LINE
8
0
6
CONTINUOUS
10
0.363523
20
36.370624
30
0.0
11
0.201261
21
36.291705
31
0.0
0
LINE
8
0
6
CONTINUOUS
10
0.563358
20
36.329173
30
0.0
11
0.363523
21
36.370624
31
0.0
0
LINE
8
0
6
CONTINUOUS
10
0.600932
20
36.208804
30
0.0
11
0.563358
21
36.329173
31
0.0
0
LINE
8
0
6
CONTINUOUS
10
-2.125442
20
36.178959
30
0.0
11
-2.163014
21
36.058590
31
0.0
0
LINE
8
0
6
CONTINUOUS
10
-1.925606
20
36.220409
30
0.0
11
-2.125442
21
36.178959
31
0.0
0
LINE
8
0
6
CONTINUOUS
10
-1.763343
20
36.141491
30
0.0
11
-1.925606
21
36.220409
31
0.0
0
LINE
8
0
6
CONTINUOUS
10
-1.800916
20
36.021122
30
0.0
11
-1.763343
21
36.141491
31
0.0
0
LINE
8
0
6
CONTINUOUS
10
-2.000751
20
35.979672
30
0.0
11
-1.800916
21
36.021122
31
0.0
0
LINE
8
0
6
CONTINUOUS
10
-2.163014
20
36.058590
30
0.0
11
-2.000751
21
35.979672
31
0.0
0
LINE
8
0
6
CONTINUOUS
10
1.587165
20
36.716456
30
0.0
11
1.387330
21
36.675006
31
0.0
0
LINE
8
0
6
CONTINUOUS
10
1.749427
20
36.637530
30
0.0
11
1.587165
21
36.716456
31
0.0
0
LINE
8
0
6
CONTINUOUS
10
1.711854
20
36.517161
30
0.0
11
1.749427
21
36.637530
31
0.0
0
LINE
8
0
6
CONTINUOUS
10
1.512019
20
36.475711
30
0.0
11
1.711854
21
36.517161
31
0.0
0
LINE
8
0
6
CONTINUOUS
10
1.349757
20
36.554637
30
0.0
11
1.512019
21
36.475711
31
0.0
0
LINE
8
0
6
CONTINUOUS
10
1.387330
20
36.675006
30
0.0
11
1.349757
21
36.554637
31
0.0
0
LINE
8
0
6
CONTINUOUS
10
2.568913
20
38.194308
30
0.0
11
2.774429
21
38.163409
31
0.0
0
LINE
8
0
6
CONTINUOUS
10
2.512633
20
38.312236
30
0.0
11
2.568913
21
38.194308
31
0.0
0
LINE
8
0
6
CONTINUOUS
10
2.661869
20
38.399272
30
0.0
11
2.512633
21
38.312236
31
0.0
0
LINE
8
0
6
CONTINUOUS
10
2.867383
20
38.368365
30
0.0
11
2.661869
21
38.399272
31
0.0
0
LINE
8
0
6
CONTINUOUS
10
2.923665
20
38.250438
30
0.0
11
2.867383
21
38.368365
31
0.0
0
LINE
8
0
6
CONTINUOUS
10
2.774429
20
38.163409
30
0.0
11
2.923665
21
38.250438
31
0.0
0
LINE
8
0
6
CONTINUOUS
10
2.787116
20
36.049976
30
0.0
11
2.587281
21
36.008526
31
0.0
0
LINE
8
0
6
CONTINUOUS
10
2.949377
20
35.971058
30
0.0
11
2.787116
21
36.049976
31
0.0
0
LINE
8
0
6
CONTINUOUS
10
2.911806
20
35.850689
30
0.0
11
2.949377
21
35.971058
31
0.0
0
LINE
8
0
6
CONTINUOUS
10
2.711970
20
35.809239
30
0.0
11
2.911806
21
35.850689
31
0.0
0
LINE
8
0
6
CONTINUOUS
10
2.549707
20
35.888157
30
0.0
11
2.711970
21
35.809239
31
0.0
0
LINE
8
0
6
CONTINUOUS
10
2.587281
20
36.008526
30
0.0
11
2.549707
21
35.888157
31
0.0
0
LINE
8
0
6
CONTINUOUS
10
5.343502
20
37.207713
30
0.0
11
5.181239
21
37.128787
31
0.0
0
LINE
8
0
6
CONTINUOUS
10
5.543336
20
37.166263
30
0.0
11
5.343502
21
37.207713
31
0.0
0
LINE
8
0
6
CONTINUOUS
10
5.580908
20
37.045894
30
0.0
11
5.543336
21
37.166263
31
0.0
0
LINE
8
0
6
CONTINUOUS
10
5.418646
20
36.966968
30
0.0
11
5.580908
21
37.045894
31
0.0
0
LINE
8
0
6
CONTINUOUS
10
5.218813
20
37.008418
30
0.0
11
5.418646
21
36.966968
31
0.0
0
LINE
8
0
6
CONTINUOUS
10
5.181239
20
37.128787
30
0.0
11
5.218813
21
37.008418
31
0.0
0
LINE
8
0
6
CONTINUOUS
10
-3.444313
20
37.745372
30
0.0
11
-3.282051
21
37.824298
31
0.0
0
LINE
8
0
6
CONTINUOUS
10
-3.644149
20
37.786830
30
0.0
11
-3.444313
21
37.745372
31
0.0
0
LINE
8
0
6
CONTINUOUS
10
-3.681722
20
37.907199
30
0.0
11
-3.644149
21
37.786830
31
0.0
0
LINE
8
0
6
CONTINUOUS
10
-3.519459
20
37.986117
30
0.0
11
-3.681722
21
37.907199
31
0.0
0
LINE
8
0
6
CONTINUOUS
10
-3.319624
20
37.944667
30
0.0
11
-3.519459
21
37.986117
31
0.0
0
LINE
8
0
6
CONTINUOUS
10
-3.282051
20
37.824298
30
0.0
11
-3.319624
21
37.944667
31
0.0
0
LINE
8
0
6
CONTINUOUS
10
2.826337
20
35.294529
30
0.0
11
2.788764
21
35.174160
31
0.0
0
LINE
8
0
6
CONTINUOUS
10
3.026172
20
35.335987
30
0.0
11
2.826337
21
35.294529
31
0.0
0
LINE
8
0
6
CONTINUOUS
10
3.188434
20
35.257061
30
0.0
11
3.026172
21
35.335987
31
0.0
0
LINE
8
0
6
CONTINUOUS
10
3.150861
20
35.136685
30
0.0
11
3.188434
21
35.257061
31
0.0
0
LINE
8
0
6
CONTINUOUS
10
2.951026
20
35.095242
30
0.0
11
3.150861
21
35.136685
31
0.0
0
LINE
8
0
6
CONTINUOUS
10
2.788764
20
35.174160
30
0.0
11
2.951026
21
35.095242
31
0.0
0
LINE
8
0
6
CONTINUOUS
10
0.308186
20
37.816691
30
0.0
11
0.251904
21
37.698756
31
0.0
0
LINE
8
0
6
CONTINUOUS
10
0.513701
20
37.847591
30
0.0
11
0.308186
21
37.816691
31
0.0
0
LINE
8
0
6
CONTINUOUS
10
0.662936
20
37.760562
30
0.0
11
0.513701
21
37.847591
31
0.0
0
LINE
8
0
6
CONTINUOUS
10
0.606656
20
37.642627
30
0.0
11
0.662936
21
37.760562
31
0.0
0
LINE
8
0
6
CONTINUOUS
10
0.401140
20
37.611728
30
0.0
11
0.606656
21
37.642627
31
0.0
0
LINE
8
0
6
CONTINUOUS
10
0.251904
20
37.698756
30
0.0
11
0.401140
21
37.611728
31
0.0
0
LINE
8
0
6
CONTINUOUS
10
6.274133
20
37.634892
30
0.0
11
6.310653
21
37.751843
31
0.0
0
LINE
8
0
6
CONTINUOUS
10
2.377069
20
26.199738
30
0.0
11
2.538221
21
29.222718
31
0.0
0
LINE
8
0
6
CONTINUOUS
10
2.538221
20
29.222718
30
0.0
11
2.663654
21
31.562607
31
0.0
0
LINE
8
0
6
CONTINUOUS
10
2.663654
20
31.562607
30
0.0
11
2.764840
21
33.457215
31
0.0
0
LINE
8
0
6
CONTINUOUS
10
2.749058
20
34.042172
30
0.0
11
3.019421
21
34.593098
31
0.0
0
LINE
8
0
6
CONTINUOUS
10
6.313025
20
37.770856
30
0.0
11
6.377302
21
38.286099
31
0.0
0
LINE
8
0
6
CONTINUOUS
10
6.410655
20
38.879613
30
0.0
11
6.402346
21
39.704579
31
0.0
0
LINE
8
0
6
CONTINUOUS
10
6.407852
20
38.829716
30
0.0
11
6.410655
21
38.879613
31
0.0
0
LINE
8
0
6
CONTINUOUS
10
2.329614
20
42.354565
30
0.0
11
1.023367
21
42.438679
31
0.0
0
LINE
8
0
6
CONTINUOUS
10
3.566519
20
42.086926
30
0.0
11
2.329614
21
42.354565
31
0.0
0
LINE
8
0
6
CONTINUOUS
10
4.689752
20
41.625477
30
0.0
11
3.566519
21
42.086926
31
0.0
0
LINE
8
0
6
CONTINUOUS
10
5.933099
20
40.602795
30
0.0
11
5.524108
21
41.026623
31
0.0
0
LINE
8
0
6
CONTINUOUS
10
6.024821
20
40.494046
30
0.0
11
5.933099
21
40.602795
31
0.0
0
LINE
8
0
6
CONTINUOUS
10
5.416817
20
41.135846
30
0.0
11
4.689752
21
41.625477
31
0.0
0
LINE
8
0
6
CONTINUOUS
10
5.524108
20
41.026623
30
0.0
11
5.416817
21
41.135846
31
0.0
0
LINE
8
0
6
CONTINUOUS
10
2.691346
20
33.936772
30
0.0
11
3.019421
21
34.593098
31
0.0
0
LINE
8
0
6
CONTINUOUS
10
3.019421
20
34.593098
30
0.0
11
3.426997
21
35.001988
31
0.0
0
LINE
8
0
6
CONTINUOUS
10
4.860824
20
35.901455
30
0.0
11
5.282099
21
36.193326
31
0.0
0
LINE
8
0
6
CONTINUOUS
10
5.222449
20
36.192837
30
0.0
11
4.810683
21
35.900303
31
0.0
0
LINE
8
0
6
CONTINUOUS
10
4.396016
20
35.633641
30
0.0
11
4.860824
21
35.901455
31
0.0
0
LINE
8
0
6
CONTINUOUS
10
4.810683
20
35.900303
30
0.0
11
4.351839
21
35.630032
31
0.0
0
LINE
8
0
6
CONTINUOUS
10
2.344040
20
40.850957
30
0.0
11
3.616985
21
40.566617
31
0.0
0
LINE
8
0
6
CONTINUOUS
10
3.619065
20
40.618146
30
0.0
11
2.344111
21
40.906231
31
0.0
0
LINE
8
0
6
CONTINUOUS
10
4.351839
20
35.630032
30
0.0
11
3.844513
21
35.334279
31
0.0
0
LINE
8
0
6
CONTINUOUS
10
3.879780
20
35.342900
30
0.0
11
4.396016
21
35.633641
31
0.0
0
LINE
8
0
6
CONTINUOUS
10
5.282099
20
36.193326
30
0.0
11
5.946563
21
36.874653
31
0.0
0
LINE
8
0
6
CONTINUOUS
10
5.869857
20
36.869717
30
0.0
11
5.222449
21
36.192837
31
0.0
0
LINE
8
0
6
CONTINUOUS
10
3.426997
20
35.001988
30
0.0
11
3.879780
21
35.342900
31
0.0
0
LINE
8
0
6
CONTINUOUS
10
2.751850
20
33.238118
30
0.0
11
2.833109
21
34.204778
31
0.0
0
LINE
8
0
6
CONTINUOUS
10
6.377302
20
38.286099
30
0.0
11
6.407852
21
38.829716
31
0.0
0
LINE
8
0
6
CONTINUOUS
10
6.402346
20
39.704579
30
0.0
11
6.024821
21
40.494046
31
0.0
0
LINE
8
0
6
CONTINUOUS
10
2.303965
20
24.791028
30
0.0
11
2.377069
21
26.199738
31
0.0
0
LINE
8
0
6
CONTINUOUS
10
2.806889
20
34.147786
30
0.0
11
2.833109
21
34.204778
31
0.0
0
LINE
8
0
6
CONTINUOUS
10
6.310653
20
37.751843
30
0.0
11
6.313025
21
37.770856
31
0.0
0
LINE
8
0
6
CONTINUOUS
10
1.023405
20
23.929745
30
0.0
11
1.329744
21
23.949627
31
0.0
0
LINE
8
0
6
CONTINUOUS
10
1.329744
20
23.949627
30
0.0
11
1.611568
21
24.007886
31
0.0
0
LINE
8
0
6
CONTINUOUS
10
1.611568
20
24.007886
30
0.0
11
1.852295
21
24.100548
31
0.0
0
LINE
8
0
6
CONTINUOUS
10
2.191785
20
24.386792
30
0.0
11
2.236636
21
24.471379
31
0.0
0
LINE
8
0
6
CONTINUOUS
10
1.628012
20
24.020974
30
0.0
11
1.875785
21
24.116059
31
0.0
0
LINE
8
0
6
CONTINUOUS
10
2.128752
20
24.313386
30
0.0
11
2.191785
21
24.386792
31
0.0
0
LINE
8
0
6
CONTINUOUS
10
1.023405
20
23.940884
30
0.0
11
1.338155
21
23.961236
31
0.0
0
LINE
8
0
6
CONTINUOUS
10
2.236636
20
24.471379
30
0.0
11
2.283189
21
24.559170
31
0.0
0
LINE
8
0
6
CONTINUOUS
10
1.875785
20
24.116059
30
0.0
11
2.065847
21
24.240132
31
0.0
0
LINE
8
0
6
CONTINUOUS
10
2.065847
20
24.240132
30
0.0
11
2.128752
21
24.313386
31
0.0
0
LINE
8
0
6
CONTINUOUS
10
2.283189
20
24.559170
30
0.0
11
2.303305
21
24.778294
31
0.0
0
LINE
8
0
6
CONTINUOUS
10
2.303305
20
24.778294
30
0.0
11
2.303965
21
24.791028
31
0.0
0
LINE
8
0
6
CONTINUOUS
10
1.338155
20
23.961236
30
0.0
11
1.628012
21
24.020974
31
0.0
0
LINE
8
0
6
CONTINUOUS
10
-4.263900
20
37.751828
30
0.0
11
-4.227380
21
37.634869
31
0.0
0
LINE
8
0
6
CONTINUOUS
10
-0.491431
20
29.222714
30
0.0
11
-0.330268
21
26.199734
31
0.0
0
LINE
8
0
6
CONTINUOUS
10
-0.616873
20
31.562604
30
0.0
11
-0.491431
21
29.222714
31
0.0
0
LINE
8
0
6
CONTINUOUS
10
-0.718066
20
33.457211
30
0.0
11
-0.616873
21
31.562604
31
0.0
0
LINE
8
0
6
CONTINUOUS
10
-0.503976
20
32.807690
30
0.0
11
-0.376747
21
30.937268
31
0.0
0
LINE
8
0
6
CONTINUOUS
10
-0.972653
20
34.593091
30
0.0
11
-0.702287
21
34.042164
31
0.0
0
LINE
8
0
6
CONTINUOUS
10
-4.330552
20
38.286076
30
0.0
11
-4.266272
21
37.770840
31
0.0
0
LINE
8
0
6
CONTINUOUS
10
-4.363905
20
38.879597
30
0.0
11
-4.361101
21
38.829701
31
0.0
0
LINE
8
0
6
CONTINUOUS
10
-4.355600
20
39.704564
30
0.0
11
-4.363905
21
38.879597
31
0.0
0
LINE
8
0
6
CONTINUOUS
10
1.023367
20
42.438679
30
0.0
11
-0.282878
21
42.354565
31
0.0
0
LINE
8
0
6
CONTINUOUS
10
-0.282878
20
42.354565
30
0.0
11
-1.519782
21
42.086918
31
0.0
0
LINE
8
0
6
CONTINUOUS
10
-1.519782
20
42.086918
30
0.0
11
-2.643015
21
41.625470
31
0.0
0
LINE
8
0
6
CONTINUOUS
10
-3.477368
20
41.026608
30
0.0
11
-3.886357
21
40.602780
31
0.0
0
LINE
8
0
6
CONTINUOUS
10
-3.886357
20
40.602780
30
0.0
11
-3.978079
21
40.494031
31
0.0
0
LINE
8
0
6
CONTINUOUS
10
-3.370078
20
41.135830
30
0.0
11
-3.477368
21
41.026608
31
0.0
0
LINE
8
0
6
CONTINUOUS
10
-2.643015
20
41.625470
30
0.0
11
-3.370078
21
41.135830
31
0.0
0
LINE
8
0
6
CONTINUOUS
10
-0.972653
20
34.593091
30
0.0
11
-0.644575
21
33.936772
31
0.0
0
LINE
8
0
6
CONTINUOUS
10
-1.380231
20
35.001980
30
0.0
11
-0.972653
21
34.593091
31
0.0
0
LINE
8
0
6
CONTINUOUS
10
-0.503976
20
32.807690
30
0.0
11
-0.644575
21
33.936772
31
0.0
0
LINE
8
0
6
CONTINUOUS
10
-2.305075
20
35.630017
30
0.0
11
-2.763920
21
35.900288
31
0.0
0
LINE
8
0
6
CONTINUOUS
10
-2.814061
20
35.901440
30
0.0
11
-2.349253
21
35.633626
31
0.0
0
LINE
8
0
6
CONTINUOUS
10
-2.349253
20
35.633626
30
0.0
11
-1.833016
21
35.342892
31
0.0
0
LINE
8
0
6
CONTINUOUS
10
-1.797749
20
35.334271
30
0.0
11
-2.305075
21
35.630017
31
0.0
0
LINE
8
0
6
CONTINUOUS
10
-4.145718
20
37.631428
30
0.0
11
-4.119289
21
38.407635
31
0.0
0
LINE
8
0
6
CONTINUOUS
10
-4.199772
20
38.407155
30
0.0
11
-4.227380
21
37.634869
31
0.0
0
LINE
8
0
6
CONTINUOUS
10
-3.823100
20
36.869702
30
0.0
11
-4.145718
21
37.631428
31
0.0
0
LINE
8
0
6
CONTINUOUS
10
-4.227380
20
37.634869
30
0.0
11
-3.899807
21
36.874631
31
0.0
0
LINE
8
0
6
CONTINUOUS
10
-1.833016
20
35.342892
30
0.0
11
-1.380231
21
35.001980
31
0.0
0
LINE
8
0
6
CONTINUOUS
10
-0.786339
20
34.204769
30
0.0
11
-0.705075
21
33.238110
31
0.0
0
LINE
8
0
6
CONTINUOUS
10
-4.361101
20
38.829701
30
0.0
11
-4.330552
21
38.286076
31
0.0
0
LINE
8
0
6
CONTINUOUS
10
-3.978079
20
40.494031
30
0.0
11
-4.355600
21
39.704564
31
0.0
0
LINE
8
0
6
CONTINUOUS
10
-0.330268
20
26.199734
30
0.0
11
-0.257158
21
24.791024
31
0.0
0
LINE
8
0
6
CONTINUOUS
10
-0.786339
20
34.204769
30
0.0
11
-0.760118
21
34.147778
31
0.0
0
LINE
8
0
6
CONTINUOUS
10
-4.266272
20
37.770840
30
0.0
11
-4.263900
21
37.751828
31
0.0
0
LINE
8
0
6
CONTINUOUS
10
0.717065
20
23.949627
30
0.0
11
1.023405
21
23.929745
31
0.0
0
LINE
8
0
6
CONTINUOUS
10
0.435242
20
24.007882
30
0.0
11
0.717065
21
23.949627
31
0.0
0
LINE
8
0
6
CONTINUOUS
10
-0.189827
20
24.471375
30
0.0
11
-0.144978
21
24.386788
31
0.0
0
LINE
8
0
6
CONTINUOUS
10
0.171023
20
24.116059
30
0.0
11
0.418797
21
24.020970
31
0.0
0
LINE
8
0
6
CONTINUOUS
10
-0.144978
20
24.386788
30
0.0
11
-0.084105
21
24.315900
31
0.0
0
LINE
8
0
6
CONTINUOUS
10
0.708655
20
23.961232
30
0.0
11
1.023405
21
23.940884
31
0.0
0
LINE
8
0
6
CONTINUOUS
10
-0.236382
20
24.559167
30
0.0
11
-0.189827
21
24.471375
31
0.0
0
LINE
8
0
6
CONTINUOUS
10
-0.019038
20
24.240132
30
0.0
11
0.171023
21
24.116059
31
0.0
0
LINE
8
0
6
CONTINUOUS
10
-0.081943
20
24.313382
30
0.0
11
-0.019038
21
24.240132
31
0.0
0
LINE
8
0
6
CONTINUOUS
10
-0.257158
20
24.791024
30
0.0
11
-0.256496
21
24.778290
31
0.0
0
LINE
8
0
6
CONTINUOUS
10
-0.256496
20
24.778290
30
0.0
11
-0.236382
21
24.559167
31
0.0
0
LINE
8
0
6
CONTINUOUS
10
0.418797
20
24.020970
30
0.0
11
0.708655
21
23.961232
31
0.0
0
LINE
8
0
6
CONTINUOUS
10
2.050460
20
21.908318
30
0.0
11
2.202406
21
24.331406
31
0.0
0
LINE
8
0
6
CONTINUOUS
10
-0.141768
20
24.331399
30
0.0
11
-0.114847
21
23.902115
31
0.0
0
LINE
8
0
6
CONTINUOUS
10
1.911484
20
21.610684
30
0.0
11
2.013131
21
21.733788
31
0.0
0
LINE
8
0
6
CONTINUOUS
10
2.047801
20
21.865895
30
0.0
11
2.050460
21
21.908318
31
0.0
0
LINE
8
0
6
CONTINUOUS
10
2.013131
20
21.733788
30
0.0
11
2.047801
21
21.865895
31
0.0
0
LINE
8
0
6
CONTINUOUS
10
1.809997
20
21.544334
30
0.0
11
1.911484
21
21.610684
31
0.0
0
LINE
8
0
6
CONTINUOUS
10
0.201528
20
24.097127
30
0.0
11
0.444276
21
24.003689
31
0.0
0
LINE
8
0
6
CONTINUOUS
10
0.444276
20
24.003689
30
0.0
11
0.726960
21
23.944947
31
0.0
0
LINE
8
0
6
CONTINUOUS
10
0.726960
20
23.944947
30
0.0
11
1.030319
21
23.924912
31
0.0
0
LINE
8
0
6
CONTINUOUS
10
1.030319
20
23.924912
30
0.0
11
1.333677
21
23.944951
31
0.0
0
LINE
8
0
6
CONTINUOUS
10
1.333677
20
23.944951
30
0.0
11
1.616363
21
24.003689
31
0.0
0
LINE
8
0
6
CONTINUOUS
10
1.616363
20
24.003689
30
0.0
11
1.859108
21
24.097130
31
0.0
0
LINE
8
0
6
CONTINUOUS
10
1.859108
20
24.097130
30
0.0
11
2.045376
21
24.218907
31
0.0
0
LINE
8
0
6
CONTINUOUS
10
2.194395
20
32.983380
30
0.0
11
1.881080
21
32.771336
31
0.0
0
LINE
8
0
6
CONTINUOUS
10
1.881080
20
32.771336
30
0.0
11
1.452312
21
32.673192
31
0.0
0
LINE
8
0
6
CONTINUOUS
10
1.452312
20
32.673192
30
0.0
11
1.028174
21
32.645093
31
0.0
0
LINE
8
0
6
CONTINUOUS
10
2.419925
20
33.809140
30
0.0
11
2.194395
21
32.983380
31
0.0
0
LINE
8
0
6
CONTINUOUS
10
2.791486
20
34.548955
30
0.0
11
2.419925
21
33.809140
31
0.0
0
LINE
8
0
6
CONTINUOUS
10
0.180765
20
32.764115
30
0.0
11
-0.129903
21
32.908185
31
0.0
0
LINE
8
0
6
CONTINUOUS
10
0.602774
20
32.666207
30
0.0
11
0.180765
21
32.764115
31
0.0
0
LINE
8
0
6
CONTINUOUS
10
1.028174
20
32.645093
30
0.0
11
0.602774
21
32.666207
31
0.0
0
LINE
8
0
6
CONTINUOUS
10
-0.129903
20
32.908185
30
0.0
11
-0.340132
21
33.836938
31
0.0
0
LINE
8
0
6
CONTINUOUS
10
-0.340132
20
33.836938
30
0.0
11
-0.689298
21
34.558880
31
0.0
0
LINE
8
0
6
CONTINUOUS
10
3.390000
20
35.015767
30
0.0
11
3.411456
21
35.025899
31
0.0
0
LINE
8
0
6
CONTINUOUS
10
4.735491
20
40.073842
30
0.0
11
5.350083
21
39.658688
31
0.0
0
LINE
8
0
6
CONTINUOUS
10
5.392030
20
39.677441
30
0.0
11
4.740882
21
40.116391
31
0.0
0
LINE
8
0
6
CONTINUOUS
10
3.616985
20
40.566617
30
0.0
11
4.735491
21
40.073842
31
0.0
0
LINE
8
0
6
CONTINUOUS
10
4.740882
20
40.116391
30
0.0
11
3.619065
21
40.618146
31
0.0
0
LINE
8
0
6
CONTINUOUS
10
1.023370
20
40.944211
30
0.0
11
2.344040
21
40.850957
31
0.0
0
LINE
8
0
6
CONTINUOUS
10
2.344111
20
40.906231
30
0.0
11
1.023369
21
41.001652
31
0.0
0
LINE
8
0
6
CONTINUOUS
10
6.274133
20
37.634892
30
0.0
11
6.246522
21
38.407170
31
0.0
0
LINE
8
0
6
CONTINUOUS
10
6.166039
20
38.407651
30
0.0
11
6.192472
21
37.631444
31
0.0
0
LINE
8
0
6
CONTINUOUS
10
5.882123
20
39.173611
30
0.0
11
5.392030
21
39.677441
31
0.0
0
LINE
8
0
6
CONTINUOUS
10
5.350083
20
39.658688
30
0.0
11
5.812651
21
39.183278
31
0.0
0
LINE
8
0
6
CONTINUOUS
10
3.844513
20
35.334279
30
0.0
11
3.334497
21
35.015027
31
0.0
0
LINE
8
0
6
CONTINUOUS
10
3.334497
20
35.015027
30
0.0
11
3.390000
21
35.015767
31
0.0
0
LINE
8
0
6
CONTINUOUS
10
5.812651
20
39.183278
30
0.0
11
6.166039
21
38.407651
31
0.0
0
LINE
8
0
6
CONTINUOUS
10
6.246522
20
38.407170
30
0.0
11
5.882123
21
39.173611
31
0.0
0
LINE
8
0
6
CONTINUOUS
10
5.946563
20
36.874653
30
0.0
11
6.274133
21
37.634892
31
0.0
0
LINE
8
0
6
CONTINUOUS
10
6.192472
20
37.631444
30
0.0
11
5.869857
21
36.869717
31
0.0
0
LINE
8
0
6
CONTINUOUS
10
-1.364691
20
35.025891
30
0.0
11
-1.343234
21
35.015759
31
0.0
0
LINE
8
0
6
CONTINUOUS
10
-2.763920
20
35.900288
30
0.0
11
-3.175690
21
36.192830
31
0.0
0
LINE
8
0
6
CONTINUOUS
10
-3.235340
20
36.193310
30
0.0
11
-2.814061
21
35.901440
31
0.0
0
LINE
8
0
6
CONTINUOUS
10
-2.694139
20
40.116376
30
0.0
11
-3.345286
21
39.677426
31
0.0
0
LINE
8
0
6
CONTINUOUS
10
-3.303338
20
39.658673
30
0.0
11
-2.688749
21
40.073826
31
0.0
0
LINE
8
0
6
CONTINUOUS
10
-0.297372
20
40.906224
30
0.0
11
-1.572324
21
40.618138
31
0.0
0
LINE
8
0
6
CONTINUOUS
10
-1.570244
20
40.566609
30
0.0
11
-0.297301
21
40.850949
31
0.0
0
LINE
8
0
6
CONTINUOUS
10
-1.572324
20
40.618138
30
0.0
11
-2.694139
21
40.116376
31
0.0
0
LINE
8
0
6
CONTINUOUS
10
-2.688749
20
40.073826
30
0.0
11
-1.570244
21
40.566609
31
0.0
0
LINE
8
0
6
CONTINUOUS
10
1.023369
20
41.001652
30
0.0
11
-0.297372
21
40.906224
31
0.0
0
LINE
8
0
6
CONTINUOUS
10
-0.297301
20
40.850949
30
0.0
11
1.023368
21
40.944211
31
0.0
0
LINE
8
0
6
CONTINUOUS
10
-3.175690
20
36.192830
30
0.0
11
-3.823100
21
36.869702
31
0.0
0
LINE
8
0
6
CONTINUOUS
10
-3.899807
20
36.874631
30
0.0
11
-3.235340
21
36.193310
31
0.0
0
LINE
8
0
6
CONTINUOUS
10
-3.765905
20
39.183262
30
0.0
11
-3.303338
21
39.658673
31
0.0
0
LINE
8
0
6
CONTINUOUS
10
-3.345286
20
39.677426
30
0.0
11
-3.835377
21
39.173596
31
0.0
0
LINE
8
0
6
CONTINUOUS
10
-3.835377
20
39.173596
30
0.0
11
-4.199772
21
38.407155
31
0.0
0
LINE
8
0
6
CONTINUOUS
10
-4.119289
20
38.407635
30
0.0
11
-3.765905
21
39.183262
31
0.0
0
LINE
8
0
6
CONTINUOUS
10
3.334497
20
35.015027
30
0.0
11
3.066654
21
34.864033
31
0.0
0
LINE
8
0
6
CONTINUOUS
10
3.066654
20
34.864033
30
0.0
11
2.791486
21
34.548955
31
0.0
0
LINE
8
0
6
CONTINUOUS
10
-0.987423
20
34.843319
30
0.0
11
-1.279784
21
35.015660
31
0.0
0
LINE
8
0
6
CONTINUOUS
10
-0.689298
20
34.558880
30
0.0
11
-0.987423
21
34.843319
31
0.0
0
LINE
8
0
6
CONTINUOUS
10
-1.797749
20
35.334271
30
0.0
11
-1.343234
21
35.015759
31
0.0
0
LINE
8
0
6
CONTINUOUS
10
-1.279784
20
35.015660
30
0.0
11
-1.797749
21
35.334271
31
0.0
0
LINE
8
0
6
CONTINUOUS
10
-1.343234
20
35.015759
30
0.0
11
-1.279784
21
35.015660
31
0.0
0
LINE
8
0
6
CONTINUOUS
10
3.334495
20
35.015027
30
0.0
11
3.844512
21
35.334279
31
0.0
0
LINE
8
0
6
CONTINUOUS
10
-3.288313
20
36.310577
30
0.0
11
-3.175691
21
36.192830
31
0.0
0
LINE
8
0
6
CONTINUOUS
10
6.192468
20
37.631444
30
0.0
11
6.166035
21
38.407651
31
0.0
0
LINE
8
0
6
CONTINUOUS
10
1.023365
20
40.944211
30
0.0
11
-0.297306
21
40.850949
31
0.0
0
LINE
8
0
6
CONTINUOUS
10
2.344035
20
40.850957
30
0.0
11
1.023368
21
40.944211
31
0.0
0
LINE
8
0
6
CONTINUOUS
10
3.004155
20
34.842808
30
0.0
11
2.434227
21
34.945790
31
0.0
0
LINE
8
0
6
CONTINUOUS
10
2.729721
20
34.529347
30
0.0
11
3.004155
21
34.842808
31
0.0
0
LINE
8
0
6
CONTINUOUS
10
1.029532
20
34.988286
30
0.0
11
1.767507
21
34.986065
31
0.0
0
LINE
8
0
6
CONTINUOUS
10
2.434227
20
34.945790
30
0.0
11
1.760625
21
34.955624
31
0.0
0
LINE
8
0
6
CONTINUOUS
10
-3.175691
20
36.192830
30
0.0
11
-2.763921
21
35.900288
31
0.0
0
LINE
8
0
6
CONTINUOUS
10
-4.145720
20
37.631428
30
0.0
11
-3.823103
21
36.869702
31
0.0
0
LINE
8
0
6
CONTINUOUS
10
-3.303342
20
39.658673
30
0.0
11
-3.765909
21
39.183262
31
0.0
0
LINE
8
0
6
CONTINUOUS
10
-2.688752
20
40.073826
30
0.0
11
-3.303342
21
39.658673
31
0.0
0
LINE
8
0
6
CONTINUOUS
10
-1.797750
20
35.334271
30
0.0
11
-1.279785
21
35.015660
31
0.0
0
LINE
8
0
6
CONTINUOUS
10
0.176547
20
32.805211
30
0.0
11
0.600753
21
32.705281
31
0.0
0
LINE
8
0
6
CONTINUOUS
10
1.886383
20
32.818051
30
0.0
11
2.156913
21
33.000966
31
0.0
0
LINE
8
0
6
CONTINUOUS
10
2.156913
20
33.000966
30
0.0
11
2.372420
21
33.795010
31
0.0
0
LINE
8
0
6
CONTINUOUS
10
-3.765909
20
39.183262
30
0.0
11
-4.119291
21
38.407635
31
0.0
0
LINE
8
0
6
CONTINUOUS
10
-0.987425
20
34.843319
30
0.0
11
-0.371599
21
35.031590
31
0.0
0
LINE
8
0
6
CONTINUOUS
10
-1.279785
20
35.015660
30
0.0
11
-0.987425
21
34.843319
31
0.0
0
LINE
8
0
6
CONTINUOUS
10
1.767507
20
34.986065
30
0.0
11
2.447164
21
34.976140
31
0.0
0
LINE
8
0
6
CONTINUOUS
10
-0.093372
20
32.930478
30
0.0
11
0.176547
21
32.805211
31
0.0
0
LINE
8
0
6
CONTINUOUS
10
-0.293139
20
33.822278
30
0.0
11
-0.093372
21
32.930478
31
0.0
0
LINE
8
0
6
CONTINUOUS
10
3.616980
20
40.566617
30
0.0
11
2.344035
21
40.850957
31
0.0
0
LINE
8
0
6
CONTINUOUS
10
-1.570249
20
40.566609
30
0.0
11
-2.688752
21
40.073826
31
0.0
0
LINE
8
0
6
CONTINUOUS
10
1.454670
20
32.712361
30
0.0
11
1.886383
21
32.818051
31
0.0
0
LINE
8
0
6
CONTINUOUS
10
-0.371599
20
35.031590
30
0.0
11
0.293043
21
35.011098
31
0.0
0
LINE
8
0
6
CONTINUOUS
10
5.350078
20
39.658688
30
0.0
11
4.735486
21
40.073842
31
0.0
0
LINE
8
0
6
CONTINUOUS
10
5.812646
20
39.183278
30
0.0
11
5.350078
21
39.658688
31
0.0
0
LINE
8
0
6
CONTINUOUS
10
1.029527
20
34.957532
30
0.0
11
0.300092
21
34.980671
31
0.0
0
LINE
8
0
6
CONTINUOUS
10
-0.297306
20
40.850949
30
0.0
11
-1.570249
21
40.566609
31
0.0
0
LINE
8
0
6
CONTINUOUS
10
1.028177
20
32.683362
30
0.0
11
1.454670
21
32.712361
31
0.0
0
LINE
8
0
6
CONTINUOUS
10
4.810681
20
35.900303
30
0.0
11
5.222448
21
36.192837
31
0.0
0
LINE
8
0
6
CONTINUOUS
10
5.222448
20
36.192837
30
0.0
11
5.869853
21
36.869717
31
0.0
0
LINE
8
0
6
CONTINUOUS
10
0.293043
20
35.011098
30
0.0
11
1.029532
21
34.988286
31
0.0
0
LINE
8
0
6
CONTINUOUS
10
4.351838
20
35.630032
30
0.0
11
4.810681
21
35.900303
31
0.0
0
LINE
8
0
6
CONTINUOUS
10
-2.305077
20
35.630017
30
0.0
11
-1.797750
21
35.334271
31
0.0
0
LINE
8
0
6
CONTINUOUS
10
2.372420
20
33.795010
30
0.0
11
2.729721
21
34.529347
31
0.0
0
LINE
8
0
6
CONTINUOUS
10
-2.763921
20
35.900288
30
0.0
11
-2.305077
21
35.630017
31
0.0
0
LINE
8
0
6
CONTINUOUS
10
6.166035
20
38.407651
30
0.0
11
5.812646
21
39.183278
31
0.0
0
LINE
8
0
6
CONTINUOUS
10
3.844512
20
35.334279
30
0.0
11
4.351838
21
35.630032
31
0.0
0
LINE
8
0
6
CONTINUOUS
10
-4.119291
20
38.407635
30
0.0
11
-4.145720
21
37.631428
31
0.0
0
LINE
8
0
6
CONTINUOUS
10
4.735486
20
40.073842
30
0.0
11
3.616980
21
40.566617
31
0.0
0
LINE
8
0
6
CONTINUOUS
10
5.869853
20
36.869717
30
0.0
11
6.192468
21
37.631444
31
0.0
0
LINE
8
0
6
CONTINUOUS
10
0.300092
20
34.980671
30
0.0
11
-0.358401
21
34.999913
31
0.0
0
LINE
8
0
6
CONTINUOUS
10
0.600753
20
32.705281
30
0.0
11
1.028177
21
32.683362
31
0.0
0
LINE
8
0
6
CONTINUOUS
10
1.760625
20
34.955624
30
0.0
11
1.029527
21
34.957532
31
0.0
0
LINE
8
0
6
CONTINUOUS
10
-0.632658
20
34.543606
30
0.0
11
-0.293139
21
33.822278
31
0.0
0
LINE
8
0
6
CONTINUOUS
10
-0.925947
20
34.825833
30
0.0
11
-0.632658
21
34.543606
31
0.0
0
LINE
8
0
6
CONTINUOUS
10
-0.358401
20
34.999913
30
0.0
11
-0.922757
21
34.826812
31
0.0
0
LINE
8
0
6
CONTINUOUS
10
2.447164
20
34.976140
30
0.0
11
3.066653
21
34.864033
31
0.0
0
LINE
8
0
6
CONTINUOUS
10
3.066653
20
34.864033
30
0.0
11
3.334495
21
35.015027
31
0.0
0
LINE
8
0
6
CONTINUOUS
10
-0.987425
20
34.843319
30
0.0
11
-0.689300
21
34.558880
31
0.0
0
LINE
8
0
6
CONTINUOUS
10
2.194394
20
32.983380
30
0.0
11
2.419925
21
33.809140
31
0.0
0
LINE
8
0
6
CONTINUOUS
10
1.028173
20
32.645093
30
0.0
11
1.452312
21
32.673192
31
0.0
0
LINE
8
0
6
CONTINUOUS
10
1.452312
20
32.673192
30
0.0
11
1.881079
21
32.771336
31
0.0
0
LINE
8
0
6
CONTINUOUS
10
-0.340133
20
33.836934
30
0.0
11
-0.129904
21
32.908185
31
0.0
0
LINE
8
0
6
CONTINUOUS
10
0.180764
20
32.764111
30
0.0
11
0.602774
21
32.666211
31
0.0
0
LINE
8
0
6
CONTINUOUS
10
2.419925
20
33.809140
30
0.0
11
2.791485
21
34.548955
31
0.0
0
LINE
8
0
6
CONTINUOUS
10
2.194394
20
32.983380
30
0.0
11
2.175841
21
33.016163
31
0.0
0
LINE
8
0
6
CONTINUOUS
10
1.881079
20
32.771336
30
0.0
11
2.194394
21
32.983380
31
0.0
0
LINE
8
0
6
CONTINUOUS
10
0.602774
20
32.666211
30
0.0
11
1.028173
21
32.645093
31
0.0
0
LINE
8
0
6
CONTINUOUS
10
-0.689300
20
34.558880
30
0.0
11
-0.340133
21
33.836934
31
0.0
0
LINE
8
0
6
CONTINUOUS
10
2.791485
20
34.548955
30
0.0
11
3.066653
21
34.864033
31
0.0
0
LINE
8
0
6
CONTINUOUS
10
-0.129904
20
32.908185
30
0.0
11
0.180764
21
32.764111
31
0.0
0
LINE
8
0
6
CONTINUOUS
10
-0.110737
20
32.943371
30
0.0
11
-0.129904
21
32.908185
31
0.0
0
LINE
8
0
6
CONTINUOUS
10
-0.955534
20
34.858220
30
0.0
11
-0.925947
21
34.825833
31
0.0
0
LINE
8
0
6
CONTINUOUS
10
-0.925947
20
34.825833
30
0.0
11
-0.358401
21
34.999913
31
0.0
0
LINE
8
0
6
CONTINUOUS
10
-0.358401
20
34.999913
30
0.0
11
0.300092
21
34.980671
31
0.0
0
LINE
8
0
6
CONTINUOUS
10
1.029527
20
34.957532
30
0.0
11
1.760625
21
34.955624
31
0.0
0
LINE
8
0
6
CONTINUOUS
10
1.760625
20
34.955624
30
0.0
11
2.434227
21
34.945790
31
0.0
0
LINE
8
0
6
CONTINUOUS
10
0.300092
20
34.980671
30
0.0
11
1.029527
21
34.957532
31
0.0
0
LINE
8
0
6
CONTINUOUS
10
2.434227
20
34.945790
30
0.0
11
3.004155
21
34.842808
31
0.0
0
LINE
8
0
6
CONTINUOUS
10
2.175841
20
33.016163
30
0.0
11
2.396231
21
33.825741
31
0.0
0
LINE
8
0
6
CONTINUOUS
10
2.156913
20
33.000966
30
0.0
11
2.175841
21
33.016163
31
0.0
0
LINE
8
0
6
CONTINUOUS
10
2.372420
20
33.795010
30
0.0
11
2.157709
21
33.003898
31
0.0
0
LINE
8
0
6
CONTINUOUS
10
-0.110737
20
32.943371
30
0.0
11
-0.093372
21
32.930478
31
0.0
0
LINE
8
0
6
CONTINUOUS
10
-0.315606
20
33.853276
30
0.0
11
-0.110737
21
32.943371
31
0.0
0
LINE
8
0
6
CONTINUOUS
10
-0.093372
20
32.930478
30
0.0
11
-0.293139
21
33.822278
31
0.0
0
LINE
8
0
6
CONTINUOUS
10
2.396231
20
33.825741
30
0.0
11
2.760546
21
34.562771
31
0.0
0
LINE
8
0
6
CONTINUOUS
10
2.729721
20
34.529347
30
0.0
11
2.372420
21
33.795010
31
0.0
0
LINE
8
0
6
CONTINUOUS
10
-0.655365
20
34.565457
30
0.0
11
-0.315606
21
33.853276
31
0.0
0
LINE
8
0
6
CONTINUOUS
10
-0.293139
20
33.822278
30
0.0
11
-0.632658
21
34.543606
31
0.0
0
LINE
8
0
6
CONTINUOUS
10
3.035339
20
34.877026
30
0.0
11
3.004155
21
34.842808
31
0.0
0
LINE
8
0
6
CONTINUOUS
10
2.760546
20
34.562771
30
0.0
11
3.029808
21
34.870701
31
0.0
0
LINE
8
0
6
CONTINUOUS
10
3.004155
20
34.842808
30
0.0
11
2.729721
21
34.529347
31
0.0
0
LINE
8
0
6
CONTINUOUS
10
3.853879
20
39.150405
30
0.0
11
4.059393
21
39.151213
31
0.0
0
LINE
8
0
6
CONTINUOUS
10
1.528155
20
38.815936
30
0.0
11
1.740361
21
38.816368
31
0.0
0
LINE
8
0
6
CONTINUOUS
10
2.162682
20
39.187437
30
0.0
11
2.374889
21
39.186218
31
0.0
0
LINE
8
0
6
CONTINUOUS
10
2.683152
20
39.445630
30
0.0
11
2.777329
21
39.562182
31
0.0
0
LINE
8
0
6
CONTINUOUS
10
2.797208
20
39.585143
30
0.0
11
3.009416
21
39.593302
31
0.0
0
LINE
8
0
6
CONTINUOUS
10
1.495204
20
39.833468
30
0.0
11
1.704586
21
39.864241
31
0.0
0
LINE
8
0
6
CONTINUOUS
10
3.286800
20
37.182635
30
0.0
11
3.449062
21
37.122123
31
0.0
0
LINE
8
0
6
CONTINUOUS
10
4.025539
20
37.450914
30
0.0
11
4.187802
21
37.400541
31
0.0
0
LINE
8
0
6
CONTINUOUS
10
2.706809
20
35.749916
30
0.0
11
2.669236
21
35.642663
31
0.0
0
LINE
8
0
6
CONTINUOUS
10
2.467753
20
36.478101
30
0.0
11
2.667589
21
36.530226
31
0.0
0
LINE
8
0
6
CONTINUOUS
10
2.786809
20
36.490662
30
0.0
11
2.829851
21
36.476723
31
0.0
0
LINE
8
0
6
CONTINUOUS
10
2.667589
20
36.530226
30
0.0
11
2.786809
21
36.490662
31
0.0
0
LINE
8
0
6
CONTINUOUS
10
-2.816988
20
36.557340
30
0.0
11
-2.733629
21
36.505356
31
0.0
0
LINE
8
0
6
CONTINUOUS
10
-2.895891
20
36.604365
30
0.0
11
-2.816988
21
36.557340
31
0.0
0
LINE
8
0
6
CONTINUOUS
10
-1.728736
20
36.723120
30
0.0
11
-1.673924
21
36.691954
31
0.0
0
LINE
8
0
6
CONTINUOUS
10
4.977088
20
38.718870
30
0.0
11
5.154809
21
38.838830
31
0.0
0
LINE
8
0
6
CONTINUOUS
10
5.154809
20
38.838830
30
0.0
11
5.344410
21
38.820257
31
0.0
0
LINE
8
0
6
CONTINUOUS
10
4.300648
20
39.362994
30
0.0
11
4.439270
21
39.467609
31
0.0
0
LINE
8
0
6
CONTINUOUS
10
5.456569
20
38.078232
30
0.0
11
5.503019
21
38.097085
31
0.0
0
LINE
8
0
6
CONTINUOUS
10
5.303184
20
38.007864
30
0.0
11
5.456569
21
38.078232
31
0.0
0
LINE
8
0
6
CONTINUOUS
10
5.503019
20
38.097085
30
0.0
11
5.665280
21
38.051233
31
0.0
0
LINE
8
0
6
CONTINUOUS
10
1.899020
20
37.358842
30
0.0
11
2.076740
21
37.430811
31
0.0
0
LINE
8
0
6
CONTINUOUS
10
2.076740
20
37.430811
30
0.0
11
2.266342
21
37.382184
31
0.0
0
LINE
8
0
6
CONTINUOUS
10
2.514634
20
37.569003
30
0.0
11
2.604485
21
37.612240
31
0.0
0
LINE
8
0
6
CONTINUOUS
10
2.692354
20
37.653193
30
0.0
11
2.881956
21
37.618530
31
0.0
0
LINE
8
0
6
CONTINUOUS
10
3.307967
20
37.929264
30
0.0
11
3.497569
21
37.889671
31
0.0
0
LINE
8
0
6
CONTINUOUS
10
3.747506
20
38.102484
30
0.0
11
3.923581
21
38.207008
31
0.0
0
LINE
8
0
6
CONTINUOUS
10
3.923581
20
38.207008
30
0.0
11
4.113183
21
38.181602
31
0.0
0
LINE
8
0
6
CONTINUOUS
10
4.539194
20
38.496671
30
0.0
11
4.728796
21
38.464681
31
0.0
0
LINE
8
0
6
CONTINUOUS
10
1.469858
20
37.969578
30
0.0
11
1.675373
21
37.941726
31
0.0
0
LINE
8
0
6
CONTINUOUS
10
1.919615
20
38.134758
30
0.0
11
2.065864
21
38.235209
31
0.0
0
LINE
8
0
6
CONTINUOUS
10
2.065864
20
38.235209
30
0.0
11
2.271379
21
38.206079
31
0.0
0
LINE
8
0
6
CONTINUOUS
10
2.512633
20
38.398938
30
0.0
11
2.661869
21
38.515494
31
0.0
0
LINE
8
0
6
CONTINUOUS
10
2.763352
20
38.510438
30
0.0
11
2.867383
21
38.501934
31
0.0
0
LINE
8
0
6
CONTINUOUS
10
2.661869
20
38.515494
30
0.0
11
2.763352
21
38.510438
31
0.0
0
LINE
8
0
6
CONTINUOUS
10
3.257873
20
38.817674
30
0.0
11
3.463388
21
38.801416
31
0.0
0
LINE
8
0
6
CONTINUOUS
10
3.704644
20
39.016355
30
0.0
11
3.853879
21
39.150405
31
0.0
0
LINE
8
0
6
CONTINUOUS
10
2.081595
20
39.094416
30
0.0
11
2.162682
21
39.187437
31
0.0
0
LINE
8
0
6
CONTINUOUS
10
2.348225
20
36.867207
30
0.0
11
2.328871
21
36.805171
31
0.0
0
LINE
8
0
6
CONTINUOUS
10
2.389948
20
36.877099
30
0.0
11
2.548060
21
36.926836
31
0.0
0
LINE
8
0
6
CONTINUOUS
10
2.348225
20
36.867207
30
0.0
11
2.389948
21
36.877099
31
0.0
0
LINE
8
0
6
CONTINUOUS
10
3.163735
20
37.145548
30
0.0
11
3.286800
21
37.182635
31
0.0
0
LINE
8
0
6
CONTINUOUS
10
3.086965
20
37.121396
30
0.0
11
3.163735
21
37.145548
31
0.0
0
LINE
8
0
6
CONTINUOUS
10
3.825705
20
37.378480
30
0.0
11
4.002953
21
37.443117
31
0.0
0
LINE
8
0
6
CONTINUOUS
10
4.735569
20
37.735041
30
0.0
11
4.764279
21
37.745081
31
0.0
0
LINE
8
0
6
CONTINUOUS
10
4.764279
20
37.745081
30
0.0
11
4.867753
21
37.706556
31
0.0
0
LINE
8
0
6
CONTINUOUS
10
2.826337
20
35.388938
30
0.0
11
2.824315
21
35.383618
31
0.0
0
LINE
8
0
6
CONTINUOUS
10
2.826337
20
35.388938
30
0.0
11
3.026172
21
35.445844
31
0.0
0
LINE
8
0
6
CONTINUOUS
10
1.518815
20
35.426097
30
0.0
11
1.509425
21
35.403154
31
0.0
0
LINE
8
0
6
CONTINUOUS
10
1.509425
20
35.403154
30
0.0
11
1.481242
21
35.330837
31
0.0
0
LINE
8
0
6
CONTINUOUS
10
1.718650
20
35.463441
30
0.0
11
1.742152
21
35.455553
31
0.0
0
LINE
8
0
6
CONTINUOUS
10
1.485944
20
35.745263
30
0.0
11
1.448370
21
35.647164
31
0.0
0
LINE
8
0
6
CONTINUOUS
10
1.715098
20
35.775408
30
0.0
11
1.848041
21
35.728257
31
0.0
0
LINE
8
0
6
CONTINUOUS
10
1.685779
20
35.786589
30
0.0
11
1.715098
21
35.775408
31
0.0
0
LINE
8
0
6
CONTINUOUS
10
1.453073
20
36.087199
30
0.0
11
1.415499
21
35.982149
31
0.0
0
LINE
8
0
6
CONTINUOUS
10
1.453073
20
36.087199
30
0.0
11
1.613851
21
36.121833
31
0.0
0
LINE
8
0
6
CONTINUOUS
10
1.613851
20
36.121833
30
0.0
11
1.652908
21
36.130325
31
0.0
0
LINE
8
0
6
CONTINUOUS
10
1.652908
20
36.130325
30
0.0
11
1.670765
21
36.123406
31
0.0
0
LINE
8
0
6
CONTINUOUS
10
1.557569
20
36.464492
30
0.0
11
1.620036
21
36.477852
31
0.0
0
LINE
8
0
6
CONTINUOUS
10
1.420201
20
36.434625
30
0.0
11
1.557569
21
36.464492
31
0.0
0
LINE
8
0
6
CONTINUOUS
10
1.620036
20
36.477852
30
0.0
11
1.782299
21
36.414887
31
0.0
0
LINE
8
0
6
CONTINUOUS
10
0.372689
20
36.123497
30
0.0
11
0.530487
21
36.089041
31
0.0
0
LINE
8
0
6
CONTINUOUS
10
0.396394
20
36.836763
30
0.0
11
0.596230
21
36.788252
31
0.0
0
LINE
8
0
6
CONTINUOUS
10
-1.925606
20
36.322984
30
0.0
11
-1.768275
21
36.235344
31
0.0
0
LINE
8
0
6
CONTINUOUS
10
-1.768275
20
36.235344
30
0.0
11
-1.763343
21
36.232745
31
0.0
0
LINE
8
0
6
CONTINUOUS
10
-2.125442
20
36.316202
30
0.0
11
-2.144231
21
36.267609
31
0.0
0
LINE
8
0
6
CONTINUOUS
10
-1.928572
20
36.717606
30
0.0
11
-1.966145
21
36.619831
31
0.0
0
LINE
8
0
6
CONTINUOUS
10
-2.443930
20
36.938570
30
0.0
11
-2.353952
21
36.881704
31
0.0
0
LINE
8
0
6
CONTINUOUS
10
-0.803556
20
36.161532
30
0.0
11
-0.603721
21
36.108714
31
0.0
0
LINE
8
0
6
CONTINUOUS
10
-0.899070
20
35.783425
30
0.0
11
-0.723249
21
35.741176
31
0.0
0
LINE
8
0
6
CONTINUOUS
10
-1.085346
20
35.757454
30
0.0
11
-0.923084
21
35.790421
31
0.0
0
LINE
8
0
6
CONTINUOUS
10
-1.067725
20
35.481449
30
0.0
11
-1.042612
21
35.486672
31
0.0
0
LINE
8
0
6
CONTINUOUS
10
-2.699688
20
37.725197
30
0.0
11
-2.580884
21
37.676614
31
0.0
0
LINE
8
0
6
CONTINUOUS
10
-0.301266
20
40.318589
30
0.0
11
-0.150689
21
40.292475
31
0.0
0
LINE
8
0
6
CONTINUOUS
10
0.776115
20
40.291384
30
0.0
11
0.839600
21
40.454460
31
0.0
0
LINE
8
0
6
CONTINUOUS
10
-3.282030
20
37.272125
30
0.0
11
-3.197678
21
37.214991
31
0.0
0
LINE
8
0
6
CONTINUOUS
10
-3.359941
20
37.322598
30
0.0
11
-3.282030
21
37.272125
31
0.0
0
LINE
8
0
6
CONTINUOUS
10
-3.559776
20
37.327399
30
0.0
11
-3.597349
21
37.227083
31
0.0
0
LINE
8
0
6
CONTINUOUS
10
0.040230
20
23.584907
30
0.0
11
-0.020722
21
23.698577
31
0.0
0
LINE
8
0
6
CONTINUOUS
10
0.738631
20
23.066352
30
0.0
11
1.030320
21
23.020048
31
0.0
0
LINE
8
0
6
CONTINUOUS
10
0.464763
20
23.186634
30
0.0
11
0.537254
21
23.155908
31
0.0
0
LINE
8
0
6
CONTINUOUS
10
0.537254
20
23.155908
30
0.0
11
0.672715
21
23.100563
31
0.0
0
LINE
8
0
6
CONTINUOUS
10
0.672715
20
23.100563
30
0.0
11
0.708738
21
23.081928
31
0.0
0
LINE
8
0
6
CONTINUOUS
10
0.708738
20
23.081928
30
0.0
11
0.738631
21
23.066352
31
0.0
0
LINE
8
0
6
CONTINUOUS
10
1.596024
20
23.191188
30
0.0
11
1.814610
21
23.354558
31
0.0
0
LINE
8
0
6
CONTINUOUS
10
0.226292
20
23.369610
30
0.0
11
0.464763
21
23.186634
31
0.0
0
LINE
8
0
6
CONTINUOUS
10
1.547476
20
23.171361
30
0.0
11
1.596024
21
23.191188
31
0.0
0
LINE
8
0
6
CONTINUOUS
10
0.167472
20
23.444761
30
0.0
11
0.126579
21
23.496404
31
0.0
0
LINE
8
0
6
CONTINUOUS
10
0.126579
20
23.496404
30
0.0
11
0.040230
21
23.584907
31
0.0
0
LINE
8
0
6
CONTINUOUS
10
1.030320
20
23.020048
30
0.0
11
1.036863
21
23.021230
31
0.0
0
LINE
8
0
6
CONTINUOUS
10
1.059669
20
23.025100
30
0.0
11
1.321925
21
23.061320
31
0.0
0
LINE
8
0
6
CONTINUOUS
10
1.036863
20
23.021230
30
0.0
11
1.059669
21
23.025100
31
0.0
0
ENDSEC
0
EOF
