999
unknown String-ID: 20550
0
SECTION
2
HEADER
9
$ACADVER
1
AC1009
9
$DWGCODEPAGE
3
unknown String-ID: 20561
0
ENDSEC
0
SECTION
2
TABLES
0
TABLE
2
LAYER
70
1
0
LAYER
2
0
70
0
62
7
6
CONTINUOUS
0
ENDTAB
0
ENDSEC
0
SECTION
2
ENTITIES
0
LINE
8
0
6
CONTINUOUS
10
-7.418958
20
22.421384
30
0.0
11
-7.354648
21
22.909840
31
0.0
0
LINE
8
0
6
CONTINUOUS
10
-7.354648
20
21.932927
30
0.0
11
-7.418958
21
22.421384
31
0.0
0
LINE
8
0
6
CONTINUOUS
10
-7.400279
20
22.420605
30
0.0
11
-7.354648
21
21.932927
31
0.0
0
LINE
8
0
6
CONTINUOUS
10
-7.354648
20
21.932927
30
0.0
11
-7.166103
21
21.477765
31
0.0
0
LINE
8
0
6
CONTINUOUS
10
-7.166103
20
21.477765
30
0.0
11
-6.866171
21
21.086911
31
0.0
0
LINE
8
0
6
CONTINUOUS
10
-6.866171
20
21.086911
30
0.0
11
-6.475292
21
20.786992
31
0.0
0
LINE
8
0
6
CONTINUOUS
10
-6.475292
20
20.786992
30
0.0
11
-6.020104
21
20.598454
31
0.0
0
LINE
8
0
6
CONTINUOUS
10
-6.020104
20
20.598454
30
0.0
11
-5.531627
21
20.534146
31
0.0
0
LINE
8
0
6
CONTINUOUS
10
-5.531627
20
20.534146
30
0.0
11
-5.043150
21
20.598454
31
0.0
0
LINE
8
0
6
CONTINUOUS
10
-5.043150
20
20.598454
30
0.0
11
-4.587961
21
20.786992
31
0.0
0
LINE
8
0
6
CONTINUOUS
10
-4.587961
20
20.786992
30
0.0
11
-4.197083
21
21.086911
31
0.0
0
LINE
8
0
6
CONTINUOUS
10
-4.197083
20
21.086911
30
0.0
11
-3.897149
21
21.477765
31
0.0
0
LINE
8
0
6
CONTINUOUS
10
-3.897149
20
21.477765
30
0.0
11
-3.708604
21
21.932927
31
0.0
0
LINE
8
0
6
CONTINUOUS
10
-3.708604
20
21.932927
30
0.0
11
-3.644294
21
22.421384
31
0.0
0
LINE
8
0
6
CONTINUOUS
10
-3.644294
20
22.421384
30
0.0
11
-3.708604
21
22.909833
31
0.0
0
LINE
8
0
6
CONTINUOUS
10
-3.708604
20
22.909833
30
0.0
11
-3.897150
21
23.365002
31
0.0
0
LINE
8
0
6
CONTINUOUS
10
-3.897150
20
23.365002
30
0.0
11
-4.197081
21
23.755856
31
0.0
0
LINE
8
0
6
CONTINUOUS
10
-4.197081
20
23.755856
30
0.0
11
-4.587959
21
24.055775
31
0.0
0
LINE
8
0
6
CONTINUOUS
10
-4.587959
20
24.055775
30
0.0
11
-5.043148
21
24.244313
31
0.0
0
LINE
8
0
6
CONTINUOUS
10
-5.043148
20
24.244313
30
0.0
11
-5.531625
21
24.308621
31
0.0
0
LINE
8
0
6
CONTINUOUS
10
-5.531625
20
24.308621
30
0.0
11
-6.020103
21
24.244313
31
0.0
0
LINE
8
0
6
CONTINUOUS
10
-6.020103
20
24.244313
30
0.0
11
-6.475290
21
24.055775
31
0.0
0
LINE
8
0
6
CONTINUOUS
10
-6.475290
20
24.055775
30
0.0
11
-6.866170
21
23.755864
31
0.0
0
LINE
8
0
6
CONTINUOUS
10
-6.866170
20
23.755864
30
0.0
11
-7.166103
21
23.365002
31
0.0
0
LINE
8
0
6
CONTINUOUS
10
-7.166103
20
23.365002
30
0.0
11
-7.354648
21
22.909840
31
0.0
0
LINE
8
0
6
CONTINUOUS
10
-7.354648
20
22.909840
30
0.0
11
-7.400279
21
22.420605
31
0.0
0
LINE
8
0
6
CONTINUOUS
10
-4.316722
20
24.816808
30
0.0
11
-4.332946
21
24.740102
31
0.0
0
LINE
8
0
6
CONTINUOUS
10
-4.320902
20
24.895108
30
0.0
11
-4.316722
21
24.816808
31
0.0
0
LINE
8
0
6
CONTINUOUS
10
-4.345194
20
24.969655
30
0.0
11
-4.320902
21
24.895108
31
0.0
0
LINE
8
0
6
CONTINUOUS
10
-4.387951
20
25.035367
30
0.0
11
-4.345194
21
24.969655
31
0.0
0
LINE
8
0
6
CONTINUOUS
10
-4.446252
20
25.087781
30
0.0
11
-4.387951
21
25.035367
31
0.0
0
LINE
8
0
6
CONTINUOUS
10
-4.516128
20
25.123296
30
0.0
11
-4.448220
21
25.088781
31
0.0
0
LINE
8
0
6
CONTINUOUS
10
-4.592814
20
25.139516
30
0.0
11
-4.516128
21
25.123296
31
0.0
0
LINE
8
0
6
CONTINUOUS
10
-4.335189
20
24.740063
30
0.0
11
-4.319119
21
24.816663
31
0.0
0
LINE
8
0
6
CONTINUOUS
10
-4.319119
20
24.816663
30
0.0
11
-4.323453
21
24.894841
31
0.0
0
LINE
8
0
6
CONTINUOUS
10
-4.323453
20
24.894841
30
0.0
11
-4.347894
21
24.969258
31
0.0
0
LINE
8
0
6
CONTINUOUS
10
-4.347894
20
24.969258
30
0.0
11
-4.390780
21
25.034863
31
0.0
0
LINE
8
0
6
CONTINUOUS
10
-4.390780
20
25.034863
30
0.0
11
-4.448220
21
25.086307
31
0.0
0
LINE
8
0
6
CONTINUOUS
10
-4.449184
20
25.087170
30
0.0
11
-4.519129
21
25.122601
31
0.0
0
LINE
8
0
6
CONTINUOUS
10
-4.519129
20
25.122601
30
0.0
11
-4.595849
21
25.138768
31
0.0
0
LINE
8
0
6
CONTINUOUS
10
-4.595849
20
25.138768
30
0.0
11
-4.674114
21
25.134549
31
0.0
0
LINE
8
0
6
CONTINUOUS
10
-4.674114
20
25.134549
30
0.0
11
-4.748590
21
25.110257
31
0.0
0
LINE
8
0
6
CONTINUOUS
10
-4.748590
20
25.110257
30
0.0
11
-4.814202
21
25.067517
31
0.0
0
LINE
8
0
6
CONTINUOUS
10
-4.814202
20
25.067517
30
0.0
11
-4.866478
21
25.009267
31
0.0
0
LINE
8
0
6
CONTINUOUS
10
-4.866478
20
25.009267
30
0.0
11
-4.901858
21
24.939465
31
0.0
0
LINE
8
0
6
CONTINUOUS
10
-5.141578
20
24.257271
30
0.0
11
-4.902279
21
24.938266
31
0.0
0
LINE
8
0
6
CONTINUOUS
10
-4.577268
20
24.047572
30
0.0
11
-4.332946
21
24.740102
31
0.0
0
LINE
8
0
6
CONTINUOUS
10
-4.671414
20
25.135342
30
0.0
11
-4.593143
21
25.139539
31
0.0
0
LINE
8
0
6
CONTINUOUS
10
-4.578260
20
24.048333
30
0.0
11
-4.335189
21
24.740063
31
0.0
0
LINE
8
0
6
CONTINUOUS
10
-3.678704
20
22.817502
30
0.0
11
-3.733633
21
23.020120
31
0.0
0
LINE
8
0
6
CONTINUOUS
10
-3.761567
20
23.104764
30
0.0
11
-3.759267
21
23.100563
31
0.0
0
LINE
8
0
6
CONTINUOUS
10
-3.678704
20
22.817502
30
0.0
11
-3.761567
21
23.104764
31
0.0
0
LINE
8
0
6
CONTINUOUS
10
-3.791578
20
23.171361
30
0.0
11
-3.761567
21
23.104764
31
0.0
0
LINE
8
0
6
CONTINUOUS
10
-7.384554
20
22.025266
30
0.0
11
-7.302514
21
21.740491
31
0.0
0
LINE
8
0
6
CONTINUOUS
10
-7.302514
20
21.740491
30
0.0
11
-7.298455
21
21.727330
31
0.0
0
LINE
8
0
6
CONTINUOUS
10
-7.384554
20
22.025266
30
0.0
11
-7.292119
21
21.716763
31
0.0
0
LINE
8
0
6
CONTINUOUS
10
-7.271678
20
21.671399
30
0.0
11
-7.292119
21
21.716763
31
0.0
0
LINE
8
0
6
CONTINUOUS
10
-7.283684
20
21.700620
30
0.0
11
-7.298455
21
21.727330
31
0.0
0
LINE
8
0
6
CONTINUOUS
10
-3.637038
20
22.448422
30
0.0
11
-3.678704
21
22.817502
31
0.0
0
LINE
8
0
6
CONTINUOUS
10
-3.740157
20
23.010156
30
0.0
11
-3.791578
21
23.171361
31
0.0
0
LINE
8
0
6
CONTINUOUS
10
-6.606638
20
23.981595
30
0.0
11
-6.890383
21
23.741887
31
0.0
0
LINE
8
0
6
CONTINUOUS
10
-3.941345
20
21.391331
30
0.0
11
-3.770930
21
21.721364
31
0.0
0
LINE
8
0
6
CONTINUOUS
10
-3.668178
20
22.078297
30
0.0
11
-3.637038
21
22.448422
31
0.0
0
LINE
8
0
6
CONTINUOUS
10
-5.874784
20
20.557988
30
0.0
11
-5.504650
21
20.526860
31
0.0
0
LINE
8
0
6
CONTINUOUS
10
-4.211024
20
23.780125
30
0.0
11
-4.501482
21
24.011639
31
0.0
0
LINE
8
0
6
CONTINUOUS
10
-5.558606
20
24.315900
30
0.0
11
-5.927704
21
24.274220
31
0.0
0
LINE
8
0
6
CONTINUOUS
10
-5.135552
20
20.568547
30
0.0
11
-4.781674
21
20.681424
31
0.0
0
LINE
8
0
6
CONTINUOUS
10
-7.292328
20
23.121404
30
0.0
11
-7.395078
21
22.764470
31
0.0
0
LINE
8
0
6
CONTINUOUS
10
-6.890383
20
23.741887
30
0.0
11
-7.121913
21
23.451436
31
0.0
0
LINE
8
0
6
CONTINUOUS
10
-3.791578
20
23.171361
30
0.0
11
-3.971321
21
23.496404
31
0.0
0
LINE
8
0
6
CONTINUOUS
10
-6.231731
20
20.660725
30
0.0
11
-5.874784
21
20.557988
31
0.0
0
LINE
8
0
6
CONTINUOUS
10
-3.770930
20
21.721364
30
0.0
11
-3.668178
21
22.078297
31
0.0
0
LINE
8
0
6
CONTINUOUS
10
-6.561775
20
20.831128
30
0.0
11
-6.231731
21
20.660725
31
0.0
0
LINE
8
0
6
CONTINUOUS
10
-4.172874
20
21.100880
30
0.0
11
-3.941345
21
21.391331
31
0.0
0
LINE
8
0
6
CONTINUOUS
10
-6.281582
20
24.161336
30
0.0
11
-6.606638
21
23.981595
31
0.0
0
LINE
8
0
6
CONTINUOUS
10
-6.852232
20
21.062642
30
0.0
11
-6.561775
21
20.831128
31
0.0
0
LINE
8
0
6
CONTINUOUS
10
-7.426219
20
22.394345
30
0.0
11
-7.384552
21
22.025266
31
0.0
0
LINE
8
0
6
CONTINUOUS
10
-7.091935
20
21.346364
30
0.0
11
-6.852232
21
21.062642
31
0.0
0
LINE
8
0
6
CONTINUOUS
10
-7.121913
20
23.451436
30
0.0
11
-7.292328
21
23.121404
31
0.0
0
LINE
8
0
6
CONTINUOUS
10
-4.501482
20
24.011639
30
0.0
11
-4.576314
21
24.050274
31
0.0
0
LINE
8
0
6
CONTINUOUS
10
-7.384552
20
22.025266
30
0.0
11
-7.271678
21
21.671399
31
0.0
0
LINE
8
0
6
CONTINUOUS
10
-7.395078
20
22.764470
30
0.0
11
-7.426219
21
22.394345
31
0.0
0
LINE
8
0
6
CONTINUOUS
10
-5.188471
20
24.284772
30
0.0
11
-5.558606
21
24.315900
31
0.0
0
LINE
8
0
6
CONTINUOUS
10
-3.971321
20
23.496404
30
0.0
11
-4.211024
21
23.780125
31
0.0
0
LINE
8
0
6
CONTINUOUS
10
-5.927704
20
24.274220
30
0.0
11
-6.281582
21
24.161336
31
0.0
0
LINE
8
0
6
CONTINUOUS
10
-5.504650
20
20.526860
30
0.0
11
-5.135552
21
20.568547
31
0.0
0
LINE
8
0
6
CONTINUOUS
10
-7.271678
20
21.671399
30
0.0
11
-7.091935
21
21.346364
31
0.0
0
LINE
8
0
6
CONTINUOUS
10
-4.456616
20
20.861172
30
0.0
11
-4.172874
21
21.100880
31
0.0
0
LINE
8
0
6
CONTINUOUS
10
-4.781674
20
20.681424
30
0.0
11
-4.456616
21
20.861172
31
0.0
0
LINE
8
0
6
CONTINUOUS
10
-5.135744
20
24.269596
30
0.0
11
-5.188471
21
24.284772
31
0.0
0
LINE
8
0
6
CONTINUOUS
10
-4.488223
20
-42.749995
30
0.0
11
-4.448220
21
-42.749995
31
0.0
0
LINE
8
0
6
CONTINUOUS
10
-5.548276
20
-47.950000
30
0.0
11
-11.700802
21
-47.950000
31
0.0
0
LINE
8
0
6
CONTINUOUS
10
-5.268261
20
-47.950000
30
0.0
11
-5.548276
21
-47.950000
31
0.0
0
LINE
8
0
6
CONTINUOUS
10
-4.998249
20
-47.950000
30
0.0
11
-5.268261
21
-47.950000
31
0.0
0
LINE
8
0
6
CONTINUOUS
10
-4.768236
20
-47.950000
30
0.0
11
-4.998249
21
-47.950000
31
0.0
0
LINE
8
0
6
CONTINUOUS
10
-4.598228
20
-47.950000
30
0.0
11
-4.768236
21
-47.950000
31
0.0
0
LINE
8
0
6
CONTINUOUS
10
-4.488223
20
-47.950000
30
0.0
11
-4.598228
21
-47.950000
31
0.0
0
LINE
8
0
6
CONTINUOUS
10
-4.448220
20
-47.950000
30
0.0
11
-4.488223
21
-47.950000
31
0.0
0
LINE
8
0
6
CONTINUOUS
10
-4.488223
20
-42.749995
30
0.0
11
-4.598228
21
-42.749995
31
0.0
0
LINE
8
0
6
CONTINUOUS
10
-4.598228
20
-42.749995
30
0.0
11
-4.768236
21
-42.749995
31
0.0
0
LINE
8
0
6
CONTINUOUS
10
-4.998249
20
-42.749995
30
0.0
11
-5.268261
21
-42.749995
31
0.0
0
LINE
8
0
6
CONTINUOUS
10
-4.448220
20
-47.894584
30
0.0
11
-4.448220
21
-47.950000
31
0.0
0
LINE
8
0
6
CONTINUOUS
10
-5.268261
20
-42.749995
30
0.0
11
-5.548276
21
-42.749995
31
0.0
0
LINE
8
0
6
CONTINUOUS
10
-4.768236
20
-42.749995
30
0.0
11
-4.998249
21
-42.749995
31
0.0
0
LINE
8
0
6
CONTINUOUS
10
-4.448220
20
47.879170
30
0.0
11
-4.448220
21
47.950002
31
0.0
0
LINE
8
0
6
CONTINUOUS
10
-5.548276
20
47.950002
30
0.0
11
-5.268261
21
47.950002
31
0.0
0
LINE
8
0
6
CONTINUOUS
10
-5.268261
20
47.950002
30
0.0
11
-4.998249
21
47.950002
31
0.0
0
LINE
8
0
6
CONTINUOUS
10
-4.998249
20
47.950002
30
0.0
11
-4.768236
21
47.950002
31
0.0
0
LINE
8
0
6
CONTINUOUS
10
-4.768236
20
47.950002
30
0.0
11
-4.598228
21
47.950002
31
0.0
0
LINE
8
0
6
CONTINUOUS
10
-4.598228
20
47.950002
30
0.0
11
-4.488223
21
47.950002
31
0.0
0
LINE
8
0
6
CONTINUOUS
10
-4.488223
20
47.950002
30
0.0
11
-4.448220
21
47.950002
31
0.0
0
LINE
8
0
6
CONTINUOUS
10
-5.548276
20
42.699994
30
0.0
11
-5.268261
21
42.699994
31
0.0
0
LINE
8
0
6
CONTINUOUS
10
-5.268261
20
42.699994
30
0.0
11
-4.998249
21
42.699994
31
0.0
0
LINE
8
0
6
CONTINUOUS
10
-4.998249
20
42.699994
30
0.0
11
-4.768236
21
42.699994
31
0.0
0
LINE
8
0
6
CONTINUOUS
10
-4.768236
20
42.699994
30
0.0
11
-4.598228
21
42.699994
31
0.0
0
LINE
8
0
6
CONTINUOUS
10
-4.598228
20
42.699994
30
0.0
11
-4.488223
21
42.699994
31
0.0
0
LINE
8
0
6
CONTINUOUS
10
-4.488223
20
42.699994
30
0.0
11
-4.448220
21
42.699994
31
0.0
0
LINE
8
0
6
CONTINUOUS
10
-4.448220
20
-42.700000
30
0.0
11
-4.498224
21
-42.749995
31
0.0
0
LINE
8
0
6
CONTINUOUS
10
-4.448220
20
42.699994
30
0.0
11
-4.448220
21
42.668683
31
0.0
0
LINE
8
0
6
CONTINUOUS
10
-4.498224
20
42.749997
30
0.0
11
-4.448220
21
42.699994
31
0.0
0
LINE
8
0
6
CONTINUOUS
10
-4.448220
20
42.699994
30
0.0
11
-4.488223
21
42.699994
31
0.0
0
LINE
8
0
6
CONTINUOUS
10
-6.498325
20
42.699994
30
0.0
11
-6.608330
21
42.699994
31
0.0
0
LINE
8
0
6
CONTINUOUS
10
-6.648333
20
42.699994
30
0.0
11
-6.598329
21
42.749997
31
0.0
0
LINE
8
0
6
CONTINUOUS
10
-6.648333
20
-42.700000
30
0.0
11
-6.598329
21
-42.749995
31
0.0
0
LINE
8
0
6
CONTINUOUS
10
-5.828291
20
42.699994
30
0.0
11
-6.098304
21
42.699994
31
0.0
0
LINE
8
0
6
CONTINUOUS
10
-6.098304
20
42.699994
30
0.0
11
-6.328317
21
42.699994
31
0.0
0
LINE
8
0
6
CONTINUOUS
10
-6.328317
20
42.699994
30
0.0
11
-6.498325
21
42.699994
31
0.0
0
LINE
8
0
6
CONTINUOUS
10
-6.498325
20
42.699994
30
0.0
11
-6.608330
21
42.699994
31
0.0
0
LINE
8
0
6
CONTINUOUS
10
-6.648333
20
42.699994
30
0.0
11
-6.648333
21
42.668683
31
0.0
0
LINE
8
0
6
CONTINUOUS
10
-6.608330
20
42.699994
30
0.0
11
-6.648333
21
42.699994
31
0.0
0
LINE
8
0
6
CONTINUOUS
10
-5.828291
20
42.699994
30
0.0
11
-5.548276
21
42.699994
31
0.0
0
LINE
8
0
6
CONTINUOUS
10
-5.548276
20
42.749997
30
0.0
11
-5.268261
21
42.749997
31
0.0
0
LINE
8
0
6
CONTINUOUS
10
-5.268261
20
42.749997
30
0.0
11
-4.998249
21
42.749997
31
0.0
0
LINE
8
0
6
CONTINUOUS
10
-4.998249
20
42.749997
30
0.0
11
-4.768236
21
42.749997
31
0.0
0
LINE
8
0
6
CONTINUOUS
10
-4.768236
20
42.749997
30
0.0
11
-4.598228
21
42.749997
31
0.0
0
LINE
8
0
6
CONTINUOUS
10
-4.598228
20
42.749997
30
0.0
11
-4.488223
21
42.749997
31
0.0
0
LINE
8
0
6
CONTINUOUS
10
-4.448220
20
42.749997
30
0.0
11
-4.448220
21
42.820767
31
0.0
0
LINE
8
0
6
CONTINUOUS
10
-4.488223
20
42.749997
30
0.0
11
-4.448220
21
42.749997
31
0.0
0
LINE
8
0
6
CONTINUOUS
10
-4.448220
20
42.820767
30
0.0
11
-4.448220
21
47.879170
31
0.0
0
LINE
8
0
6
CONTINUOUS
10
-11.750804
20
47.950002
30
0.0
11
-11.750804
21
47.879170
31
0.0
0
LINE
8
0
6
CONTINUOUS
10
-5.548276
20
42.749997
30
0.0
11
-11.700802
21
42.749997
31
0.0
0
LINE
8
0
6
CONTINUOUS
10
-11.750804
20
42.820767
30
0.0
11
-11.750804
21
42.749997
31
0.0
0
LINE
8
0
6
CONTINUOUS
10
-11.750804
20
47.879170
30
0.0
11
-11.750804
21
42.820767
31
0.0
0
LINE
8
0
6
CONTINUOUS
10
-4.448220
20
42.668683
30
0.0
11
-4.448220
21
42.614499
31
0.0
0
LINE
8
0
6
CONTINUOUS
10
-6.648333
20
42.668683
30
0.0
11
-6.648333
21
42.614499
31
0.0
0
LINE
8
0
6
CONTINUOUS
10
-4.448220
20
-42.749995
30
0.0
11
-4.448220
21
-42.805412
31
0.0
0
LINE
8
0
6
CONTINUOUS
10
-4.448220
20
-42.805412
30
0.0
11
-4.448220
21
-47.894584
31
0.0
0
LINE
8
0
6
CONTINUOUS
10
-11.750804
20
-42.749995
30
0.0
11
-11.750804
21
-42.805412
31
0.0
0
LINE
8
0
6
CONTINUOUS
10
-11.750804
20
-42.805412
30
0.0
11
-11.750804
21
-47.894584
31
0.0
0
LINE
8
0
6
CONTINUOUS
10
-11.750804
20
-47.950000
30
0.0
11
-11.700802
21
-47.950000
31
0.0
0
LINE
8
0
6
CONTINUOUS
10
-11.750804
20
-47.894584
30
0.0
11
-11.750804
21
-47.950000
31
0.0
0
LINE
8
0
6
CONTINUOUS
10
-11.700802
20
-42.749995
30
0.0
11
-5.548276
21
-42.749995
31
0.0
0
LINE
8
0
6
CONTINUOUS
10
-11.750804
20
-42.749995
30
0.0
11
-11.700802
21
-42.749995
31
0.0
0
LINE
8
0
6
CONTINUOUS
10
-4.598228
20
-42.700000
30
0.0
11
-4.488223
21
-42.700000
31
0.0
0
LINE
8
0
6
CONTINUOUS
10
-5.828291
20
-42.700000
30
0.0
11
-5.548276
21
-42.700000
31
0.0
0
LINE
8
0
6
CONTINUOUS
10
-6.608330
20
-42.700000
30
0.0
11
-6.498325
21
-42.700000
31
0.0
0
LINE
8
0
6
CONTINUOUS
10
-6.098304
20
-42.700000
30
0.0
11
-5.828291
21
-42.700000
31
0.0
0
LINE
8
0
6
CONTINUOUS
10
-6.498325
20
-42.700000
30
0.0
11
-6.328317
21
-42.700000
31
0.0
0
LINE
8
0
6
CONTINUOUS
10
-5.548276
20
-42.700000
30
0.0
11
-5.268261
21
-42.700000
31
0.0
0
LINE
8
0
6
CONTINUOUS
10
-6.328317
20
-42.700000
30
0.0
11
-6.098304
21
-42.700000
31
0.0
0
LINE
8
0
6
CONTINUOUS
10
-4.448220
20
-42.700000
30
0.0
11
-4.448220
21
-42.678569
31
0.0
0
LINE
8
0
6
CONTINUOUS
10
-4.488223
20
-42.700000
30
0.0
11
-4.448220
21
-42.700000
31
0.0
0
LINE
8
0
6
CONTINUOUS
10
-4.768236
20
-42.700000
30
0.0
11
-4.598228
21
-42.700000
31
0.0
0
LINE
8
0
6
CONTINUOUS
10
-5.268261
20
-42.700000
30
0.0
11
-4.998249
21
-42.700000
31
0.0
0
LINE
8
0
6
CONTINUOUS
10
-6.648333
20
-42.700000
30
0.0
11
-6.608330
21
-42.700000
31
0.0
0
LINE
8
0
6
CONTINUOUS
10
-4.998249
20
-42.700000
30
0.0
11
-4.768236
21
-42.700000
31
0.0
0
LINE
8
0
6
CONTINUOUS
10
-6.648333
20
-42.700000
30
0.0
11
-6.648333
21
-42.678569
31
0.0
0
LINE
8
0
6
CONTINUOUS
10
-4.448220
20
42.614499
30
0.0
11
-4.448220
21
25.088781
31
0.0
0
LINE
8
0
6
CONTINUOUS
10
-4.448220
20
24.413357
30
0.0
11
-4.448220
21
23.969186
31
0.0
0
LINE
8
0
6
CONTINUOUS
10
-4.448220
20
20.868265
30
0.0
11
-4.448220
21
-42.620574
31
0.0
0
LINE
8
0
6
CONTINUOUS
10
-6.648333
20
42.614499
30
0.0
11
-6.648333
21
23.946372
31
0.0
0
LINE
8
0
6
CONTINUOUS
10
-6.648333
20
20.900121
30
0.0
11
-6.648333
21
-42.620574
31
0.0
0
LINE
8
0
6
CONTINUOUS
10
-4.448220
20
-42.620574
30
0.0
11
-4.448220
21
-42.678569
31
0.0
0
LINE
8
0
6
CONTINUOUS
10
-6.648333
20
-42.620574
30
0.0
11
-6.648333
21
-42.678569
31
0.0
0
LINE
8
0
6
CONTINUOUS
10
-11.700802
20
42.749997
30
0.0
11
-11.750804
21
42.749997
31
0.0
0
LINE
8
0
6
CONTINUOUS
10
-11.700802
20
47.950002
30
0.0
11
-5.548276
21
47.950002
31
0.0
0
LINE
8
0
6
CONTINUOUS
10
-11.750804
20
47.950002
30
0.0
11
-11.700802
21
47.950002
31
0.0
0
LINE
8
0
6
CONTINUOUS
10
-7.049862
20
21.296565
30
0.0
11
-7.349090
21
20.741528
31
0.0
0
LINE
8
0
6
CONTINUOUS
10
-6.767270
20
18.208058
30
0.0
11
-6.648333
21
18.462684
31
0.0
0
LINE
8
0
6
CONTINUOUS
10
-7.349090
20
20.741528
30
0.0
11
-8.239322
21
18.835004
31
0.0
0
LINE
8
0
6
CONTINUOUS
10
-7.415133
20
16.529851
30
0.0
11
-6.767270
21
18.208058
31
0.0
0
LINE
8
0
6
CONTINUOUS
10
-8.239322
20
18.835004
30
0.0
11
-8.928829
21
17.048230
31
0.0
0
LINE
8
0
6
CONTINUOUS
10
-7.891143
20
14.943757
30
0.0
11
-7.415133
21
16.529851
31
0.0
0
LINE
8
0
6
CONTINUOUS
10
-8.928829
20
17.048230
30
0.0
11
-9.440685
21
15.342404
31
0.0
0
LINE
8
0
6
CONTINUOUS
10
-8.222861
20
13.402783
30
0.0
11
-7.891143
21
14.943757
31
0.0
0
LINE
8
0
6
CONTINUOUS
10
-9.440685
20
15.342404
30
0.0
11
-9.798481
21
13.681031
31
0.0
0
LINE
8
0
6
CONTINUOUS
10
-8.436342
20
11.858914
30
0.0
11
-8.222861
21
13.402783
31
0.0
0
LINE
8
0
6
CONTINUOUS
10
-9.798481
20
13.681031
30
0.0
11
-10.027311
21
12.028668
31
0.0
0
LINE
8
0
6
CONTINUOUS
10
-8.556048
20
10.265172
30
0.0
11
-8.436342
21
11.858914
31
0.0
0
LINE
8
0
6
CONTINUOUS
10
-10.027311
20
12.028668
30
0.0
11
-10.153862
21
10.348801
31
0.0
0
LINE
8
0
6
CONTINUOUS
10
-8.605732
20
8.577134
30
0.0
11
-8.556048
21
10.265172
31
0.0
0
LINE
8
0
6
CONTINUOUS
10
-10.153862
20
10.348801
30
0.0
11
-10.205532
21
8.602387
31
0.0
0
LINE
8
0
6
CONTINUOUS
10
-8.609437
20
6.753041
30
0.0
11
-8.605732
21
8.577134
31
0.0
0
LINE
8
0
6
CONTINUOUS
10
-10.205532
20
8.602387
30
0.0
11
-10.209428
21
6.747704
31
0.0
0
LINE
8
0
6
CONTINUOUS
10
-8.591977
20
4.755765
30
0.0
11
-8.609437
21
6.753041
31
0.0
0
LINE
8
0
6
CONTINUOUS
10
-10.209428
20
6.747704
30
0.0
11
-10.191883
21
4.738412
31
0.0
0
LINE
8
0
6
CONTINUOUS
10
-8.531485
20
0.085728
30
0.0
11
-8.591977
21
4.755765
31
0.0
0
LINE
8
0
6
CONTINUOUS
10
-10.191883
20
4.738412
30
0.0
11
-10.131301
21
0.061421
31
0.0
0
LINE
8
0
6
CONTINUOUS
10
-8.433307
20
-5.546481
30
0.0
11
-8.531485
21
0.085728
31
0.0
0
LINE
8
0
6
CONTINUOUS
10
-10.131301
20
0.061421
30
0.0
11
-10.033027
21
-5.576400
31
0.0
0
LINE
8
0
6
CONTINUOUS
10
-8.307802
20
-11.830489
30
0.0
11
-8.433307
21
-5.546481
31
0.0
0
LINE
8
0
6
CONTINUOUS
10
-10.033027
20
-5.576400
30
0.0
11
-9.907459
21
-11.863666
31
0.0
0
LINE
8
0
6
CONTINUOUS
10
-8.165354
20
-18.454900
30
0.0
11
-8.307802
21
-11.830489
31
0.0
0
LINE
8
0
6
CONTINUOUS
10
-9.907459
20
-11.863666
30
0.0
11
-9.764969
21
-18.490010
31
0.0
0
LINE
8
0
6
CONTINUOUS
10
-8.016342
20
-25.108625
30
0.0
11
-8.165354
21
-18.454900
31
0.0
0
LINE
8
0
6
CONTINUOUS
10
-9.764969
20
-18.490010
30
0.0
11
-9.615934
21
-25.144761
31
0.0
0
LINE
8
0
6
CONTINUOUS
10
-7.871144
20
-31.480735
30
0.0
11
-8.016342
21
-25.108625
31
0.0
0
LINE
8
0
6
CONTINUOUS
10
-9.615934
20
-25.144761
30
0.0
11
-9.470731
21
-31.517089
31
0.0
0
LINE
8
0
6
CONTINUOUS
10
-7.740137
20
-37.260439
30
0.0
11
-7.871144
21
-31.480735
31
0.0
0
LINE
8
0
6
CONTINUOUS
10
-9.470731
20
-31.517089
30
0.0
11
-9.339741
21
-37.296026
31
0.0
0
LINE
8
0
6
CONTINUOUS
10
-7.633690
20
-42.137238
30
0.0
11
-7.740137
21
-37.260439
31
0.0
0
LINE
8
0
6
CONTINUOUS
10
-9.339741
20
-37.296026
30
0.0
11
-9.233349
21
-42.170311
31
0.0
0
LINE
8
0
6
CONTINUOUS
10
-7.621730
20
-42.749995
30
0.0
11
-7.633690
21
-42.137238
31
0.0
0
LINE
8
0
6
CONTINUOUS
10
-9.233349
20
-42.170311
30
0.0
11
-9.222033
21
-42.749995
31
0.0
0
LINE
8
0
6
CONTINUOUS
10
5.904758
20
36.048730
30
0.0
11
5.919588
21
36.046307
31
0.0
0
LINE
8
0
6
CONTINUOUS
10
5.919588
20
36.046307
30
0.0
11
5.937380
21
36.059109
31
0.0
0
LINE
8
0
6
CONTINUOUS
10
5.937380
20
36.059109
30
0.0
11
5.989204
21
36.096378
31
0.0
0
LINE
8
0
6
CONTINUOUS
10
5.989204
20
36.096378
30
0.0
11
6.072737
21
36.156452
31
0.0
0
LINE
8
0
6
CONTINUOUS
10
6.072737
20
36.156452
30
0.0
11
6.185652
21
36.237660
31
0.0
0
LINE
8
0
6
CONTINUOUS
10
6.966095
20
36.798945
30
0.0
11
7.034951
21
36.848467
31
0.0
0
LINE
8
0
6
CONTINUOUS
10
7.256889
20
37.008086
30
0.0
11
7.350025
21
37.075070
31
0.0
0
LINE
8
0
6
CONTINUOUS
10
7.350025
20
37.075070
30
0.0
11
7.603538
21
37.257389
31
0.0
0
LINE
8
0
6
CONTINUOUS
10
7.603538
20
37.257389
30
0.0
11
7.867840
21
37.447468
31
0.0
0
LINE
8
0
6
CONTINUOUS
10
7.867840
20
37.447468
30
0.0
11
8.132141
21
37.637554
31
0.0
0
LINE
8
0
6
CONTINUOUS
10
8.132141
20
37.637554
30
0.0
11
8.385654
21
37.819882
31
0.0
0
LINE
8
0
6
CONTINUOUS
10
8.385654
20
37.819882
30
0.0
11
8.419007
21
37.843868
31
0.0
0
LINE
8
0
6
CONTINUOUS
10
8.649439
20
38.009588
30
0.0
11
8.699495
21
38.045587
31
0.0
0
LINE
8
0
6
CONTINUOUS
10
8.851021
20
38.154560
30
0.0
11
9.058226
21
38.303585
31
0.0
0
LINE
8
0
6
CONTINUOUS
10
9.410053
20
38.556614
30
0.0
11
9.550028
21
38.657284
31
0.0
0
LINE
8
0
6
CONTINUOUS
10
9.550028
20
38.657284
30
0.0
11
9.662943
21
38.738491
31
0.0
0
LINE
8
0
6
CONTINUOUS
10
9.662943
20
38.738491
30
0.0
11
9.746477
21
38.798565
31
0.0
0
LINE
8
0
6
CONTINUOUS
10
9.746477
20
38.798565
30
0.0
11
9.798300
21
38.835835
31
0.0
0
LINE
8
0
6
CONTINUOUS
10
9.816091
20
38.848629
30
0.0
11
9.818735
21
38.864815
31
0.0
0
LINE
8
0
6
CONTINUOUS
10
9.798300
20
38.835835
30
0.0
11
9.816091
21
38.848629
31
0.0
0
LINE
8
0
6
CONTINUOUS
10
10.289699
20
39.236996
30
0.0
11
10.309282
21
39.356877
31
0.0
0
LINE
8
0
6
CONTINUOUS
10
10.267218
20
39.220829
30
0.0
11
10.289699
21
39.236996
31
0.0
0
LINE
8
0
6
CONTINUOUS
10
10.201731
20
39.173725
30
0.0
11
10.267218
21
39.220829
31
0.0
0
LINE
8
0
6
CONTINUOUS
10
10.096174
20
39.097813
30
0.0
11
10.201731
21
39.173725
31
0.0
0
LINE
8
0
6
CONTINUOUS
10
9.953487
20
38.995197
30
0.0
11
10.096174
21
39.097813
31
0.0
0
LINE
8
0
6
CONTINUOUS
10
9.964107
20
39.114895
30
0.0
11
9.781931
21
38.983875
31
0.0
0
LINE
8
0
6
CONTINUOUS
10
9.776607
20
38.867985
30
0.0
11
9.953487
21
38.995197
31
0.0
0
LINE
8
0
6
CONTINUOUS
10
9.781931
20
38.983875
30
0.0
11
9.567581
21
38.829708
31
0.0
0
LINE
8
0
6
CONTINUOUS
10
9.568472
20
38.718296
30
0.0
11
9.776607
21
38.867985
31
0.0
0
LINE
8
0
6
CONTINUOUS
10
9.332018
20
38.548237
30
0.0
11
9.568472
21
38.718296
31
0.0
0
LINE
8
0
6
CONTINUOUS
10
9.234845
20
38.590410
30
0.0
11
9.054380
21
38.460621
31
0.0
0
LINE
8
0
6
CONTINUOUS
10
9.070183
20
38.359928
30
0.0
11
9.332018
21
38.548237
31
0.0
0
LINE
8
0
6
CONTINUOUS
10
9.054380
20
38.460621
30
0.0
11
8.859287
21
38.320314
31
0.0
0
LINE
8
0
6
CONTINUOUS
10
8.785904
20
38.155483
30
0.0
11
9.070183
21
38.359928
31
0.0
0
LINE
8
0
6
CONTINUOUS
10
8.535398
20
38.087380
30
0.0
11
8.448561
21
38.024929
31
0.0
0
LINE
8
0
6
CONTINUOUS
10
8.482119
20
37.937000
30
0.0
11
8.785904
21
38.155483
31
0.0
0
LINE
8
0
6
CONTINUOUS
10
8.448561
20
38.024929
30
0.0
11
8.118545
21
37.787594
31
0.0
0
LINE
8
0
6
CONTINUOUS
10
8.161764
20
37.706608
30
0.0
11
8.482119
21
37.937000
31
0.0
0
LINE
8
0
6
CONTINUOUS
10
8.118545
20
37.787594
30
0.0
11
7.774662
21
37.540264
31
0.0
0
LINE
8
0
6
CONTINUOUS
10
7.827780
20
37.466412
30
0.0
11
8.161764
21
37.706608
31
0.0
0
LINE
8
0
6
CONTINUOUS
10
7.774662
20
37.540264
30
0.0
11
7.430778
21
37.292950
31
0.0
0
LINE
8
0
6
CONTINUOUS
10
7.493793
20
37.226208
30
0.0
11
7.827780
21
37.466412
31
0.0
0
LINE
8
0
6
CONTINUOUS
10
7.430778
20
37.292950
30
0.0
11
7.100761
21
37.055607
31
0.0
0
LINE
8
0
6
CONTINUOUS
10
7.173439
20
36.995823
30
0.0
11
7.493793
21
37.226208
31
0.0
0
LINE
8
0
6
CONTINUOUS
10
7.100761
20
37.055607
30
0.0
11
6.787790
21
36.830525
31
0.0
0
LINE
8
0
6
CONTINUOUS
10
6.869656
20
36.777340
30
0.0
11
7.173439
21
36.995823
31
0.0
0
LINE
8
0
6
CONTINUOUS
10
6.787790
20
36.830525
30
0.0
11
6.494944
21
36.619908
31
0.0
0
LINE
8
0
6
CONTINUOUS
10
6.585375
20
36.572888
30
0.0
11
6.869656
21
36.777340
31
0.0
0
LINE
8
0
6
CONTINUOUS
10
6.494944
20
36.619908
30
0.0
11
6.225258
21
36.425953
31
0.0
0
LINE
8
0
6
CONTINUOUS
10
6.323540
20
36.384579
30
0.0
11
6.585375
21
36.572888
31
0.0
0
LINE
8
0
6
CONTINUOUS
10
6.225258
20
36.425953
30
0.0
11
5.981743
21
36.250820
31
0.0
0
LINE
8
0
6
CONTINUOUS
10
6.087086
20
36.214527
30
0.0
11
6.323540
21
36.384579
31
0.0
0
LINE
8
0
6
CONTINUOUS
10
5.981743
20
36.250820
30
0.0
11
5.767393
21
36.096668
31
0.0
0
LINE
8
0
6
CONTINUOUS
10
5.878950
20
36.064839
30
0.0
11
6.087086
21
36.214527
31
0.0
0
LINE
8
0
6
CONTINUOUS
10
5.767393
20
36.096668
30
0.0
11
5.585215
21
35.965641
31
0.0
0
LINE
8
0
6
CONTINUOUS
10
5.702072
20
35.937626
30
0.0
11
5.878950
21
36.064839
31
0.0
0
LINE
8
0
6
CONTINUOUS
10
5.559385
20
35.835011
30
0.0
11
5.702072
21
35.937626
31
0.0
0
LINE
8
0
6
CONTINUOUS
10
5.453829
20
35.759091
30
0.0
11
5.559385
21
35.835011
31
0.0
0
LINE
8
0
6
CONTINUOUS
10
5.388340
20
35.711994
30
0.0
11
5.453829
21
35.759091
31
0.0
0
LINE
8
0
6
CONTINUOUS
10
5.365858
20
35.695828
30
0.0
11
5.388340
21
35.711994
31
0.0
0
LINE
8
0
6
CONTINUOUS
10
9.568504
20
38.549343
30
0.0
11
9.689024
21
38.636089
31
0.0
0
LINE
8
0
6
CONTINUOUS
10
5.763182
20
35.866558
30
0.0
11
5.792343
21
35.887547
31
0.0
0
LINE
8
0
6
CONTINUOUS
10
5.723825
20
35.821720
30
0.0
11
5.752987
21
35.842709
31
0.0
0
LINE
8
0
6
CONTINUOUS
10
9.421587
20
38.458065
30
0.0
11
9.542105
21
38.544811
31
0.0
0
LINE
8
0
6
CONTINUOUS
10
9.197647
20
38.213978
30
0.0
11
9.257904
21
38.257351
31
0.0
0
LINE
8
0
6
CONTINUOUS
10
8.755304
20
37.883602
30
0.0
11
8.875822
21
37.970348
31
0.0
0
LINE
8
0
6
CONTINUOUS
10
8.875822
20
37.970348
30
0.0
11
8.936079
21
38.013714
31
0.0
0
LINE
8
0
6
CONTINUOUS
10
6.609224
20
36.345783
30
0.0
11
6.669487
21
36.389156
31
0.0
0
LINE
8
0
6
CONTINUOUS
10
6.669487
20
36.389156
30
0.0
11
6.790007
21
36.475903
31
0.0
0
LINE
8
0
6
CONTINUOUS
10
6.790007
20
36.475903
30
0.0
11
6.850264
21
36.519276
31
0.0
0
LINE
8
0
6
CONTINUOUS
10
6.248323
20
36.156910
30
0.0
11
6.308578
21
36.200283
31
0.0
0
LINE
8
0
6
CONTINUOUS
10
11.088823
20
40.054119
30
0.0
11
11.045894
21
40.113763
31
0.0
0
LINE
8
0
6
CONTINUOUS
10
11.020403
20
40.004872
30
0.0
11
11.088823
21
40.054119
31
0.0
0
LINE
8
0
6
CONTINUOUS
10
11.020403
20
40.004872
30
0.0
11
10.991319
21
40.045281
31
0.0
0
LINE
8
0
6
CONTINUOUS
10
6.280905
20
36.884625
30
0.0
11
6.257558
21
36.917062
31
0.0
0
LINE
8
0
6
CONTINUOUS
10
6.207029
20
36.831448
30
0.0
11
6.280905
21
36.884625
31
0.0
0
LINE
8
0
6
CONTINUOUS
10
4.668934
20
35.370525
30
0.0
11
4.704052
21
35.395809
31
0.0
0
LINE
8
0
6
CONTINUOUS
10
4.584426
20
35.487936
30
0.0
11
4.668934
21
35.370525
31
0.0
0
LINE
8
0
6
CONTINUOUS
10
5.505108
20
36.045879
30
0.0
11
5.477359
21
36.084432
31
0.0
0
LINE
8
0
6
CONTINUOUS
10
6.784153
20
37.036190
30
0.0
11
6.879679
21
37.104946
31
0.0
0
LINE
8
0
6
CONTINUOUS
10
6.737121
20
37.101533
30
0.0
11
6.784153
21
37.036190
31
0.0
0
LINE
8
0
6
CONTINUOUS
10
6.980137
20
36.987667
30
0.0
11
6.947174
21
37.033464
31
0.0
0
LINE
8
0
6
CONTINUOUS
10
6.943710
20
36.961445
30
0.0
11
6.980137
21
36.987667
31
0.0
0
LINE
8
0
6
CONTINUOUS
10
6.149994
20
36.373333
30
0.0
11
6.122379
21
36.411699
31
0.0
0
LINE
8
0
6
CONTINUOUS
10
10.648148
20
39.559452
30
0.0
11
10.590312
21
39.639805
31
0.0
0
LINE
8
0
6
CONTINUOUS
10
10.548517
20
39.487744
30
0.0
11
10.648148
21
39.559452
31
0.0
0
LINE
8
0
6
CONTINUOUS
10
9.559843
20
38.741322
30
0.0
11
9.707281
21
38.847439
31
0.0
0
LINE
8
0
6
CONTINUOUS
10
8.082251
20
37.836804
30
0.0
11
8.156126
21
37.889973
31
0.0
0
LINE
8
0
6
CONTINUOUS
10
10.197275
20
39.442465
30
0.0
11
10.233053
21
39.392758
31
0.0
0
LINE
8
0
6
CONTINUOUS
10
10.233053
20
39.392758
30
0.0
11
10.268171
21
39.418034
31
0.0
0
LINE
8
0
6
CONTINUOUS
10
10.219083
20
39.486233
30
0.0
11
10.268171
21
39.418034
31
0.0
0
LINE
8
0
6
CONTINUOUS
10
10.268171
20
39.418034
30
0.0
11
10.429659
21
39.534268
31
0.0
0
LINE
8
0
6
CONTINUOUS
10
10.362145
20
39.628068
30
0.0
11
10.429659
21
39.534268
31
0.0
0
LINE
8
0
6
CONTINUOUS
10
10.556026
20
39.625225
30
0.0
11
10.483396
21
39.726133
31
0.0
0
LINE
8
0
6
CONTINUOUS
10
10.429659
20
39.534268
30
0.0
11
10.556026
21
39.625225
31
0.0
0
LINE
8
0
6
CONTINUOUS
10
6.236507
20
36.252072
30
0.0
11
6.318426
21
36.311031
31
0.0
0
LINE
8
0
6
CONTINUOUS
10
6.203348
20
36.298140
30
0.0
11
6.236507
21
36.252072
31
0.0
0
LINE
8
0
6
CONTINUOUS
10
6.123491
20
36.076153
30
0.0
11
6.244009
21
36.162899
31
0.0
0
LINE
8
0
6
CONTINUOUS
10
6.187595
20
36.241278
30
0.0
11
6.244009
21
36.162899
31
0.0
0
LINE
8
0
6
CONTINUOUS
10
6.304268
20
36.206265
30
0.0
11
6.255583
21
36.273904
31
0.0
0
LINE
8
0
6
CONTINUOUS
10
6.244009
20
36.162899
30
0.0
11
6.304268
21
36.206265
31
0.0
0
LINE
8
0
6
CONTINUOUS
10
6.382624
20
36.279286
30
0.0
11
6.503145
21
36.366032
31
0.0
0
LINE
8
0
6
CONTINUOUS
10
6.382624
20
36.279286
30
0.0
11
6.360798
21
36.309610
31
0.0
0
LINE
8
0
6
CONTINUOUS
10
6.322361
20
36.235905
30
0.0
11
6.382624
21
36.279286
31
0.0
0
LINE
8
0
6
CONTINUOUS
10
6.296164
20
36.272302
30
0.0
11
6.322361
21
36.235905
31
0.0
0
LINE
8
0
6
CONTINUOUS
10
6.604578
20
36.352230
30
0.0
11
6.664843
21
36.395611
31
0.0
0
LINE
8
0
6
CONTINUOUS
10
6.554695
20
36.421534
30
0.0
11
6.604578
21
36.352230
31
0.0
0
LINE
8
0
6
CONTINUOUS
10
7.005373
20
36.626423
30
0.0
11
7.125893
21
36.713169
31
0.0
0
LINE
8
0
6
CONTINUOUS
10
7.075235
20
36.783550
30
0.0
11
7.125893
21
36.713169
31
0.0
0
LINE
8
0
6
CONTINUOUS
10
7.186150
20
36.756542
30
0.0
11
7.139352
21
36.821560
31
0.0
0
LINE
8
0
6
CONTINUOUS
10
7.125893
20
36.713169
30
0.0
11
7.186150
21
36.756542
31
0.0
0
LINE
8
0
6
CONTINUOUS
10
7.005373
20
36.626423
30
0.0
11
6.977276
21
36.665459
31
0.0
0
LINE
8
0
6
CONTINUOUS
10
6.945110
20
36.583042
30
0.0
11
7.005373
21
36.626423
31
0.0
0
LINE
8
0
6
CONTINUOUS
10
6.885629
20
36.665683
30
0.0
11
6.945110
21
36.583042
31
0.0
0
LINE
8
0
6
CONTINUOUS
10
7.138788
20
36.663792
30
0.0
11
7.199053
21
36.707173
31
0.0
0
LINE
8
0
6
CONTINUOUS
10
7.090533
20
36.730834
30
0.0
11
7.138788
21
36.663792
31
0.0
0
LINE
8
0
6
CONTINUOUS
10
8.316790
20
37.634236
30
0.0
11
8.377054
21
37.677616
31
0.0
0
LINE
8
0
6
CONTINUOUS
10
8.257540
20
37.716554
30
0.0
11
8.316790
21
37.634236
31
0.0
0
LINE
8
0
6
CONTINUOUS
10
8.303143
20
37.780303
30
0.0
11
8.377054
21
37.677616
31
0.0
0
LINE
8
0
6
CONTINUOUS
10
8.377054
20
37.677616
30
0.0
11
8.497574
21
37.764362
31
0.0
0
LINE
8
0
6
CONTINUOUS
10
7.916216
20
37.354796
30
0.0
11
7.973274
21
37.275524
31
0.0
0
LINE
8
0
6
CONTINUOUS
10
7.973274
20
37.275524
30
0.0
11
8.033539
21
37.318905
31
0.0
0
LINE
8
0
6
CONTINUOUS
10
8.949245
20
38.097195
30
0.0
11
9.009508
21
38.140568
31
0.0
0
LINE
8
0
6
CONTINUOUS
10
8.896368
20
38.170658
30
0.0
11
8.949245
21
38.097195
31
0.0
0
LINE
8
0
6
CONTINUOUS
10
8.941968
20
38.234404
30
0.0
11
9.009508
21
38.140568
31
0.0
0
LINE
8
0
6
CONTINUOUS
10
9.009508
20
38.140568
30
0.0
11
9.130028
21
38.227322
31
0.0
0
LINE
8
0
6
CONTINUOUS
10
9.070780
20
38.136044
30
0.0
11
9.191301
21
38.222790
31
0.0
0
LINE
8
0
6
CONTINUOUS
10
9.597704
20
38.594647
30
0.0
11
9.567152
21
38.637094
31
0.0
0
LINE
8
0
6
CONTINUOUS
10
9.537449
20
38.551281
30
0.0
11
9.597704
21
38.594647
31
0.0
0
LINE
8
0
6
CONTINUOUS
10
10.395753
20
39.717308
30
0.0
11
10.439154
21
39.657009
31
0.0
0
LINE
8
0
6
CONTINUOUS
10
10.439154
20
39.657009
30
0.0
11
10.474272
21
39.682285
31
0.0
0
LINE
8
0
6
CONTINUOUS
10
9.760076
20
39.206936
30
0.0
11
9.885546
21
39.297245
31
0.0
0
LINE
8
0
6
CONTINUOUS
10
9.702689
20
39.286665
30
0.0
11
9.760076
21
39.206936
31
0.0
0
LINE
8
0
6
CONTINUOUS
10
9.013037
20
38.699764
30
0.0
11
9.182442
21
38.821697
31
0.0
0
LINE
8
0
6
CONTINUOUS
10
9.064220
20
38.985945
30
0.0
11
9.182442
21
38.821697
31
0.0
0
LINE
8
0
6
CONTINUOUS
10
9.256315
20
38.874867
30
0.0
11
9.161189
21
39.007029
31
0.0
0
LINE
8
0
6
CONTINUOUS
10
9.182442
20
38.821697
30
0.0
11
9.256315
21
38.874867
31
0.0
0
LINE
8
0
6
CONTINUOUS
10
8.005388
20
38.002682
30
0.0
11
8.173626
21
38.123776
31
0.0
0
LINE
8
0
6
CONTINUOUS
10
10.095350
20
39.066120
30
0.0
11
10.152939
21
39.107571
31
0.0
0
LINE
8
0
6
CONTINUOUS
10
8.702909
20
38.040844
30
0.0
11
8.760502
21
38.082295
31
0.0
0
LINE
8
0
6
CONTINUOUS
10
8.760502
20
38.082295
30
0.0
11
8.875687
21
38.165203
31
0.0
0
LINE
8
0
6
CONTINUOUS
10
10.022783
20
39.006184
30
0.0
11
10.137968
21
39.089092
31
0.0
0
LINE
8
0
6
CONTINUOUS
10
10.137968
20
39.089092
30
0.0
11
10.195553
21
39.130543
31
0.0
0
LINE
8
0
6
CONTINUOUS
10
9.455973
20
38.580502
30
0.0
11
9.428995
21
38.617984
31
0.0
0
LINE
8
0
6
CONTINUOUS
10
9.398386
20
38.539051
30
0.0
11
9.455973
21
38.580502
31
0.0
0
LINE
8
0
6
CONTINUOUS
10
8.997099
20
38.255398
30
0.0
11
9.054695
21
38.296856
31
0.0
0
LINE
8
0
6
CONTINUOUS
10
8.427862
20
37.831570
30
0.0
11
8.485456
21
37.873028
31
0.0
0
LINE
8
0
6
CONTINUOUS
10
8.371958
20
37.909239
30
0.0
11
8.427862
21
37.831570
31
0.0
0
LINE
8
0
6
CONTINUOUS
10
8.485456
20
37.873028
30
0.0
11
8.600639
21
37.955929
31
0.0
0
LINE
8
0
6
CONTINUOUS
10
5.521572
20
35.695652
30
0.0
11
5.603493
21
35.754620
31
0.0
0
LINE
8
0
6
CONTINUOUS
10
5.452935
20
35.791014
30
0.0
11
5.521572
21
35.695652
31
0.0
0
LINE
8
0
6
CONTINUOUS
10
6.575640
20
36.495838
30
0.0
11
6.686724
21
36.575794
31
0.0
0
LINE
8
0
6
CONTINUOUS
10
6.950027
20
36.759770
30
0.0
11
6.979187
21
36.780758
31
0.0
0
LINE
8
0
6
CONTINUOUS
10
6.979187
20
36.780758
30
0.0
11
6.919101
21
36.864238
31
0.0
0
LINE
8
0
6
CONTINUOUS
10
6.838945
20
36.679814
30
0.0
11
6.950027
21
36.759770
31
0.0
0
LINE
8
0
6
CONTINUOUS
10
8.665449
20
37.756848
30
0.0
11
8.620632
21
37.819114
31
0.0
0
LINE
8
0
6
CONTINUOUS
10
8.605192
20
37.713482
30
0.0
11
8.665449
21
37.756848
31
0.0
0
LINE
8
0
6
CONTINUOUS
10
9.637797
20
38.707260
30
0.0
11
9.689024
21
38.636089
31
0.0
0
LINE
8
0
6
CONTINUOUS
10
9.749279
20
38.679463
30
0.0
11
9.698237
21
38.750377
31
0.0
0
LINE
8
0
6
CONTINUOUS
10
9.689024
20
38.636089
30
0.0
11
9.749279
21
38.679463
31
0.0
0
LINE
8
0
6
CONTINUOUS
10
9.508240
20
38.505970
30
0.0
11
9.568504
21
38.549343
31
0.0
0
LINE
8
0
6
CONTINUOUS
10
5.612745
20
35.741772
30
0.0
11
5.723825
21
35.821720
31
0.0
0
LINE
8
0
6
CONTINUOUS
10
5.530825
20
35.682804
30
0.0
11
5.612745
21
35.741772
31
0.0
0
LINE
8
0
6
CONTINUOUS
10
10.035824
20
38.988079
30
0.0
11
10.151005
21
39.070980
31
0.0
0
LINE
8
0
6
CONTINUOUS
10
10.151005
20
39.070980
30
0.0
11
10.208591
21
39.112431
31
0.0
0
LINE
8
0
6
CONTINUOUS
10
9.978228
20
38.946621
30
0.0
11
10.035824
21
38.988079
31
0.0
0
LINE
8
0
6
CONTINUOUS
10
9.934584
20
38.925076
30
0.0
11
9.992178
21
38.966534
31
0.0
0
LINE
8
0
6
CONTINUOUS
10
9.361322
20
38.414692
30
0.0
11
9.421587
21
38.458065
31
0.0
0
LINE
8
0
6
CONTINUOUS
10
9.077129
20
38.127232
30
0.0
11
9.197647
21
38.213978
31
0.0
0
LINE
8
0
6
CONTINUOUS
10
9.016865
20
38.083851
30
0.0
11
9.077129
21
38.127232
31
0.0
0
LINE
8
0
6
CONTINUOUS
10
8.695038
20
37.840222
30
0.0
11
8.755304
21
37.883602
31
0.0
0
LINE
8
0
6
CONTINUOUS
10
6.947889
20
36.579182
30
0.0
11
7.008156
21
36.622563
31
0.0
0
LINE
8
0
6
CONTINUOUS
10
7.008156
20
36.622563
30
0.0
11
7.128673
21
36.709309
31
0.0
0
LINE
8
0
6
CONTINUOUS
10
6.323275
20
36.234638
30
0.0
11
6.383539
21
36.278011
31
0.0
0
LINE
8
0
6
CONTINUOUS
10
6.383539
20
36.278011
30
0.0
11
6.504059
21
36.364758
31
0.0
0
LINE
8
0
6
CONTINUOUS
10
6.504059
20
36.364758
30
0.0
11
6.564316
21
36.408131
31
0.0
0
LINE
8
0
6
CONTINUOUS
10
6.067539
20
36.026783
30
0.0
11
6.127804
21
36.070164
31
0.0
0
LINE
8
0
6
CONTINUOUS
10
6.127804
20
36.070164
30
0.0
11
6.248323
21
36.156910
31
0.0
0
LINE
8
0
6
CONTINUOUS
10
6.974668
20
37.375805
30
0.0
11
7.142904
21
37.496891
31
0.0
0
LINE
8
0
6
CONTINUOUS
10
7.079488
20
37.584997
30
0.0
11
7.142904
21
37.496891
31
0.0
0
LINE
8
0
6
CONTINUOUS
10
7.247337
20
37.572064
30
0.0
11
7.214892
21
37.617141
31
0.0
0
LINE
8
0
6
CONTINUOUS
10
7.142904
20
37.496891
30
0.0
11
7.247337
21
37.572064
31
0.0
0
LINE
8
0
6
CONTINUOUS
10
6.974668
20
37.375805
30
0.0
11
6.848233
21
37.551466
31
0.0
0
LINE
8
0
6
CONTINUOUS
10
6.910862
20
37.329876
30
0.0
11
6.974668
21
37.375805
31
0.0
0
LINE
8
0
6
CONTINUOUS
10
6.867396
20
37.390265
30
0.0
11
6.910862
21
37.329876
31
0.0
0
LINE
8
0
6
CONTINUOUS
10
6.037628
20
36.709522
30
0.0
11
6.207029
21
36.831448
31
0.0
0
LINE
8
0
6
CONTINUOUS
10
6.037628
20
36.709522
30
0.0
11
5.902045
21
36.897890
31
0.0
0
LINE
8
0
6
CONTINUOUS
10
5.942097
20
36.640759
30
0.0
11
6.037628
21
36.709522
31
0.0
0
LINE
8
0
6
CONTINUOUS
10
5.884001
20
36.721473
30
0.0
11
5.942097
21
36.640759
31
0.0
0
LINE
8
0
6
CONTINUOUS
10
5.263065
20
36.133930
30
0.0
11
5.424963
21
36.250454
31
0.0
0
LINE
8
0
6
CONTINUOUS
10
5.373906
20
36.321389
30
0.0
11
5.424963
21
36.250454
31
0.0
0
LINE
8
0
6
CONTINUOUS
10
5.461389
20
36.276676
30
0.0
11
5.447301
21
36.296250
31
0.0
0
LINE
8
0
6
CONTINUOUS
10
5.424963
20
36.250454
30
0.0
11
5.461389
21
36.276676
31
0.0
0
LINE
8
0
6
CONTINUOUS
10
5.263065
20
36.133930
30
0.0
11
5.112047
21
36.343745
31
0.0
0
LINE
8
0
6
CONTINUOUS
10
5.137594
20
36.043621
30
0.0
11
5.263065
21
36.133930
31
0.0
0
LINE
8
0
6
CONTINUOUS
10
5.062230
20
36.148328
30
0.0
11
5.137594
21
36.043621
31
0.0
0
LINE
8
0
6
CONTINUOUS
10
4.712667
20
35.656834
30
0.0
11
4.839035
21
35.747791
31
0.0
0
LINE
8
0
6
CONTINUOUS
10
4.551180
20
35.540600
30
0.0
11
4.712667
21
35.656834
31
0.0
0
LINE
8
0
6
CONTINUOUS
10
4.444785
20
35.614351
30
0.0
11
4.516062
21
35.515324
31
0.0
0
LINE
8
0
6
CONTINUOUS
10
4.551180
20
35.540600
30
0.0
11
4.455764
21
35.673163
31
0.0
0
LINE
8
0
6
CONTINUOUS
10
4.516062
20
35.515324
30
0.0
11
4.551180
21
35.540600
31
0.0
0
LINE
8
0
6
CONTINUOUS
10
4.317024
20
35.266194
30
0.0
11
4.416653
21
35.337902
31
0.0
0
LINE
8
0
6
CONTINUOUS
10
4.148064
20
35.144581
30
0.0
11
4.317024
21
35.266194
31
0.0
0
LINE
8
0
6
CONTINUOUS
10
3.987427
20
35.221528
30
0.0
11
4.078731
21
35.094677
31
0.0
0
LINE
8
0
6
CONTINUOUS
10
4.148064
20
35.144581
30
0.0
11
4.051334
21
35.278971
31
0.0
0
LINE
8
0
6
CONTINUOUS
10
4.078731
20
35.094677
30
0.0
11
4.148064
21
35.144581
31
0.0
0
LINE
8
0
6
CONTINUOUS
10
4.776432
20
35.375225
30
0.0
11
4.740929
21
35.424551
31
0.0
0
LINE
8
0
6
CONTINUOUS
10
4.676804
20
35.303517
30
0.0
11
4.776432
21
35.375225
31
0.0
0
LINE
8
0
6
CONTINUOUS
10
4.676804
20
35.303517
30
0.0
11
4.628053
21
35.371248
31
0.0
0
LINE
8
0
6
CONTINUOUS
10
4.507843
20
35.181904
30
0.0
11
4.676804
21
35.303517
31
0.0
0
LINE
8
0
6
CONTINUOUS
10
4.338965
20
35.270303
30
0.0
11
4.438511
21
35.132000
31
0.0
0
LINE
8
0
6
CONTINUOUS
10
4.507843
20
35.181904
30
0.0
11
4.411567
21
35.315664
31
0.0
0
LINE
8
0
6
CONTINUOUS
10
4.438511
20
35.132000
30
0.0
11
4.507843
21
35.181904
31
0.0
0
LINE
8
0
6
CONTINUOUS
10
4.865539
20
35.512043
30
0.0
11
4.991909
21
35.603001
31
0.0
0
LINE
8
0
6
CONTINUOUS
10
4.609055
20
35.527790
30
0.0
11
4.704052
21
35.395809
31
0.0
0
LINE
8
0
6
CONTINUOUS
10
4.865539
20
35.512043
30
0.0
11
4.788984
21
35.618404
31
0.0
0
LINE
8
0
6
CONTINUOUS
10
4.704052
20
35.395809
30
0.0
11
4.865539
21
35.512043
31
0.0
0
LINE
8
0
6
CONTINUOUS
10
5.356998
20
35.939274
30
0.0
11
5.504438
21
36.045399
31
0.0
0
LINE
8
0
6
CONTINUOUS
10
5.210228
20
35.833630
30
0.0
11
5.356998
21
35.939274
31
0.0
0
LINE
8
0
6
CONTINUOUS
10
5.129318
20
35.946041
30
0.0
11
5.210228
21
35.833630
31
0.0
0
LINE
8
0
6
CONTINUOUS
10
6.013063
20
36.469418
30
0.0
11
6.174959
21
36.585941
31
0.0
0
LINE
8
0
6
CONTINUOUS
10
6.127459
20
36.651935
30
0.0
11
6.174959
21
36.585941
31
0.0
0
LINE
8
0
6
CONTINUOUS
10
6.211388
20
36.612164
30
0.0
11
6.196222
21
36.633235
31
0.0
0
LINE
8
0
6
CONTINUOUS
10
6.174959
20
36.585941
30
0.0
11
6.211388
21
36.612164
31
0.0
0
LINE
8
0
6
CONTINUOUS
10
5.887592
20
36.379109
30
0.0
11
6.013063
21
36.469418
31
0.0
0
LINE
8
0
6
CONTINUOUS
10
5.823560
20
36.468071
30
0.0
11
5.887592
21
36.379109
31
0.0
0
LINE
8
0
6
CONTINUOUS
10
6.808772
20
37.203460
30
0.0
11
6.879679
21
37.104946
31
0.0
0
LINE
8
0
6
CONTINUOUS
10
6.879679
20
37.104946
30
0.0
11
7.049084
21
37.226879
31
0.0
0
LINE
8
0
6
CONTINUOUS
10
6.989008
20
37.310345
30
0.0
11
7.049084
21
37.226879
31
0.0
0
LINE
8
0
6
CONTINUOUS
10
7.122957
20
37.280056
30
0.0
11
7.097589
21
37.315301
31
0.0
0
LINE
8
0
6
CONTINUOUS
10
7.049084
20
37.226879
30
0.0
11
7.122957
21
37.280056
31
0.0
0
LINE
8
0
6
CONTINUOUS
10
7.682478
20
37.486317
30
0.0
11
7.851881
21
37.608250
31
0.0
0
LINE
8
0
6
CONTINUOUS
10
7.925754
20
37.661419
30
0.0
11
7.888314
21
37.713436
31
0.0
0
LINE
8
0
6
CONTINUOUS
10
7.851881
20
37.608250
30
0.0
11
7.925754
21
37.661419
31
0.0
0
LINE
8
0
6
CONTINUOUS
10
7.586950
20
37.417561
30
0.0
11
7.682478
21
37.486317
31
0.0
0
LINE
8
0
6
CONTINUOUS
10
7.540568
20
37.482002
30
0.0
11
7.586950
21
37.417561
31
0.0
0
LINE
8
0
6
CONTINUOUS
10
6.781813
20
36.844914
30
0.0
11
6.943710
21
36.961445
31
0.0
0
LINE
8
0
6
CONTINUOUS
10
6.656343
20
36.754604
30
0.0
11
6.781813
21
36.844914
31
0.0
0
LINE
8
0
6
CONTINUOUS
10
6.599113
20
36.834115
30
0.0
11
6.656343
21
36.754604
31
0.0
0
LINE
8
0
6
CONTINUOUS
10
6.001888
20
36.266728
30
0.0
11
6.149326
21
36.372852
31
0.0
0
LINE
8
0
6
CONTINUOUS
10
5.781913
20
36.262794
30
0.0
11
5.855116
21
36.161091
31
0.0
0
LINE
8
0
6
CONTINUOUS
10
6.001888
20
36.266728
30
0.0
11
5.930052
21
36.366531
31
0.0
0
LINE
8
0
6
CONTINUOUS
10
5.855116
20
36.161091
30
0.0
11
6.001888
21
36.266728
31
0.0
0
LINE
8
0
6
CONTINUOUS
10
5.505741
20
35.823155
30
0.0
11
5.632109
21
35.914112
31
0.0
0
LINE
8
0
6
CONTINUOUS
10
5.344252
20
35.706921
30
0.0
11
5.505741
21
35.823155
31
0.0
0
LINE
8
0
6
CONTINUOUS
10
5.233365
20
35.786912
30
0.0
11
5.309133
21
35.681645
31
0.0
0
LINE
8
0
6
CONTINUOUS
10
5.344252
20
35.706921
30
0.0
11
5.261384
21
35.822053
31
0.0
0
LINE
8
0
6
CONTINUOUS
10
5.309133
20
35.681645
30
0.0
11
5.344252
21
35.706921
31
0.0
0
LINE
8
0
6
CONTINUOUS
10
5.297851
20
35.630245
30
0.0
11
5.257342
21
35.686526
31
0.0
0
LINE
8
0
6
CONTINUOUS
10
5.198223
20
35.558537
30
0.0
11
5.297851
21
35.630245
31
0.0
0
LINE
8
0
6
CONTINUOUS
10
5.198223
20
35.558537
30
0.0
11
5.147038
21
35.629651
31
0.0
0
LINE
8
0
6
CONTINUOUS
10
5.029261
20
35.436924
30
0.0
11
5.198223
21
35.558537
31
0.0
0
LINE
8
0
6
CONTINUOUS
10
4.867627
20
35.515256
30
0.0
11
4.959928
21
35.387020
31
0.0
0
LINE
8
0
6
CONTINUOUS
10
5.029261
20
35.436924
30
0.0
11
4.939998
21
35.560940
31
0.0
0
LINE
8
0
6
CONTINUOUS
10
4.959928
20
35.387020
30
0.0
11
5.029261
21
35.436924
31
0.0
0
LINE
8
0
6
CONTINUOUS
10
10.278783
20
39.359912
30
0.0
11
10.310226
21
39.316227
31
0.0
0
LINE
8
0
6
CONTINUOUS
10
10.310226
20
39.316227
30
0.0
11
10.379557
21
39.366131
31
0.0
0
LINE
8
0
6
CONTINUOUS
10
10.335848
20
39.426858
30
0.0
11
10.379557
21
39.366131
31
0.0
0
LINE
8
0
6
CONTINUOUS
10
10.548517
20
39.487744
30
0.0
11
10.485117
21
39.575827
31
0.0
0
LINE
8
0
6
CONTINUOUS
10
10.379557
20
39.366131
30
0.0
11
10.548517
21
39.487744
31
0.0
0
LINE
8
0
6
CONTINUOUS
10
9.929025
20
39.097589
30
0.0
11
9.971752
21
39.038227
31
0.0
0
LINE
8
0
6
CONTINUOUS
10
9.971752
20
39.038227
30
0.0
11
10.006868
21
39.063496
31
0.0
0
LINE
8
0
6
CONTINUOUS
10
9.944134
20
39.150657
30
0.0
11
10.006868
21
39.063496
31
0.0
0
LINE
8
0
6
CONTINUOUS
10
10.006868
20
39.063496
30
0.0
11
10.168358
21
39.179737
31
0.0
0
LINE
8
0
6
CONTINUOUS
10
10.081521
20
39.300383
30
0.0
11
10.168358
21
39.179737
31
0.0
0
LINE
8
0
6
CONTINUOUS
10
10.294727
20
39.270687
30
0.0
11
10.203790
21
39.397032
31
0.0
0
LINE
8
0
6
CONTINUOUS
10
10.168358
20
39.179737
30
0.0
11
10.294727
21
39.270687
31
0.0
0
LINE
8
0
6
CONTINUOUS
10
9.353445
20
38.718519
30
0.0
11
9.413073
21
38.635677
31
0.0
0
LINE
8
0
6
CONTINUOUS
10
9.559843
20
38.741322
30
0.0
11
9.470947
21
38.864828
31
0.0
0
LINE
8
0
6
CONTINUOUS
10
9.413073
20
38.635677
30
0.0
11
9.559843
21
38.741322
31
0.0
0
LINE
8
0
6
CONTINUOUS
10
9.617002
20
38.972866
30
0.0
11
9.707281
21
38.847439
31
0.0
0
LINE
8
0
6
CONTINUOUS
10
9.707951
20
38.847920
30
0.0
11
9.633053
21
38.951981
31
0.0
0
LINE
8
0
6
CONTINUOUS
10
8.483876
20
38.158960
30
0.0
11
8.568954
21
38.040760
31
0.0
0
LINE
8
0
6
CONTINUOUS
10
8.568954
20
38.040760
30
0.0
11
8.694424
21
38.131069
31
0.0
0
LINE
8
0
6
CONTINUOUS
10
8.594194
20
38.270322
30
0.0
11
8.694424
21
38.131069
31
0.0
0
LINE
8
0
6
CONTINUOUS
10
8.694424
20
38.131069
30
0.0
11
8.856321
21
38.247601
31
0.0
0
LINE
8
0
6
CONTINUOUS
10
8.760009
20
38.381411
30
0.0
11
8.856321
21
38.247601
31
0.0
0
LINE
8
0
6
CONTINUOUS
10
8.892750
20
38.273823
30
0.0
11
8.815507
21
38.381139
31
0.0
0
LINE
8
0
6
CONTINUOUS
10
8.856321
20
38.247601
30
0.0
11
8.892750
21
38.273823
31
0.0
0
LINE
8
0
6
CONTINUOUS
10
7.728876
20
37.768983
30
0.0
11
7.817318
21
37.646107
31
0.0
0
LINE
8
0
6
CONTINUOUS
10
7.817318
20
37.646107
30
0.0
11
7.912847
21
37.714871
31
0.0
0
LINE
8
0
6
CONTINUOUS
10
7.793039
20
37.881324
30
0.0
11
7.912847
21
37.714871
31
0.0
0
LINE
8
0
6
CONTINUOUS
10
8.082251
20
37.836804
30
0.0
11
7.962579
21
38.003069
31
0.0
0
LINE
8
0
6
CONTINUOUS
10
7.912847
20
37.714871
30
0.0
11
8.082251
21
37.836804
31
0.0
0
LINE
8
0
6
CONTINUOUS
10
8.681583
20
38.415506
30
0.0
11
8.757170
21
38.310490
31
0.0
0
LINE
8
0
6
CONTINUOUS
10
8.757170
20
38.310490
30
0.0
11
8.882641
21
38.400799
31
0.0
0
LINE
8
0
6
CONTINUOUS
10
8.779225
20
38.544478
30
0.0
11
8.882641
21
38.400799
31
0.0
0
LINE
8
0
6
CONTINUOUS
10
8.882641
20
38.400799
30
0.0
11
9.044537
21
38.517323
31
0.0
0
LINE
8
0
6
CONTINUOUS
10
8.940179
20
38.662314
30
0.0
11
9.044537
21
38.517323
31
0.0
0
LINE
8
0
6
CONTINUOUS
10
9.080965
20
38.543545
30
0.0
11
8.996035
21
38.661542
31
0.0
0
LINE
8
0
6
CONTINUOUS
10
9.044537
20
38.517323
30
0.0
11
9.080965
21
38.543545
31
0.0
0
LINE
8
0
6
CONTINUOUS
10
9.516421
20
39.035734
30
0.0
11
9.596224
21
38.924862
31
0.0
0
LINE
8
0
6
CONTINUOUS
10
9.596224
20
38.924862
30
0.0
11
9.742992
21
39.030506
31
0.0
0
LINE
8
0
6
CONTINUOUS
10
9.646277
20
39.164876
30
0.0
11
9.742992
21
39.030506
31
0.0
0
LINE
8
0
6
CONTINUOUS
10
9.742992
20
39.030506
30
0.0
11
9.890432
21
39.136631
31
0.0
0
LINE
8
0
6
CONTINUOUS
10
9.792364
20
39.272880
30
0.0
11
9.890432
21
39.136631
31
0.0
0
LINE
8
0
6
CONTINUOUS
10
9.891104
20
39.137112
30
0.0
11
9.808540
21
39.251819
31
0.0
0
LINE
8
0
6
CONTINUOUS
10
10.619016
20
39.723543
30
0.0
11
10.646307
21
39.685627
31
0.0
0
LINE
8
0
6
CONTINUOUS
10
10.646307
20
39.685627
30
0.0
11
10.715639
21
39.735531
31
0.0
0
LINE
8
0
6
CONTINUOUS
10
10.676627
20
39.789732
30
0.0
11
10.715639
21
39.735531
31
0.0
0
LINE
8
0
6
CONTINUOUS
10
10.715639
20
39.735531
30
0.0
11
10.884600
21
39.857144
31
0.0
0
LINE
8
0
6
CONTINUOUS
10
10.824175
20
39.941093
30
0.0
11
10.884600
21
39.857144
31
0.0
0
LINE
8
0
6
CONTINUOUS
10
10.984228
20
39.928852
30
0.0
11
10.913477
21
40.027148
31
0.0
0
LINE
8
0
6
CONTINUOUS
10
10.884600
20
39.857144
30
0.0
11
10.984228
21
39.928852
31
0.0
0
LINE
8
0
6
CONTINUOUS
10
6.429508
20
36.390988
30
0.0
11
6.458670
21
36.411976
31
0.0
0
LINE
8
0
6
CONTINUOUS
10
6.458670
20
36.411976
30
0.0
11
6.401141
21
36.491902
31
0.0
0
LINE
8
0
6
CONTINUOUS
10
6.318426
20
36.311031
30
0.0
11
6.429508
21
36.390988
31
0.0
0
LINE
8
0
6
CONTINUOUS
10
6.285289
20
36.357070
30
0.0
11
6.318426
21
36.311031
31
0.0
0
LINE
8
0
6
CONTINUOUS
10
6.123491
20
36.076153
30
0.0
11
6.074432
21
36.144312
31
0.0
0
LINE
8
0
6
CONTINUOUS
10
6.063227
20
36.032772
30
0.0
11
6.123491
21
36.076153
31
0.0
0
LINE
8
0
6
CONTINUOUS
10
6.009797
20
36.107003
30
0.0
11
6.063227
21
36.032772
31
0.0
0
LINE
8
0
6
CONTINUOUS
10
6.447907
20
36.442777
30
0.0
11
6.503145
21
36.366032
31
0.0
0
LINE
8
0
6
CONTINUOUS
10
6.563402
20
36.409405
30
0.0
11
6.520762
21
36.468646
31
0.0
0
LINE
8
0
6
CONTINUOUS
10
6.503145
20
36.366032
30
0.0
11
6.563402
21
36.409405
31
0.0
0
LINE
8
0
6
CONTINUOUS
10
6.604544
20
36.479386
30
0.0
11
6.664843
21
36.395611
31
0.0
0
LINE
8
0
6
CONTINUOUS
10
6.664843
20
36.395611
30
0.0
11
6.785362
21
36.482357
31
0.0
0
LINE
8
0
6
CONTINUOUS
10
6.734053
20
36.553643
30
0.0
11
6.785362
21
36.482357
31
0.0
0
LINE
8
0
6
CONTINUOUS
10
6.845617
20
36.525730
30
0.0
11
6.801926
21
36.586431
31
0.0
0
LINE
8
0
6
CONTINUOUS
10
6.785362
20
36.482357
30
0.0
11
6.845617
21
36.525730
31
0.0
0
LINE
8
0
6
CONTINUOUS
10
7.509165
20
36.951504
30
0.0
11
7.629684
21
37.038250
31
0.0
0
LINE
8
0
6
CONTINUOUS
10
7.597201
20
37.083380
30
0.0
11
7.629684
21
37.038250
31
0.0
0
LINE
8
0
6
CONTINUOUS
10
7.689939
20
37.081616
30
0.0
11
7.658003
21
37.125986
31
0.0
0
LINE
8
0
6
CONTINUOUS
10
7.629684
20
37.038250
30
0.0
11
7.689939
21
37.081616
31
0.0
0
LINE
8
0
6
CONTINUOUS
10
7.509165
20
36.951504
30
0.0
11
7.475583
21
36.998160
31
0.0
0
LINE
8
0
6
CONTINUOUS
10
7.448900
20
36.908123
30
0.0
11
7.509165
21
36.951504
31
0.0
0
LINE
8
0
6
CONTINUOUS
10
7.393261
20
36.985424
30
0.0
11
7.448900
21
36.908123
31
0.0
0
LINE
8
0
6
CONTINUOUS
10
6.945909
20
36.685574
30
0.0
11
7.066429
21
36.772320
31
0.0
0
LINE
8
0
6
CONTINUOUS
10
7.007336
20
36.854420
30
0.0
11
7.066429
21
36.772320
31
0.0
0
LINE
8
0
6
CONTINUOUS
10
7.126686
20
36.815685
30
0.0
11
7.078719
21
36.882328
31
0.0
0
LINE
8
0
6
CONTINUOUS
10
7.066429
20
36.772320
30
0.0
11
7.126686
21
36.815685
31
0.0
0
LINE
8
0
6
CONTINUOUS
10
6.828351
20
36.721794
30
0.0
11
6.885645
21
36.642193
31
0.0
0
LINE
8
0
6
CONTINUOUS
10
6.945909
20
36.685574
30
0.0
11
6.883635
21
36.772093
31
0.0
0
LINE
8
0
6
CONTINUOUS
10
6.885645
20
36.642193
30
0.0
11
6.945909
21
36.685574
31
0.0
0
LINE
8
0
6
CONTINUOUS
10
7.544722
20
37.035877
30
0.0
11
7.665243
21
37.122624
31
0.0
0
LINE
8
0
6
CONTINUOUS
10
7.605965
20
37.204980
30
0.0
11
7.665243
21
37.122624
31
0.0
0
LINE
8
0
6
CONTINUOUS
10
7.725498
20
37.165997
30
0.0
11
7.677351
21
37.232890
31
0.0
0
LINE
8
0
6
CONTINUOUS
10
7.665243
20
37.122624
30
0.0
11
7.725498
21
37.165997
31
0.0
0
LINE
8
0
6
CONTINUOUS
10
7.544722
20
37.035877
30
0.0
11
7.459726
21
37.153964
31
0.0
0
LINE
8
0
6
CONTINUOUS
10
7.484459
20
36.992504
30
0.0
11
7.544722
21
37.035877
31
0.0
0
LINE
8
0
6
CONTINUOUS
10
7.432468
20
37.064737
30
0.0
11
7.484459
21
36.992504
31
0.0
0
LINE
8
0
6
CONTINUOUS
10
7.152540
20
36.771795
30
0.0
11
7.199053
21
36.707173
31
0.0
0
LINE
8
0
6
CONTINUOUS
10
7.199053
20
36.707173
30
0.0
11
7.319572
21
36.793919
31
0.0
0
LINE
8
0
6
CONTINUOUS
10
7.261825
20
36.874148
30
0.0
11
7.319572
21
36.793919
31
0.0
0
LINE
8
0
6
CONTINUOUS
10
7.379827
20
36.837284
30
0.0
11
7.325938
21
36.912154
31
0.0
0
LINE
8
0
6
CONTINUOUS
10
7.319572
20
36.793919
30
0.0
11
7.379827
21
36.837284
31
0.0
0
LINE
8
0
6
CONTINUOUS
10
7.629707
20
37.198963
30
0.0
11
7.750227
21
37.285710
31
0.0
0
LINE
8
0
6
CONTINUOUS
10
7.692710
20
37.365620
30
0.0
11
7.750227
21
37.285710
31
0.0
0
LINE
8
0
6
CONTINUOUS
10
7.810484
20
37.329083
30
0.0
11
7.763444
21
37.394436
31
0.0
0
LINE
8
0
6
CONTINUOUS
10
7.750227
20
37.285710
30
0.0
11
7.810484
21
37.329083
31
0.0
0
LINE
8
0
6
CONTINUOUS
10
7.629707
20
37.198963
30
0.0
11
7.593072
21
37.249862
31
0.0
0
LINE
8
0
6
CONTINUOUS
10
7.569443
20
37.155583
30
0.0
11
7.629707
21
37.198963
31
0.0
0
LINE
8
0
6
CONTINUOUS
10
7.517176
20
37.228199
30
0.0
11
7.569443
21
37.155583
31
0.0
0
LINE
8
0
6
CONTINUOUS
10
8.416461
20
37.877055
30
0.0
11
8.497574
21
37.764362
31
0.0
0
LINE
8
0
6
CONTINUOUS
10
8.557829
20
37.807728
30
0.0
11
8.484177
21
37.910057
31
0.0
0
LINE
8
0
6
CONTINUOUS
10
8.497574
20
37.764362
30
0.0
11
8.557829
21
37.807728
31
0.0
0
LINE
8
0
6
CONTINUOUS
10
7.974313
20
37.401190
30
0.0
11
8.033539
21
37.318905
31
0.0
0
LINE
8
0
6
CONTINUOUS
10
8.033539
20
37.318905
30
0.0
11
8.154056
21
37.405651
31
0.0
0
LINE
8
0
6
CONTINUOUS
10
8.096295
20
37.485900
30
0.0
11
8.154056
21
37.405651
31
0.0
0
LINE
8
0
6
CONTINUOUS
10
8.154056
20
37.405651
30
0.0
11
8.214313
21
37.449024
31
0.0
0
LINE
8
0
6
CONTINUOUS
10
8.089500
20
37.511658
30
0.0
11
8.150343
21
37.427128
31
0.0
0
LINE
8
0
6
CONTINUOUS
10
8.150343
20
37.427128
30
0.0
11
8.210607
21
37.470501
31
0.0
0
LINE
8
0
6
CONTINUOUS
10
8.140576
20
37.567797
30
0.0
11
8.210607
21
37.470501
31
0.0
0
LINE
8
0
6
CONTINUOUS
10
8.210607
20
37.470501
30
0.0
11
8.331125
21
37.557255
31
0.0
0
LINE
8
0
6
CONTINUOUS
10
8.263710
20
37.650915
30
0.0
11
8.331125
21
37.557255
31
0.0
0
LINE
8
0
6
CONTINUOUS
10
8.391382
20
37.600620
30
0.0
11
8.334442
21
37.679730
31
0.0
0
LINE
8
0
6
CONTINUOUS
10
8.331125
20
37.557255
30
0.0
11
8.391382
21
37.600620
31
0.0
0
LINE
8
0
6
CONTINUOUS
10
9.055290
20
38.331158
30
0.0
11
9.130028
21
38.227322
31
0.0
0
LINE
8
0
6
CONTINUOUS
10
9.190285
20
38.270687
30
0.0
11
9.123006
21
38.364161
31
0.0
0
LINE
8
0
6
CONTINUOUS
10
9.130028
20
38.227322
30
0.0
11
9.190285
21
38.270687
31
0.0
0
LINE
8
0
6
CONTINUOUS
10
8.647313
20
37.906532
30
0.0
11
8.690533
21
37.846485
31
0.0
0
LINE
8
0
6
CONTINUOUS
10
8.690533
20
37.846485
30
0.0
11
8.750797
21
37.889858
31
0.0
0
LINE
8
0
6
CONTINUOUS
10
8.700985
20
37.959063
30
0.0
11
8.750797
21
37.889858
31
0.0
0
LINE
8
0
6
CONTINUOUS
10
8.750797
20
37.889858
30
0.0
11
8.871317
21
37.976605
31
0.0
0
LINE
8
0
6
CONTINUOUS
10
8.814490
20
38.055557
30
0.0
11
8.871317
21
37.976605
31
0.0
0
LINE
8
0
6
CONTINUOUS
10
8.931574
20
38.019978
30
0.0
11
8.873819
21
38.100218
31
0.0
0
LINE
8
0
6
CONTINUOUS
10
8.871317
20
37.976605
30
0.0
11
8.931574
21
38.019978
31
0.0
0
LINE
8
0
6
CONTINUOUS
10
8.371953
20
37.656236
30
0.0
11
8.424410
21
37.583355
31
0.0
0
LINE
8
0
6
CONTINUOUS
10
8.424410
20
37.583355
30
0.0
11
8.484674
21
37.626736
31
0.0
0
LINE
8
0
6
CONTINUOUS
10
8.430048
20
37.702629
30
0.0
11
8.484674
21
37.626736
31
0.0
0
LINE
8
0
6
CONTINUOUS
10
8.605192
20
37.713482
30
0.0
11
8.544996
21
37.797114
31
0.0
0
LINE
8
0
6
CONTINUOUS
10
8.484674
20
37.626736
30
0.0
11
8.605192
21
37.713482
31
0.0
0
LINE
8
0
6
CONTINUOUS
10
8.982391
20
38.131745
30
0.0
11
9.010515
21
38.092671
31
0.0
0
LINE
8
0
6
CONTINUOUS
10
9.070780
20
38.136044
30
0.0
11
9.038792
21
38.180487
31
0.0
0
LINE
8
0
6
CONTINUOUS
10
9.010515
20
38.092671
30
0.0
11
9.070780
21
38.136044
31
0.0
0
LINE
8
0
6
CONTINUOUS
10
9.151588
20
38.277965
30
0.0
11
9.191301
21
38.222790
31
0.0
0
LINE
8
0
6
CONTINUOUS
10
9.251556
20
38.266163
30
0.0
11
9.196800
21
38.342237
31
0.0
0
LINE
8
0
6
CONTINUOUS
10
9.191301
20
38.222790
30
0.0
11
9.251556
21
38.266163
31
0.0
0
LINE
8
0
6
CONTINUOUS
10
9.320660
20
38.471177
30
0.0
11
9.356665
21
38.421154
31
0.0
0
LINE
8
0
6
CONTINUOUS
10
9.356665
20
38.421154
30
0.0
11
9.416929
21
38.464535
31
0.0
0
LINE
8
0
6
CONTINUOUS
10
9.374838
20
38.523014
30
0.0
11
9.416929
21
38.464535
31
0.0
0
LINE
8
0
6
CONTINUOUS
10
9.537449
20
38.551281
30
0.0
11
9.488342
21
38.619507
31
0.0
0
LINE
8
0
6
CONTINUOUS
10
9.416929
20
38.464535
30
0.0
11
9.537449
21
38.551281
31
0.0
0
LINE
8
0
6
CONTINUOUS
10
11.207642
20
40.367054
30
0.0
11
11.259272
21
40.295323
31
0.0
0
LINE
8
0
6
CONTINUOUS
10
11.259272
20
40.295323
30
0.0
11
11.428125
21
40.416859
31
0.0
0
LINE
8
0
6
CONTINUOUS
10
11.343339
20
40.534655
30
0.0
11
11.428125
21
40.416859
31
0.0
0
LINE
8
0
6
CONTINUOUS
10
11.496548
20
40.466107
30
0.0
11
11.402366
21
40.596957
31
0.0
0
LINE
8
0
6
CONTINUOUS
10
11.428125
20
40.416859
30
0.0
11
11.496548
21
40.466107
31
0.0
0
LINE
8
0
6
CONTINUOUS
10
10.866303
20
40.060275
30
0.0
11
10.902512
21
40.009968
31
0.0
0
LINE
8
0
6
CONTINUOUS
10
10.902512
20
40.009968
30
0.0
11
10.971842
21
40.059872
31
0.0
0
LINE
8
0
6
CONTINUOUS
10
10.908417
20
40.147991
30
0.0
11
10.971842
21
40.059872
31
0.0
0
LINE
8
0
6
CONTINUOUS
10
10.971842
20
40.059872
30
0.0
11
11.140804
21
40.181484
31
0.0
0
LINE
8
0
6
CONTINUOUS
10
11.043837
20
40.316203
30
0.0
11
11.140804
21
40.181484
31
0.0
0
LINE
8
0
6
CONTINUOUS
10
11.240433
20
40.253193
30
0.0
11
11.135407
21
40.399109
31
0.0
0
LINE
8
0
6
CONTINUOUS
10
11.140804
20
40.181484
30
0.0
11
11.240433
21
40.253193
31
0.0
0
LINE
8
0
6
CONTINUOUS
10
10.401276
20
39.783701
30
0.0
11
10.474272
21
39.682285
31
0.0
0
LINE
8
0
6
CONTINUOUS
10
10.474272
20
39.682285
30
0.0
11
10.635761
21
39.798519
31
0.0
0
LINE
8
0
6
CONTINUOUS
10
10.528415
20
39.947658
30
0.0
11
10.635761
21
39.798519
31
0.0
0
LINE
8
0
6
CONTINUOUS
10
10.762127
20
39.889477
30
0.0
11
10.647561
21
40.048648
31
0.0
0
LINE
8
0
6
CONTINUOUS
10
10.635761
20
39.798519
30
0.0
11
10.762127
21
39.889477
31
0.0
0
LINE
8
0
6
CONTINUOUS
10
9.796550
20
39.420889
30
0.0
11
9.885546
21
39.297245
31
0.0
0
LINE
8
0
6
CONTINUOUS
10
9.885546
20
39.297245
30
0.0
11
10.047443
21
39.413777
31
0.0
0
LINE
8
0
6
CONTINUOUS
10
9.947761
20
39.552269
30
0.0
11
10.047443
21
39.413777
31
0.0
0
LINE
8
0
6
CONTINUOUS
10
10.083870
20
39.439991
30
0.0
11
10.008660
21
39.544483
31
0.0
0
LINE
8
0
6
CONTINUOUS
10
10.047443
20
39.413777
30
0.0
11
10.083870
21
39.439991
31
0.0
0
LINE
8
0
6
CONTINUOUS
10
8.841322
20
38.736857
30
0.0
11
8.917509
21
38.631008
31
0.0
0
LINE
8
0
6
CONTINUOUS
10
9.013037
20
38.699764
30
0.0
11
8.900449
21
38.856187
31
0.0
0
LINE
8
0
6
CONTINUOUS
10
8.917509
20
38.631008
30
0.0
11
9.013037
21
38.699764
31
0.0
0
LINE
8
0
6
CONTINUOUS
10
7.858446
20
38.072263
30
0.0
11
7.941584
21
37.956753
31
0.0
0
LINE
8
0
6
CONTINUOUS
10
8.005388
20
38.002682
30
0.0
11
7.895248
21
38.155704
31
0.0
0
LINE
8
0
6
CONTINUOUS
10
7.941584
20
37.956753
30
0.0
11
8.005388
21
38.002682
31
0.0
0
LINE
8
0
6
CONTINUOUS
10
8.061263
20
38.279886
30
0.0
11
8.173626
21
38.123776
31
0.0
0
LINE
8
0
6
CONTINUOUS
10
8.278057
20
38.198940
30
0.0
11
8.190472
21
38.320625
31
0.0
0
LINE
8
0
6
CONTINUOUS
10
8.173626
20
38.123776
30
0.0
11
8.278057
21
38.198940
31
0.0
0
LINE
8
0
6
CONTINUOUS
10
9.897568
20
38.976504
30
0.0
11
9.922575
21
38.941761
31
0.0
0
LINE
8
0
6
CONTINUOUS
10
9.922575
20
38.941761
30
0.0
11
9.980169
21
38.983212
31
0.0
0
LINE
8
0
6
CONTINUOUS
10
9.962504
20
39.007756
30
0.0
11
9.980169
21
38.983212
31
0.0
0
LINE
8
0
6
CONTINUOUS
10
9.980169
20
38.983212
30
0.0
11
10.095350
21
39.066120
31
0.0
0
LINE
8
0
6
CONTINUOUS
10
8.875687
20
38.165203
30
0.0
11
8.933271
21
38.206654
31
0.0
0
LINE
8
0
6
CONTINUOUS
10
9.965191
20
38.964733
30
0.0
11
10.022783
21
39.006184
31
0.0
0
LINE
8
0
6
CONTINUOUS
10
9.225609
20
38.414692
30
0.0
11
9.283203
21
38.456143
31
0.0
0
LINE
8
0
6
CONTINUOUS
10
9.283203
20
38.456143
30
0.0
11
9.398386
21
38.539051
31
0.0
0
LINE
8
0
6
CONTINUOUS
10
9.054695
20
38.296856
30
0.0
11
9.169876
21
38.379757
31
0.0
0
LINE
8
0
6
CONTINUOUS
10
9.169876
20
38.379757
30
0.0
11
9.227465
21
38.421208
31
0.0
0
LINE
8
0
6
CONTINUOUS
10
8.600639
20
37.955929
30
0.0
11
8.658226
21
37.997379
31
0.0
0
LINE
8
0
6
CONTINUOUS
10
7.241815
20
36.968128
30
0.0
11
7.270975
21
36.989117
31
0.0
0
LINE
8
0
6
CONTINUOUS
10
7.270975
20
36.989117
30
0.0
11
7.205471
21
37.080124
31
0.0
0
LINE
8
0
6
CONTINUOUS
10
7.130732
20
36.888172
30
0.0
11
7.241815
21
36.968128
31
0.0
0
LINE
8
0
6
CONTINUOUS
10
7.048815
20
36.829212
30
0.0
11
7.130732
21
36.888172
31
0.0
0
LINE
8
0
6
CONTINUOUS
10
7.012306
20
36.879935
30
0.0
11
7.048815
21
36.829212
31
0.0
0
LINE
8
0
6
CONTINUOUS
10
5.714575
20
35.834576
30
0.0
11
5.743734
21
35.855564
31
0.0
0
LINE
8
0
6
CONTINUOUS
10
5.603493
20
35.754620
30
0.0
11
5.714575
21
35.834576
31
0.0
0
LINE
8
0
6
CONTINUOUS
10
5.756792
20
35.875431
30
0.0
11
5.785953
21
35.896420
31
0.0
0
LINE
8
0
6
CONTINUOUS
10
5.785953
20
35.896420
30
0.0
11
5.730037
21
35.974106
31
0.0
0
LINE
8
0
6
CONTINUOUS
10
5.645712
20
35.795483
30
0.0
11
5.756792
21
35.875431
31
0.0
0
LINE
8
0
6
CONTINUOUS
10
5.756792
20
35.875431
30
0.0
11
5.695229
21
35.960963
31
0.0
0
LINE
8
0
6
CONTINUOUS
10
5.563791
20
35.736515
30
0.0
11
5.645712
21
35.795483
31
0.0
0
LINE
8
0
6
CONTINUOUS
10
5.503794
20
35.819872
30
0.0
11
5.563791
21
35.736515
31
0.0
0
LINE
8
0
6
CONTINUOUS
10
5.645712
20
35.795483
30
0.0
11
5.575361
21
35.893225
31
0.0
0
LINE
8
0
6
CONTINUOUS
10
6.686724
20
36.575794
30
0.0
11
6.715883
21
36.596783
31
0.0
0
LINE
8
0
6
CONTINUOUS
10
6.653533
20
36.621907
30
0.0
11
6.686724
21
36.575794
31
0.0
0
LINE
8
0
6
CONTINUOUS
10
6.715883
20
36.596783
30
0.0
11
6.659119
21
36.675647
31
0.0
0
LINE
8
0
6
CONTINUOUS
10
6.493721
20
36.436878
30
0.0
11
6.575640
21
36.495838
31
0.0
0
LINE
8
0
6
CONTINUOUS
10
6.460478
20
36.483064
30
0.0
11
6.493721
21
36.436878
31
0.0
0
LINE
8
0
6
CONTINUOUS
10
6.757027
20
36.620854
30
0.0
11
6.838945
21
36.679814
31
0.0
0
LINE
8
0
6
CONTINUOUS
10
6.721227
20
36.670592
30
0.0
11
6.757027
21
36.620854
31
0.0
0
LINE
8
0
6
CONTINUOUS
10
5.792343
20
35.887547
30
0.0
11
5.763182
21
35.866558
31
0.0
0
LINE
8
0
6
CONTINUOUS
10
10.151005
20
39.070980
30
0.0
11
10.035824
21
38.988079
31
0.0
0
LINE
8
0
6
CONTINUOUS
10
10.208591
20
39.112431
30
0.0
11
10.151005
21
39.070980
31
0.0
0
LINE
8
0
6
CONTINUOUS
10
10.035824
20
38.988079
30
0.0
11
9.978228
21
38.946621
31
0.0
0
LINE
8
0
6
CONTINUOUS
10
9.992178
20
38.966534
30
0.0
11
9.934584
21
38.925076
31
0.0
0
LINE
8
0
6
CONTINUOUS
10
9.542105
20
38.544811
30
0.0
11
9.421587
21
38.458065
31
0.0
0
LINE
8
0
6
CONTINUOUS
10
9.421587
20
38.458065
30
0.0
11
9.361322
21
38.414692
31
0.0
0
LINE
8
0
6
CONTINUOUS
10
9.197647
20
38.213978
30
0.0
11
9.077129
21
38.127232
31
0.0
0
LINE
8
0
6
CONTINUOUS
10
9.257904
20
38.257351
30
0.0
11
9.197647
21
38.213978
31
0.0
0
LINE
8
0
6
CONTINUOUS
10
9.077129
20
38.127232
30
0.0
11
9.016865
21
38.083851
31
0.0
0
LINE
8
0
6
CONTINUOUS
10
8.875822
20
37.970348
30
0.0
11
8.755304
21
37.883602
31
0.0
0
LINE
8
0
6
CONTINUOUS
10
8.936079
20
38.013714
30
0.0
11
8.875822
21
37.970348
31
0.0
0
LINE
8
0
6
CONTINUOUS
10
8.755304
20
37.883602
30
0.0
11
8.695038
21
37.840222
31
0.0
0
LINE
8
0
6
CONTINUOUS
10
7.008156
20
36.622563
30
0.0
11
6.947889
21
36.579182
31
0.0
0
LINE
8
0
6
CONTINUOUS
10
7.128673
20
36.709309
30
0.0
11
7.008156
21
36.622563
31
0.0
0
LINE
8
0
6
CONTINUOUS
10
6.383539
20
36.278011
30
0.0
11
6.323275
21
36.234638
31
0.0
0
LINE
8
0
6
CONTINUOUS
10
6.504059
20
36.364758
30
0.0
11
6.383539
21
36.278011
31
0.0
0
LINE
8
0
6
CONTINUOUS
10
6.564316
20
36.408131
30
0.0
11
6.504059
21
36.364758
31
0.0
0
LINE
8
0
6
CONTINUOUS
10
6.127804
20
36.070164
30
0.0
11
6.067539
21
36.026783
31
0.0
0
LINE
8
0
6
CONTINUOUS
10
6.248323
20
36.156910
30
0.0
11
6.127804
21
36.070164
31
0.0
0
LINE
8
0
6
CONTINUOUS
10
6.308578
20
36.200283
30
0.0
11
6.248323
21
36.156910
31
0.0
0
LINE
8
0
6
CONTINUOUS
10
7.142904
20
37.496891
30
0.0
11
6.974668
21
37.375805
31
0.0
0
LINE
8
0
6
CONTINUOUS
10
7.247337
20
37.572064
30
0.0
11
7.142904
21
37.496891
31
0.0
0
LINE
8
0
6
CONTINUOUS
10
6.974668
20
37.375805
30
0.0
11
6.910862
21
37.329876
31
0.0
0
LINE
8
0
6
CONTINUOUS
10
4.416653
20
35.337902
30
0.0
11
4.317024
21
35.266194
31
0.0
0
LINE
8
0
6
CONTINUOUS
10
4.148064
20
35.144581
30
0.0
11
4.078731
21
35.094677
31
0.0
0
LINE
8
0
6
CONTINUOUS
10
4.317024
20
35.266194
30
0.0
11
4.148064
21
35.144581
31
0.0
0
LINE
8
0
6
CONTINUOUS
10
4.991909
20
35.603001
30
0.0
11
4.865539
21
35.512043
31
0.0
0
LINE
8
0
6
CONTINUOUS
10
4.704052
20
35.395809
30
0.0
11
4.668934
21
35.370525
31
0.0
0
LINE
8
0
6
CONTINUOUS
10
4.865539
20
35.512043
30
0.0
11
4.704052
21
35.395809
31
0.0
0
LINE
8
0
6
CONTINUOUS
10
5.504438
20
36.045399
30
0.0
11
5.356998
21
35.939274
31
0.0
0
LINE
8
0
6
CONTINUOUS
10
5.356998
20
35.939274
30
0.0
11
5.210228
21
35.833630
31
0.0
0
LINE
8
0
6
CONTINUOUS
10
7.049084
20
37.226879
30
0.0
11
6.879679
21
37.104946
31
0.0
0
LINE
8
0
6
CONTINUOUS
10
7.122957
20
37.280056
30
0.0
11
7.049084
21
37.226879
31
0.0
0
LINE
8
0
6
CONTINUOUS
10
6.879679
20
37.104946
30
0.0
11
6.784153
21
37.036190
31
0.0
0
LINE
8
0
6
CONTINUOUS
10
7.851881
20
37.608250
30
0.0
11
7.682478
21
37.486317
31
0.0
0
LINE
8
0
6
CONTINUOUS
10
7.925754
20
37.661419
30
0.0
11
7.851881
21
37.608250
31
0.0
0
LINE
8
0
6
CONTINUOUS
10
7.682478
20
37.486317
30
0.0
11
7.586950
21
37.417561
31
0.0
0
LINE
8
0
6
CONTINUOUS
10
5.632109
20
35.914112
30
0.0
11
5.505741
21
35.823155
31
0.0
0
LINE
8
0
6
CONTINUOUS
10
5.344252
20
35.706921
30
0.0
11
5.309133
21
35.681645
31
0.0
0
LINE
8
0
6
CONTINUOUS
10
5.505741
20
35.823155
30
0.0
11
5.344252
21
35.706921
31
0.0
0
LINE
8
0
6
CONTINUOUS
10
5.297851
20
35.630245
30
0.0
11
5.198223
21
35.558537
31
0.0
0
LINE
8
0
6
CONTINUOUS
10
5.029261
20
35.436924
30
0.0
11
4.959928
21
35.387020
31
0.0
0
LINE
8
0
6
CONTINUOUS
10
5.198223
20
35.558537
30
0.0
11
5.029261
21
35.436924
31
0.0
0
LINE
8
0
6
CONTINUOUS
10
10.379557
20
39.366131
30
0.0
11
10.310226
21
39.316227
31
0.0
0
LINE
8
0
6
CONTINUOUS
10
10.548517
20
39.487744
30
0.0
11
10.379557
21
39.366131
31
0.0
0
LINE
8
0
6
CONTINUOUS
10
10.648148
20
39.559452
30
0.0
11
10.548517
21
39.487744
31
0.0
0
LINE
8
0
6
CONTINUOUS
10
10.006868
20
39.063496
30
0.0
11
9.971752
21
39.038227
31
0.0
0
LINE
8
0
6
CONTINUOUS
10
10.168358
20
39.179737
30
0.0
11
10.006868
21
39.063496
31
0.0
0
LINE
8
0
6
CONTINUOUS
10
10.294727
20
39.270687
30
0.0
11
10.168358
21
39.179737
31
0.0
0
LINE
8
0
6
CONTINUOUS
10
9.559843
20
38.741322
30
0.0
11
9.413073
21
38.635677
31
0.0
0
LINE
8
0
6
CONTINUOUS
10
9.707281
20
38.847439
30
0.0
11
9.559843
21
38.741322
31
0.0
0
LINE
8
0
6
CONTINUOUS
10
7.912847
20
37.714871
30
0.0
11
7.817318
21
37.646107
31
0.0
0
LINE
8
0
6
CONTINUOUS
10
8.082251
20
37.836804
30
0.0
11
7.912847
21
37.714871
31
0.0
0
LINE
8
0
6
CONTINUOUS
10
8.156126
20
37.889973
30
0.0
11
8.082251
21
37.836804
31
0.0
0
LINE
8
0
6
CONTINUOUS
10
8.882641
20
38.400799
30
0.0
11
8.757170
21
38.310490
31
0.0
0
LINE
8
0
6
CONTINUOUS
10
9.044537
20
38.517323
30
0.0
11
8.882641
21
38.400799
31
0.0
0
LINE
8
0
6
CONTINUOUS
10
9.080965
20
38.543545
30
0.0
11
9.044537
21
38.517323
31
0.0
0
LINE
8
0
6
CONTINUOUS
10
9.742992
20
39.030506
30
0.0
11
9.596224
21
38.924862
31
0.0
0
LINE
8
0
6
CONTINUOUS
10
9.890432
20
39.136631
30
0.0
11
9.742992
21
39.030506
31
0.0
0
LINE
8
0
6
CONTINUOUS
10
10.268171
20
39.418034
30
0.0
11
10.233053
21
39.392758
31
0.0
0
LINE
8
0
6
CONTINUOUS
10
10.429659
20
39.534268
30
0.0
11
10.268171
21
39.418034
31
0.0
0
LINE
8
0
6
CONTINUOUS
10
10.556026
20
39.625225
30
0.0
11
10.429659
21
39.534268
31
0.0
0
LINE
8
0
6
CONTINUOUS
10
10.715639
20
39.735531
30
0.0
11
10.646307
21
39.685627
31
0.0
0
LINE
8
0
6
CONTINUOUS
10
10.884600
20
39.857144
30
0.0
11
10.715639
21
39.735531
31
0.0
0
LINE
8
0
6
CONTINUOUS
10
10.984228
20
39.928852
30
0.0
11
10.884600
21
39.857144
31
0.0
0
LINE
8
0
6
CONTINUOUS
10
6.318426
20
36.311031
30
0.0
11
6.236507
21
36.252072
31
0.0
0
LINE
8
0
6
CONTINUOUS
10
6.429508
20
36.390988
30
0.0
11
6.318426
21
36.311031
31
0.0
0
LINE
8
0
6
CONTINUOUS
10
6.458670
20
36.411976
30
0.0
11
6.429508
21
36.390988
31
0.0
0
LINE
8
0
6
CONTINUOUS
10
6.244009
20
36.162899
30
0.0
11
6.123491
21
36.076153
31
0.0
0
LINE
8
0
6
CONTINUOUS
10
6.304268
20
36.206265
30
0.0
11
6.244009
21
36.162899
31
0.0
0
LINE
8
0
6
CONTINUOUS
10
6.123491
20
36.076153
30
0.0
11
6.063227
21
36.032772
31
0.0
0
LINE
8
0
6
CONTINUOUS
10
6.503145
20
36.366032
30
0.0
11
6.382624
21
36.279286
31
0.0
0
LINE
8
0
6
CONTINUOUS
10
6.563402
20
36.409405
30
0.0
11
6.503145
21
36.366032
31
0.0
0
LINE
8
0
6
CONTINUOUS
10
6.382624
20
36.279286
30
0.0
11
6.322361
21
36.235905
31
0.0
0
LINE
8
0
6
CONTINUOUS
10
6.785362
20
36.482357
30
0.0
11
6.664843
21
36.395611
31
0.0
0
LINE
8
0
6
CONTINUOUS
10
6.845617
20
36.525730
30
0.0
11
6.785362
21
36.482357
31
0.0
0
LINE
8
0
6
CONTINUOUS
10
6.664843
20
36.395611
30
0.0
11
6.604578
21
36.352230
31
0.0
0
LINE
8
0
6
CONTINUOUS
10
7.629684
20
37.038250
30
0.0
11
7.509165
21
36.951504
31
0.0
0
LINE
8
0
6
CONTINUOUS
10
7.689939
20
37.081616
30
0.0
11
7.629684
21
37.038250
31
0.0
0
LINE
8
0
6
CONTINUOUS
10
7.509165
20
36.951504
30
0.0
11
7.448900
21
36.908123
31
0.0
0
LINE
8
0
6
CONTINUOUS
10
7.125893
20
36.713169
30
0.0
11
7.005373
21
36.626423
31
0.0
0
LINE
8
0
6
CONTINUOUS
10
7.186150
20
36.756542
30
0.0
11
7.125893
21
36.713169
31
0.0
0
LINE
8
0
6
CONTINUOUS
10
7.005373
20
36.626423
30
0.0
11
6.945110
21
36.583042
31
0.0
0
LINE
8
0
6
CONTINUOUS
10
7.066429
20
36.772320
30
0.0
11
6.945909
21
36.685574
31
0.0
0
LINE
8
0
6
CONTINUOUS
10
7.126686
20
36.815685
30
0.0
11
7.066429
21
36.772320
31
0.0
0
LINE
8
0
6
CONTINUOUS
10
6.945909
20
36.685574
30
0.0
11
6.885645
21
36.642193
31
0.0
0
LINE
8
0
6
CONTINUOUS
10
7.319572
20
36.793919
30
0.0
11
7.199053
21
36.707173
31
0.0
0
LINE
8
0
6
CONTINUOUS
10
7.379827
20
36.837284
30
0.0
11
7.319572
21
36.793919
31
0.0
0
LINE
8
0
6
CONTINUOUS
10
7.199053
20
36.707173
30
0.0
11
7.138788
21
36.663792
31
0.0
0
LINE
8
0
6
CONTINUOUS
10
7.750227
20
37.285710
30
0.0
11
7.629707
21
37.198963
31
0.0
0
LINE
8
0
6
CONTINUOUS
10
7.810484
20
37.329083
30
0.0
11
7.750227
21
37.285710
31
0.0
0
LINE
8
0
6
CONTINUOUS
10
7.629707
20
37.198963
30
0.0
11
7.569443
21
37.155583
31
0.0
0
LINE
8
0
6
CONTINUOUS
10
8.377054
20
37.677616
30
0.0
11
8.316790
21
37.634236
31
0.0
0
LINE
8
0
6
CONTINUOUS
10
8.497574
20
37.764362
30
0.0
11
8.377054
21
37.677616
31
0.0
0
LINE
8
0
6
CONTINUOUS
10
8.557829
20
37.807728
30
0.0
11
8.497574
21
37.764362
31
0.0
0
LINE
8
0
6
CONTINUOUS
10
8.033539
20
37.318905
30
0.0
11
7.973274
21
37.275524
31
0.0
0
LINE
8
0
6
CONTINUOUS
10
8.154056
20
37.405651
30
0.0
11
8.033539
21
37.318905
31
0.0
0
LINE
8
0
6
CONTINUOUS
10
8.214313
20
37.449024
30
0.0
11
8.154056
21
37.405651
31
0.0
0
LINE
8
0
6
CONTINUOUS
10
8.484674
20
37.626736
30
0.0
11
8.424410
21
37.583355
31
0.0
0
LINE
8
0
6
CONTINUOUS
10
8.605192
20
37.713482
30
0.0
11
8.484674
21
37.626736
31
0.0
0
LINE
8
0
6
CONTINUOUS
10
8.665449
20
37.756848
30
0.0
11
8.605192
21
37.713482
31
0.0
0
LINE
8
0
6
CONTINUOUS
10
9.416929
20
38.464535
30
0.0
11
9.356665
21
38.421154
31
0.0
0
LINE
8
0
6
CONTINUOUS
10
9.537449
20
38.551281
30
0.0
11
9.416929
21
38.464535
31
0.0
0
LINE
8
0
6
CONTINUOUS
10
9.597704
20
38.594647
30
0.0
11
9.537449
21
38.551281
31
0.0
0
LINE
8
0
6
CONTINUOUS
10
11.428125
20
40.416859
30
0.0
11
11.259272
21
40.295323
31
0.0
0
LINE
8
0
6
CONTINUOUS
10
11.496548
20
40.466107
30
0.0
11
11.428125
21
40.416859
31
0.0
0
LINE
8
0
6
CONTINUOUS
10
10.971842
20
40.059872
30
0.0
11
10.902512
21
40.009968
31
0.0
0
LINE
8
0
6
CONTINUOUS
10
11.140804
20
40.181484
30
0.0
11
10.971842
21
40.059872
31
0.0
0
LINE
8
0
6
CONTINUOUS
10
11.240433
20
40.253193
30
0.0
11
11.140804
21
40.181484
31
0.0
0
LINE
8
0
6
CONTINUOUS
10
9.054695
20
38.296856
30
0.0
11
8.997099
21
38.255398
31
0.0
0
LINE
8
0
6
CONTINUOUS
10
9.169876
20
38.379757
30
0.0
11
9.054695
21
38.296856
31
0.0
0
LINE
8
0
6
CONTINUOUS
10
9.227465
20
38.421208
30
0.0
11
9.169876
21
38.379757
31
0.0
0
LINE
8
0
6
CONTINUOUS
10
8.485456
20
37.873028
30
0.0
11
8.427862
21
37.831570
31
0.0
0
LINE
8
0
6
CONTINUOUS
10
8.600639
20
37.955929
30
0.0
11
8.485456
21
37.873028
31
0.0
0
LINE
8
0
6
CONTINUOUS
10
8.658226
20
37.997379
30
0.0
11
8.600639
21
37.955929
31
0.0
0
LINE
8
0
6
CONTINUOUS
10
7.130732
20
36.888172
30
0.0
11
7.048815
21
36.829212
31
0.0
0
LINE
8
0
6
CONTINUOUS
10
7.241815
20
36.968128
30
0.0
11
7.130732
21
36.888172
31
0.0
0
LINE
8
0
6
CONTINUOUS
10
7.270975
20
36.989117
30
0.0
11
7.241815
21
36.968128
31
0.0
0
LINE
8
0
6
CONTINUOUS
10
5.645712
20
35.795483
30
0.0
11
5.563791
21
35.736515
31
0.0
0
LINE
8
0
6
CONTINUOUS
10
5.756792
20
35.875431
30
0.0
11
5.645712
21
35.795483
31
0.0
0
LINE
8
0
6
CONTINUOUS
10
5.785953
20
35.896420
30
0.0
11
5.756792
21
35.875431
31
0.0
0
LINE
8
0
6
CONTINUOUS
10
6.838945
20
36.679814
30
0.0
11
6.757027
21
36.620854
31
0.0
0
LINE
8
0
6
CONTINUOUS
10
6.950027
20
36.759770
30
0.0
11
6.838945
21
36.679814
31
0.0
0
LINE
8
0
6
CONTINUOUS
10
6.979187
20
36.780758
30
0.0
11
6.950027
21
36.759770
31
0.0
0
LINE
8
0
6
CONTINUOUS
10
9.885546
20
39.297245
30
0.0
11
9.760076
21
39.206936
31
0.0
0
LINE
8
0
6
CONTINUOUS
10
10.047443
20
39.413777
30
0.0
11
9.885546
21
39.297245
31
0.0
0
LINE
8
0
6
CONTINUOUS
10
10.083870
20
39.439991
30
0.0
11
10.047443
21
39.413777
31
0.0
0
LINE
8
0
6
CONTINUOUS
10
11.750804
20
41.001652
30
0.0
11
11.702811
21
41.118458
31
0.0
0
LINE
8
0
6
CONTINUOUS
10
2.073029
20
36.596181
30
0.0
11
1.849977
21
36.334729
31
0.0
0
LINE
8
0
6
CONTINUOUS
10
9.563222
20
41.606076
30
0.0
11
8.880971
21
41.136197
31
0.0
0
LINE
8
0
6
CONTINUOUS
10
10.789226
20
42.438679
30
0.0
11
10.734322
21
42.419171
31
0.0
0
LINE
8
0
6
CONTINUOUS
10
8.880971
20
41.136197
30
0.0
11
8.153420
21
40.628445
31
0.0
0
LINE
8
0
6
CONTINUOUS
10
-3.112406
20
23.953255
30
0.0
11
-2.302075
21
25.322091
31
0.0
0
LINE
8
0
6
CONTINUOUS
10
-4.344639
20
26.500920
30
0.0
11
-4.448220
21
26.333065
31
0.0
0
LINE
8
0
6
CONTINUOUS
10
-2.518397
20
29.484578
30
0.0
11
-4.344639
21
26.500920
31
0.0
0
LINE
8
0
6
CONTINUOUS
10
-0.514238
20
28.335160
30
0.0
11
0.890588
21
30.698117
31
0.0
0
LINE
8
0
6
CONTINUOUS
10
0.890588
20
30.698117
30
0.0
11
1.882688
21
32.436574
31
0.0
0
LINE
8
0
6
CONTINUOUS
10
-1.078466
20
31.823517
30
0.0
11
-2.518397
21
29.484578
31
0.0
0
LINE
8
0
6
CONTINUOUS
10
-0.758139
20
31.579384
30
0.0
11
-2.101173
21
29.235062
31
0.0
0
LINE
8
0
6
CONTINUOUS
10
0.061912
20
33.675583
30
0.0
11
-1.078466
21
31.823517
31
0.0
0
LINE
8
0
6
CONTINUOUS
10
0.337976
20
33.490708
30
0.0
11
-0.758139
21
31.579384
31
0.0
0
LINE
8
0
6
CONTINUOUS
10
1.619443
20
32.807690
30
0.0
11
0.458751
21
30.937268
31
0.0
0
LINE
8
0
6
CONTINUOUS
10
0.727993
20
34.748814
30
0.0
11
0.061912
21
33.675583
31
0.0
0
LINE
8
0
6
CONTINUOUS
10
0.337976
20
33.490708
30
0.0
11
1.062972
21
34.710034
31
0.0
0
LINE
8
0
6
CONTINUOUS
10
1.100648
20
35.325764
30
0.0
11
0.727993
21
34.748814
31
0.0
0
LINE
8
0
6
CONTINUOUS
10
1.364057
20
35.699948
30
0.0
11
1.100648
21
35.325764
31
0.0
0
LINE
8
0
6
CONTINUOUS
10
1.849977
20
36.334729
30
0.0
11
1.630883
21
36.069943
31
0.0
0
LINE
8
0
6
CONTINUOUS
10
8.143174
20
40.602780
30
0.0
11
7.065631
21
39.840725
31
0.0
0
LINE
8
0
6
CONTINUOUS
10
4.835067
20
38.195759
30
0.0
11
3.857616
21
37.480984
31
0.0
0
LINE
8
0
6
CONTINUOUS
10
3.857616
20
37.480984
30
0.0
11
3.456492
21
37.163830
31
0.0
0
LINE
8
0
6
CONTINUOUS
10
10.789226
20
42.438679
30
0.0
11
10.670064
21
42.354565
31
0.0
0
LINE
8
0
6
CONTINUOUS
10
10.949542
20
42.392003
30
0.0
11
10.789226
21
42.438679
31
0.0
0
LINE
8
0
6
CONTINUOUS
10
10.992949
20
42.320721
30
0.0
11
10.949542
21
42.392003
31
0.0
0
LINE
8
0
6
CONTINUOUS
10
11.694381
20
41.133610
30
0.0
11
11.465854
21
41.544087
31
0.0
0
LINE
8
0
6
CONTINUOUS
10
10.670064
20
42.354565
30
0.0
11
10.285226
21
42.086918
31
0.0
0
LINE
8
0
6
CONTINUOUS
10
10.285226
20
42.086918
30
0.0
11
9.611236
21
41.625470
31
0.0
0
LINE
8
0
6
CONTINUOUS
10
8.901935
20
41.135830
30
0.0
11
8.143174
21
40.602780
31
0.0
0
LINE
8
0
6
CONTINUOUS
10
9.611236
20
41.625470
30
0.0
11
8.901935
21
41.135830
31
0.0
0
LINE
8
0
6
CONTINUOUS
10
2.954130
20
34.593091
30
0.0
11
2.391834
21
33.936772
31
0.0
0
LINE
8
0
6
CONTINUOUS
10
3.324696
20
35.001980
30
0.0
11
2.954130
21
34.593091
31
0.0
0
LINE
8
0
6
CONTINUOUS
10
3.456492
20
37.163830
30
0.0
11
3.055073
21
36.852452
31
0.0
0
LINE
8
0
6
CONTINUOUS
10
1.630883
20
36.069943
30
0.0
11
1.364057
21
35.699948
31
0.0
0
LINE
8
0
6
CONTINUOUS
10
2.622425
20
36.473706
30
0.0
11
2.195403
21
36.039601
31
0.0
0
LINE
8
0
6
CONTINUOUS
10
3.055073
20
36.852452
30
0.0
11
2.622425
21
36.473706
31
0.0
0
LINE
8
0
6
CONTINUOUS
10
1.062972
20
34.710034
30
0.0
11
1.626157
21
35.461407
31
0.0
0
LINE
8
0
6
CONTINUOUS
10
-2.302075
20
25.322091
30
0.0
11
-0.514238
21
28.335160
31
0.0
0
LINE
8
0
6
CONTINUOUS
10
1.619443
20
32.807690
30
0.0
11
2.391834
21
33.936772
31
0.0
0
LINE
8
0
6
CONTINUOUS
10
2.251310
20
36.801426
30
0.0
11
2.073029
21
36.596181
31
0.0
0
LINE
8
0
6
CONTINUOUS
10
2.717810
20
37.294987
30
0.0
11
2.251310
21
36.801426
31
0.0
0
LINE
8
0
6
CONTINUOUS
10
3.727451
20
38.203343
30
0.0
11
3.218886
21
37.753262
31
0.0
0
LINE
8
0
6
CONTINUOUS
10
3.218886
20
37.753262
30
0.0
11
2.717810
21
37.294987
31
0.0
0
LINE
8
0
6
CONTINUOUS
10
5.205264
20
39.387181
30
0.0
11
3.727451
21
38.203343
31
0.0
0
LINE
8
0
6
CONTINUOUS
10
6.831323
20
40.506451
30
0.0
11
5.205264
21
39.387181
31
0.0
0
LINE
8
0
6
CONTINUOUS
10
8.467751
20
41.436810
30
0.0
11
6.831323
21
40.506451
31
0.0
0
LINE
8
0
6
CONTINUOUS
10
9.972766
20
42.114888
30
0.0
11
8.467751
21
41.436810
31
0.0
0
LINE
8
0
6
CONTINUOUS
10
10.734322
20
42.419171
30
0.0
11
9.972766
21
42.114888
31
0.0
0
LINE
8
0
6
CONTINUOUS
10
4.137754
20
35.630017
30
0.0
11
4.474948
21
35.900288
31
0.0
0
LINE
8
0
6
CONTINUOUS
10
4.441243
20
35.901440
30
0.0
11
4.110363
21
35.633626
31
0.0
0
LINE
8
0
6
CONTINUOUS
10
4.110363
20
35.633626
30
0.0
11
3.768218
21
35.342892
31
0.0
0
LINE
8
0
6
CONTINUOUS
10
3.795490
20
35.334271
30
0.0
11
4.137754
21
35.630017
31
0.0
0
LINE
8
0
6
CONTINUOUS
10
6.963996
20
37.631428
30
0.0
11
8.090354
21
38.407635
31
0.0
0
LINE
8
0
6
CONTINUOUS
10
8.052108
20
38.407155
30
0.0
11
6.924907
21
37.634869
31
0.0
0
LINE
8
0
6
CONTINUOUS
10
5.861237
20
36.869702
30
0.0
11
6.963996
21
37.631428
31
0.0
0
LINE
8
0
6
CONTINUOUS
10
6.924907
20
37.634869
30
0.0
11
5.824321
21
36.874631
31
0.0
0
LINE
8
0
6
CONTINUOUS
10
5.927875
20
39.008275
30
0.0
11
7.065631
21
39.840725
31
0.0
0
LINE
8
0
6
CONTINUOUS
10
4.835067
20
38.195759
30
0.0
11
5.927875
21
39.008275
31
0.0
0
LINE
8
0
6
CONTINUOUS
10
11.465854
20
41.544087
30
0.0
11
10.992949
21
42.320721
31
0.0
0
LINE
8
0
6
CONTINUOUS
10
11.702811
20
41.118458
30
0.0
11
11.694381
21
41.133610
31
0.0
0
LINE
8
0
6
CONTINUOUS
10
-3.163137
20
23.929745
30
0.0
11
-3.119728
21
23.940884
31
0.0
0
LINE
8
0
6
CONTINUOUS
10
-3.666100
20
24.221409
30
0.0
11
-3.457677
21
24.100545
31
0.0
0
LINE
8
0
6
CONTINUOUS
10
-3.789154
20
24.292767
30
0.0
11
-3.666100
21
24.221409
31
0.0
0
LINE
8
0
6
CONTINUOUS
10
-4.057480
20
24.448369
30
0.0
11
-3.913740
21
24.365014
31
0.0
0
LINE
8
0
6
CONTINUOUS
10
-4.373400
20
24.631570
30
0.0
11
-4.205856
21
24.534413
31
0.0
0
LINE
8
0
6
CONTINUOUS
10
-3.913740
20
24.365014
30
0.0
11
-3.789154
21
24.292767
31
0.0
0
LINE
8
0
6
CONTINUOUS
10
-4.034582
20
24.471375
30
0.0
11
-3.888729
21
24.386788
31
0.0
0
LINE
8
0
6
CONTINUOUS
10
-3.421855
20
24.116059
30
0.0
11
-3.257852
21
24.020970
31
0.0
0
LINE
8
0
6
CONTINUOUS
10
-3.888729
20
24.386788
30
0.0
11
-3.762150
21
24.313382
31
0.0
0
LINE
8
0
6
CONTINUOUS
10
-3.119728
20
23.940884
30
0.0
11
-3.112406
21
23.953255
31
0.0
0
LINE
8
0
6
CONTINUOUS
10
-3.154820
20
23.961232
30
0.0
11
-3.119728
21
23.940884
31
0.0
0
LINE
8
0
6
CONTINUOUS
10
-4.185975
20
24.559167
30
0.0
11
-4.034582
21
24.471375
31
0.0
0
LINE
8
0
6
CONTINUOUS
10
-3.635828
20
24.240132
30
0.0
11
-3.421855
21
24.116059
31
0.0
0
LINE
8
0
6
CONTINUOUS
10
-3.762150
20
24.313382
30
0.0
11
-3.635828
21
24.240132
31
0.0
0
LINE
8
0
6
CONTINUOUS
10
-4.362809
20
24.661711
30
0.0
11
-4.185975
21
24.559167
31
0.0
0
LINE
8
0
6
CONTINUOUS
10
-3.257852
20
24.020970
30
0.0
11
-3.154820
21
23.961232
31
0.0
0
LINE
8
0
6
CONTINUOUS
10
-4.057480
20
24.448369
30
0.0
11
-4.205856
21
24.534413
31
0.0
0
LINE
8
0
6
CONTINUOUS
10
-3.733680
20
23.020048
30
0.0
11
-3.260054
21
23.743424
31
0.0
0
LINE
8
0
6
CONTINUOUS
10
-3.189357
20
23.944947
30
0.0
11
-3.290650
21
24.003689
31
0.0
0
LINE
8
0
6
CONTINUOUS
10
-3.159485
20
23.916848
30
0.0
11
-3.154808
21
23.924912
31
0.0
0
LINE
8
0
6
CONTINUOUS
10
-3.260054
20
23.743424
30
0.0
11
-3.159485
21
23.916848
31
0.0
0
LINE
8
0
6
CONTINUOUS
10
-3.451785
20
24.097127
30
0.0
11
-3.290650
21
24.003689
31
0.0
0
LINE
8
0
6
CONTINUOUS
10
-3.189357
20
23.944947
30
0.0
11
-3.154808
21
23.924912
31
0.0
0
LINE
8
0
6
CONTINUOUS
10
1.961283
20
32.764115
30
0.0
11
1.921157
21
32.908185
31
0.0
0
LINE
8
0
6
CONTINUOUS
10
1.988555
20
32.666207
30
0.0
11
1.961283
21
32.764115
31
0.0
0
LINE
8
0
6
CONTINUOUS
10
1.882688
20
32.436574
30
0.0
11
2.009263
21
32.645093
31
0.0
0
LINE
8
0
6
CONTINUOUS
10
2.009263
20
32.645093
30
0.0
11
1.988555
21
32.666207
31
0.0
0
LINE
8
0
6
CONTINUOUS
10
1.921157
20
32.908185
30
0.0
11
2.460157
21
33.836938
31
0.0
0
LINE
8
0
6
CONTINUOUS
10
2.460157
20
33.836938
30
0.0
11
3.020116
21
34.558880
31
0.0
0
LINE
8
0
6
CONTINUOUS
10
3.427154
20
35.025891
30
0.0
11
3.451898
21
35.015759
31
0.0
0
LINE
8
0
6
CONTINUOUS
10
4.474948
20
35.900288
30
0.0
11
4.897080
21
36.192830
31
0.0
0
LINE
8
0
6
CONTINUOUS
10
4.858497
20
36.193310
30
0.0
11
4.441243
21
35.901440
31
0.0
0
LINE
8
0
6
CONTINUOUS
10
10.498475
20
40.116376
30
0.0
11
9.859542
21
39.677426
31
0.0
0
LINE
8
0
6
CONTINUOUS
10
9.859540
20
39.658673
30
0.0
11
10.463160
21
40.073826
31
0.0
0
LINE
8
0
6
CONTINUOUS
10
11.610497
20
40.906224
30
0.0
11
11.192681
21
40.618138
31
0.0
0
LINE
8
0
6
CONTINUOUS
10
11.152535
20
40.566609
30
0.0
11
11.568742
21
40.850949
31
0.0
0
LINE
8
0
6
CONTINUOUS
10
11.192681
20
40.618138
30
0.0
11
10.498475
21
40.116376
31
0.0
0
LINE
8
0
6
CONTINUOUS
10
10.463160
20
40.073826
30
0.0
11
11.152535
21
40.566609
31
0.0
0
LINE
8
0
6
CONTINUOUS
10
11.750804
20
41.001652
30
0.0
11
11.610497
21
40.906224
31
0.0
0
LINE
8
0
6
CONTINUOUS
10
11.707705
20
40.944211
30
0.0
11
11.750804
21
41.001652
31
0.0
0
LINE
8
0
6
CONTINUOUS
10
11.568742
20
40.850949
30
0.0
11
11.707705
21
40.944211
31
0.0
0
LINE
8
0
6
CONTINUOUS
10
4.897080
20
36.192830
30
0.0
11
5.861237
21
36.869702
31
0.0
0
LINE
8
0
6
CONTINUOUS
10
5.824321
20
36.874631
30
0.0
11
4.858497
21
36.193310
31
0.0
0
LINE
8
0
6
CONTINUOUS
10
9.171555
20
39.183262
30
0.0
11
9.859540
21
39.658673
31
0.0
0
LINE
8
0
6
CONTINUOUS
10
9.859542
20
39.677426
30
0.0
11
9.130391
21
39.173596
31
0.0
0
LINE
8
0
6
CONTINUOUS
10
9.130391
20
39.173596
30
0.0
11
8.052108
21
38.407155
31
0.0
0
LINE
8
0
6
CONTINUOUS
10
8.090354
20
38.407635
30
0.0
11
9.171555
21
39.183262
31
0.0
0
LINE
8
0
6
CONTINUOUS
10
3.324268
20
34.843319
30
0.0
11
3.463188
21
35.015660
31
0.0
0
LINE
8
0
6
CONTINUOUS
10
3.020116
20
34.558880
30
0.0
11
3.324268
21
34.843319
31
0.0
0
LINE
8
0
6
CONTINUOUS
10
3.795490
20
35.334271
30
0.0
11
3.451898
21
35.015759
31
0.0
0
LINE
8
0
6
CONTINUOUS
10
3.463188
20
35.015660
30
0.0
11
3.795490
21
35.334271
31
0.0
0
LINE
8
0
6
CONTINUOUS
10
3.451898
20
35.015759
30
0.0
11
3.463188
21
35.015660
31
0.0
0
LINE
8
0
6
CONTINUOUS
10
5.312051
20
36.484156
30
0.0
11
4.897078
21
36.192830
31
0.0
0
LINE
8
0
6
CONTINUOUS
10
8.620632
20
37.819114
30
0.0
11
8.675871
21
37.866852
31
0.0
0
LINE
8
0
6
CONTINUOUS
10
8.901463
20
38.061808
30
0.0
11
8.946623
21
38.100835
31
0.0
0
LINE
8
0
6
CONTINUOUS
10
9.207983
20
38.326701
30
0.0
11
9.341561
21
38.442139
31
0.0
0
LINE
8
0
6
CONTINUOUS
10
9.698237
20
38.750377
30
0.0
11
9.759074
21
38.802952
31
0.0
0
LINE
8
0
6
CONTINUOUS
10
11.707705
20
40.944211
30
0.0
11
11.568744
21
40.850949
31
0.0
0
LINE
8
0
6
CONTINUOUS
10
11.415939
20
40.578100
30
0.0
11
11.707705
21
40.944211
31
0.0
0
LINE
8
0
6
CONTINUOUS
10
4.740929
20
35.424551
30
0.0
11
4.839978
21
35.471325
31
0.0
0
LINE
8
0
6
CONTINUOUS
10
4.644632
20
36.017882
30
0.0
11
4.474946
21
35.900288
31
0.0
0
LINE
8
0
6
CONTINUOUS
10
6.268309
20
36.256223
30
0.0
11
6.296164
21
36.272302
31
0.0
0
LINE
8
0
6
CONTINUOUS
10
6.813209
20
36.570755
30
0.0
11
6.912643
21
36.628151
31
0.0
0
LINE
8
0
6
CONTINUOUS
10
7.334959
20
36.899621
30
0.0
11
7.414767
21
36.955545
31
0.0
0
LINE
8
0
6
CONTINUOUS
10
7.722013
20
37.170839
30
0.0
11
7.939122
21
37.322973
31
0.0
0
LINE
8
0
6
CONTINUOUS
10
8.372596
20
37.626720
30
0.0
11
8.386290
21
37.636315
31
0.0
0
LINE
8
0
6
CONTINUOUS
10
4.178440
20
35.157353
30
0.0
11
4.358388
21
35.243318
31
0.0
0
LINE
8
0
6
CONTINUOUS
10
5.743255
20
35.955742
30
0.0
11
6.007213
21
36.105511
31
0.0
0
LINE
8
0
6
CONTINUOUS
10
6.148716
20
37.068278
30
0.0
11
5.861236
21
36.869702
31
0.0
0
LINE
8
0
6
CONTINUOUS
10
9.859540
20
39.658673
30
0.0
11
9.171554
21
39.183262
31
0.0
0
LINE
8
0
6
CONTINUOUS
10
10.463160
20
40.073826
30
0.0
11
9.859540
21
39.658673
31
0.0
0
LINE
8
0
6
CONTINUOUS
10
3.795489
20
35.334271
30
0.0
11
3.463187
21
35.015660
31
0.0
0
LINE
8
0
6
CONTINUOUS
10
1.987172
20
32.805211
30
0.0
11
2.013246
21
32.705281
31
0.0
0
LINE
8
0
6
CONTINUOUS
10
9.171554
20
39.183262
30
0.0
11
8.090354
21
38.407635
31
0.0
0
LINE
8
0
6
CONTINUOUS
10
3.324268
20
34.843319
30
0.0
11
3.756254
21
35.031590
31
0.0
0
LINE
8
0
6
CONTINUOUS
10
1.952195
20
32.930478
30
0.0
11
1.987172
21
32.805211
31
0.0
0
LINE
8
0
6
CONTINUOUS
10
2.470520
20
33.822278
30
0.0
11
1.952195
21
32.930478
31
0.0
0
LINE
8
0
6
CONTINUOUS
10
11.152537
20
40.566609
30
0.0
11
10.463160
21
40.073826
31
0.0
0
LINE
8
0
6
CONTINUOUS
10
3.756254
20
35.031590
30
0.0
11
3.891911
21
35.011098
31
0.0
0
LINE
8
0
6
CONTINUOUS
10
3.091206
20
34.222363
30
0.0
11
3.887221
21
34.957532
31
0.0
0
LINE
8
0
6
CONTINUOUS
10
3.887221
20
34.957532
30
0.0
11
3.858390
21
34.980671
31
0.0
0
LINE
8
0
6
CONTINUOUS
10
11.568744
20
40.850949
30
0.0
11
11.152537
21
40.566609
31
0.0
0
LINE
8
0
6
CONTINUOUS
10
2.614047
20
33.592671
30
0.0
11
3.091206
21
34.222363
31
0.0
0
LINE
8
0
6
CONTINUOUS
10
3.920519
20
34.988286
30
0.0
11
4.178440
21
35.157353
31
0.0
0
LINE
8
0
6
CONTINUOUS
10
3.891911
20
35.011098
30
0.0
11
3.920519
21
34.988286
31
0.0
0
LINE
8
0
6
CONTINUOUS
10
4.137753
20
35.630017
30
0.0
11
3.795489
21
35.334271
31
0.0
0
LINE
8
0
6
CONTINUOUS
10
4.325305
20
35.780346
30
0.0
11
4.137753
21
35.630017
31
0.0
0
LINE
8
0
6
CONTINUOUS
10
4.839978
20
35.471325
30
0.0
11
4.883205
21
35.493614
31
0.0
0
LINE
8
0
6
CONTINUOUS
10
5.257342
20
35.686526
30
0.0
11
5.292553
21
35.704681
31
0.0
0
LINE
8
0
6
CONTINUOUS
10
8.090354
20
38.407635
30
0.0
11
6.963994
21
37.631428
31
0.0
0
LINE
8
0
6
CONTINUOUS
10
9.818383
20
38.862662
30
0.0
11
9.911809
21
38.956719
31
0.0
0
LINE
8
0
6
CONTINUOUS
10
10.590312
20
39.639805
30
0.0
11
10.641904
21
39.691745
31
0.0
0
LINE
8
0
6
CONTINUOUS
10
3.858390
20
34.980671
30
0.0
11
3.722610
21
34.999913
31
0.0
0
LINE
8
0
6
CONTINUOUS
10
2.033689
20
32.683362
30
0.0
11
2.614047
21
33.592671
31
0.0
0
LINE
8
0
6
CONTINUOUS
10
2.013246
20
32.705281
30
0.0
11
2.033689
21
32.683362
31
0.0
0
LINE
8
0
6
CONTINUOUS
10
3.026762
20
34.543606
30
0.0
11
2.470520
21
33.822278
31
0.0
0
LINE
8
0
6
CONTINUOUS
10
3.325105
20
34.825833
30
0.0
11
3.026762
21
34.543606
31
0.0
0
LINE
8
0
6
CONTINUOUS
10
3.722610
20
34.999913
30
0.0
11
3.325105
21
34.825833
31
0.0
0
LINE
8
0
6
CONTINUOUS
10
3.912082
20
34.986065
30
0.0
11
3.920519
21
34.988286
31
0.0
0
LINE
8
0
6
CONTINUOUS
10
3.920519
20
34.988286
30
0.0
11
3.891911
21
35.011098
31
0.0
0
LINE
8
0
6
CONTINUOUS
10
2.009263
20
32.645093
30
0.0
11
2.011380
21
32.673192
31
0.0
0
LINE
8
0
6
CONTINUOUS
10
3.325105
20
34.825833
30
0.0
11
3.722610
21
34.999913
31
0.0
0
LINE
8
0
6
CONTINUOUS
10
3.722610
20
34.999913
30
0.0
11
3.858390
21
34.980671
31
0.0
0
LINE
8
0
6
CONTINUOUS
10
3.877349
20
34.996426
30
0.0
11
3.848628
21
35.019398
31
0.0
0
LINE
8
0
6
CONTINUOUS
10
3.887221
20
34.957532
30
0.0
11
3.877349
21
34.996426
31
0.0
0
LINE
8
0
6
CONTINUOUS
10
3.858390
20
34.980671
30
0.0
11
3.887221
21
34.957532
31
0.0
0
LINE
8
0
6
CONTINUOUS
10
3.026762
20
34.543606
30
0.0
11
3.325105
21
34.825833
31
0.0
0
LINE
8
0
6
CONTINUOUS
10
1.952195
20
32.930478
30
0.0
11
2.470520
21
33.822278
31
0.0
0
LINE
8
0
6
CONTINUOUS
10
2.013246
20
32.705281
30
0.0
11
1.987172
21
32.805211
31
0.0
0
LINE
8
0
6
CONTINUOUS
10
1.995522
20
32.688420
30
0.0
11
2.033689
21
32.683362
31
0.0
0
LINE
8
0
6
CONTINUOUS
10
1.974946
20
32.709935
30
0.0
11
1.995522
21
32.688420
31
0.0
0
LINE
8
0
6
CONTINUOUS
10
2.033689
20
32.683362
30
0.0
11
2.013246
21
32.705281
31
0.0
0
LINE
8
0
6
CONTINUOUS
10
2.470520
20
33.822278
30
0.0
11
3.026762
21
34.543606
31
0.0
0
LINE
8
0
6
CONTINUOUS
10
1.987172
20
32.805211
30
0.0
11
1.952195
21
32.930478
31
0.0
0
LINE
8
0
6
CONTINUOUS
10
8.900449
20
38.856187
30
0.0
11
8.841322
21
38.736857
31
0.0
0
LINE
8
0
6
CONTINUOUS
10
9.947761
20
39.552269
30
0.0
11
9.992632
21
39.544442
31
0.0
0
LINE
8
0
6
CONTINUOUS
10
9.947761
20
39.552269
30
0.0
11
9.856768
21
39.468776
31
0.0
0
LINE
8
0
6
CONTINUOUS
10
10.528415
20
39.947658
30
0.0
11
10.647561
21
40.048648
31
0.0
0
LINE
8
0
6
CONTINUOUS
10
11.043837
20
40.316203
30
0.0
11
11.135407
21
40.399109
31
0.0
0
LINE
8
0
6
CONTINUOUS
10
11.343339
20
40.534655
30
0.0
11
11.402366
21
40.596957
31
0.0
0
LINE
8
0
6
CONTINUOUS
10
8.458629
20
37.722477
30
0.0
11
8.430048
21
37.702629
31
0.0
0
LINE
8
0
6
CONTINUOUS
10
8.544996
20
37.797114
30
0.0
11
8.458629
21
37.722477
31
0.0
0
LINE
8
0
6
CONTINUOUS
10
8.430048
20
37.702629
30
0.0
11
8.371953
21
37.656236
31
0.0
0
LINE
8
0
6
CONTINUOUS
10
8.814490
20
38.055557
30
0.0
11
8.700985
21
37.959063
31
0.0
0
LINE
8
0
6
CONTINUOUS
10
8.671919
20
37.931254
30
0.0
11
8.647313
21
37.906532
31
0.0
0
LINE
8
0
6
CONTINUOUS
10
8.263710
20
37.650915
30
0.0
11
8.140576
21
37.567797
31
0.0
0
LINE
8
0
6
CONTINUOUS
10
8.096295
20
37.485900
30
0.0
11
7.974313
21
37.401190
31
0.0
0
LINE
8
0
6
CONTINUOUS
10
7.261825
20
36.874148
30
0.0
11
7.140208
21
36.788928
31
0.0
0
LINE
8
0
6
CONTINUOUS
10
6.734053
20
36.553643
30
0.0
11
6.604544
21
36.479386
31
0.0
0
LINE
8
0
6
CONTINUOUS
10
10.866491
20
39.974884
30
0.0
11
10.913477
21
40.027148
31
0.0
0
LINE
8
0
6
CONTINUOUS
10
10.824175
20
39.941093
30
0.0
11
10.817034
21
39.934267
31
0.0
0
LINE
8
0
6
CONTINUOUS
10
9.516421
20
39.035734
30
0.0
11
9.526704
21
39.048539
31
0.0
0
LINE
8
0
6
CONTINUOUS
10
9.646277
20
39.164876
30
0.0
11
9.526704
21
39.048539
31
0.0
0
LINE
8
0
6
CONTINUOUS
10
8.779225
20
38.544478
30
0.0
11
8.714659
21
38.449160
31
0.0
0
LINE
8
0
6
CONTINUOUS
10
7.962579
20
38.003069
30
0.0
11
7.793039
21
37.881324
31
0.0
0
LINE
8
0
6
CONTINUOUS
10
8.760009
20
38.381411
30
0.0
11
8.594194
21
38.270322
31
0.0
0
LINE
8
0
6
CONTINUOUS
10
8.594194
20
38.270322
30
0.0
11
8.483876
21
38.158960
31
0.0
0
LINE
8
0
6
CONTINUOUS
10
9.944134
20
39.150657
30
0.0
11
10.081521
21
39.300383
31
0.0
0
LINE
8
0
6
CONTINUOUS
10
10.485117
20
39.575827
30
0.0
11
10.335848
21
39.426858
31
0.0
0
LINE
8
0
6
CONTINUOUS
10
5.930052
20
36.366531
30
0.0
11
5.781913
21
36.262794
31
0.0
0
LINE
8
0
6
CONTINUOUS
10
7.792646
20
37.690547
30
0.0
11
7.718897
21
37.633276
31
0.0
0
LINE
8
0
6
CONTINUOUS
10
6.989008
20
37.310345
30
0.0
11
6.808772
21
37.203460
31
0.0
0
LINE
8
0
6
CONTINUOUS
10
4.411567
20
35.315664
30
0.0
11
4.338965
21
35.270303
31
0.0
0
LINE
8
0
6
CONTINUOUS
10
4.051334
20
35.278971
30
0.0
11
4.022964
21
35.247787
31
0.0
0
LINE
8
0
6
CONTINUOUS
10
4.022964
20
35.247787
30
0.0
11
3.987427
21
35.221528
31
0.0
0
LINE
8
0
6
CONTINUOUS
10
5.373906
20
36.321389
30
0.0
11
5.447301
21
36.296250
31
0.0
0
LINE
8
0
6
CONTINUOUS
10
8.061263
20
38.279886
30
0.0
11
7.895248
21
38.155704
31
0.0
0
LINE
8
0
6
CONTINUOUS
10
9.064220
20
38.985945
30
0.0
11
8.908705
21
38.863181
31
0.0
0
LINE
8
0
6
CONTINUOUS
10
10.362145
20
39.628068
30
0.0
11
10.219083
21
39.486233
31
0.0
0
LINE
8
0
6
CONTINUOUS
10
9.637797
20
38.707260
30
0.0
11
9.605719
21
38.679990
31
0.0
0
LINE
8
0
6
CONTINUOUS
10
6.059203
20
36.190153
30
0.0
11
6.025100
21
36.166256
31
0.0
0
LINE
8
0
6
CONTINUOUS
10
5.974608
20
36.127342
30
0.0
11
5.945082
21
36.104411
31
0.0
0
LINE
8
0
6
CONTINUOUS
10
6.025100
20
36.166256
30
0.0
11
5.974608
21
36.127342
31
0.0
0
LINE
8
0
6
CONTINUOUS
10
5.945082
20
36.104411
30
0.0
11
5.904787
21
36.064585
31
0.0
0
LINE
8
0
6
CONTINUOUS
10
-3.749196
20
23.066352
30
0.0
11
-3.733680
21
23.020048
31
0.0
0
LINE
8
0
6
CONTINUOUS
10
-3.759267
20
23.100563
30
0.0
11
-3.753723
21
23.081928
31
0.0
0
LINE
8
0
6
CONTINUOUS
10
-3.753723
20
23.081928
30
0.0
11
-3.749196
21
23.066352
31
0.0
0
ENDSEC
0
EOF
