999
unknown String-ID: 20550
0
SECTION
2
HEADER
9
$ACADVER
1
AC1009
9
$DWGCODEPAGE
3
unknown String-ID: 20561
0
ENDSEC
0
SECTION
2
TABLES
0
TABLE
2
LAYER
70
1
0
LAYER
2
0
70
0
62
7
6
CONTINUOUS
0
ENDTAB
0
ENDSEC
0
SECTION
2
ENTITIES
0
LINE
8
0
6
CONTINUOUS
10
9.167363
20
9.104576
30
0.0
11
9.119370
21
9.221382
31
0.0
0
LINE
8
0
6
CONTINUOUS
10
-0.510411
20
4.699105
30
0.0
11
-0.733463
21
4.437653
31
0.0
0
LINE
8
0
6
CONTINUOUS
10
6.979782
20
9.709000
30
0.0
11
6.297531
21
9.239121
31
0.0
0
LINE
8
0
6
CONTINUOUS
10
8.205785
20
10.541603
30
0.0
11
8.150882
21
10.522095
31
0.0
0
LINE
8
0
6
CONTINUOUS
10
6.297531
20
9.239121
30
0.0
11
5.569980
21
8.731369
31
0.0
0
LINE
8
0
6
CONTINUOUS
10
-5.695846
20
-7.943821
30
0.0
11
-4.885515
21
-6.574985
31
0.0
0
LINE
8
0
6
CONTINUOUS
10
-6.928079
20
-5.396156
30
0.0
11
-7.761177
21
-6.746212
31
0.0
0
LINE
8
0
6
CONTINUOUS
10
-5.101837
20
-2.412498
30
0.0
11
-6.928079
21
-5.396156
31
0.0
0
LINE
8
0
6
CONTINUOUS
10
-3.097678
20
-3.561916
30
0.0
11
-1.692852
21
-1.198959
31
0.0
0
LINE
8
0
6
CONTINUOUS
10
-1.692852
20
-1.198959
30
0.0
11
-0.700752
21
0.539498
31
0.0
0
LINE
8
0
6
CONTINUOUS
10
-3.661906
20
-0.073559
30
0.0
11
-5.101837
21
-2.412498
31
0.0
0
LINE
8
0
6
CONTINUOUS
10
-3.341579
20
-0.317692
30
0.0
11
-4.684613
21
-2.662014
31
0.0
0
LINE
8
0
6
CONTINUOUS
10
-2.521528
20
1.778507
30
0.0
11
-3.661906
21
-0.073559
31
0.0
0
LINE
8
0
6
CONTINUOUS
10
-2.245464
20
1.593632
30
0.0
11
-3.341579
21
-0.317692
31
0.0
0
LINE
8
0
6
CONTINUOUS
10
-0.963997
20
0.910614
30
0.0
11
-2.124690
21
-0.959808
31
0.0
0
LINE
8
0
6
CONTINUOUS
10
-1.855447
20
2.851738
30
0.0
11
-2.521528
21
1.778507
31
0.0
0
LINE
8
0
6
CONTINUOUS
10
-2.245464
20
1.593632
30
0.0
11
-1.520469
21
2.812958
31
0.0
0
LINE
8
0
6
CONTINUOUS
10
-1.482792
20
3.428688
30
0.0
11
-1.855447
21
2.851738
31
0.0
0
LINE
8
0
6
CONTINUOUS
10
-1.219384
20
3.802872
30
0.0
11
-1.482792
21
3.428688
31
0.0
0
LINE
8
0
6
CONTINUOUS
10
-0.733463
20
4.437653
30
0.0
11
-0.952557
21
4.172867
31
0.0
0
LINE
8
0
6
CONTINUOUS
10
5.559734
20
8.705704
30
0.0
11
4.482191
21
7.943649
31
0.0
0
LINE
8
0
6
CONTINUOUS
10
2.251627
20
6.298683
30
0.0
11
1.274176
21
5.583908
31
0.0
0
LINE
8
0
6
CONTINUOUS
10
1.274176
20
5.583908
30
0.0
11
0.873052
21
5.266754
31
0.0
0
LINE
8
0
6
CONTINUOUS
10
8.205785
20
10.541603
30
0.0
11
8.086624
21
10.457489
31
0.0
0
LINE
8
0
6
CONTINUOUS
10
8.366101
20
10.494927
30
0.0
11
8.205785
21
10.541603
31
0.0
0
LINE
8
0
6
CONTINUOUS
10
8.409508
20
10.423645
30
0.0
11
8.366101
21
10.494927
31
0.0
0
LINE
8
0
6
CONTINUOUS
10
9.110940
20
9.236534
30
0.0
11
8.882414
21
9.647011
31
0.0
0
LINE
8
0
6
CONTINUOUS
10
8.086624
20
10.457489
30
0.0
11
7.701786
21
10.189842
31
0.0
0
LINE
8
0
6
CONTINUOUS
10
7.701786
20
10.189842
30
0.0
11
7.027795
21
9.728394
31
0.0
0
LINE
8
0
6
CONTINUOUS
10
6.318495
20
9.238754
30
0.0
11
5.559734
21
8.705704
31
0.0
0
LINE
8
0
6
CONTINUOUS
10
7.027795
20
9.728394
30
0.0
11
6.318495
21
9.238754
31
0.0
0
LINE
8
0
6
CONTINUOUS
10
0.370690
20
2.696015
30
0.0
11
-0.191606
21
2.039696
31
0.0
0
LINE
8
0
6
CONTINUOUS
10
0.741256
20
3.104904
30
0.0
11
0.370690
21
2.696015
31
0.0
0
LINE
8
0
6
CONTINUOUS
10
0.873052
20
5.266754
30
0.0
11
0.471633
21
4.955376
31
0.0
0
LINE
8
0
6
CONTINUOUS
10
-0.952557
20
4.172867
30
0.0
11
-1.219384
21
3.802872
31
0.0
0
LINE
8
0
6
CONTINUOUS
10
0.038985
20
4.576630
30
0.0
11
-0.388038
21
4.142525
31
0.0
0
LINE
8
0
6
CONTINUOUS
10
0.471633
20
4.955376
30
0.0
11
0.038985
21
4.576630
31
0.0
0
LINE
8
0
6
CONTINUOUS
10
-1.520469
20
2.812958
30
0.0
11
-0.957283
21
3.564331
31
0.0
0
LINE
8
0
6
CONTINUOUS
10
-4.885515
20
-6.574985
30
0.0
11
-3.097678
21
-3.561916
31
0.0
0
LINE
8
0
6
CONTINUOUS
10
-0.963997
20
0.910614
30
0.0
11
-0.191606
21
2.039696
31
0.0
0
LINE
8
0
6
CONTINUOUS
10
-0.332131
20
4.904350
30
0.0
11
-0.510411
21
4.699105
31
0.0
0
LINE
8
0
6
CONTINUOUS
10
0.134370
20
5.397911
30
0.0
11
-0.332131
21
4.904350
31
0.0
0
LINE
8
0
6
CONTINUOUS
10
1.144011
20
6.306267
30
0.0
11
0.635446
21
5.856186
31
0.0
0
LINE
8
0
6
CONTINUOUS
10
0.635446
20
5.856186
30
0.0
11
0.134370
21
5.397911
31
0.0
0
LINE
8
0
6
CONTINUOUS
10
2.621824
20
7.490105
30
0.0
11
1.144011
21
6.306267
31
0.0
0
LINE
8
0
6
CONTINUOUS
10
4.247883
20
8.609375
30
0.0
11
2.621824
21
7.490105
31
0.0
0
LINE
8
0
6
CONTINUOUS
10
5.884310
20
9.539734
30
0.0
11
4.247883
21
8.609375
31
0.0
0
LINE
8
0
6
CONTINUOUS
10
7.389326
20
10.217812
30
0.0
11
5.884310
21
9.539734
31
0.0
0
LINE
8
0
6
CONTINUOUS
10
8.150882
20
10.522095
30
0.0
11
7.389326
21
10.217812
31
0.0
0
LINE
8
0
6
CONTINUOUS
10
1.554314
20
3.732941
30
0.0
11
1.891507
21
4.003212
31
0.0
0
LINE
8
0
6
CONTINUOUS
10
1.857803
20
4.004364
30
0.0
11
1.526923
21
3.736550
31
0.0
0
LINE
8
0
6
CONTINUOUS
10
1.526923
20
3.736550
30
0.0
11
1.184777
21
3.445816
31
0.0
0
LINE
8
0
6
CONTINUOUS
10
1.212049
20
3.437195
30
0.0
11
1.552886
21
3.731708
31
0.0
0
LINE
8
0
6
CONTINUOUS
10
4.380556
20
5.734352
30
0.0
11
5.506914
21
6.510559
31
0.0
0
LINE
8
0
6
CONTINUOUS
10
5.468668
20
6.510079
30
0.0
11
4.341467
21
5.737793
31
0.0
0
LINE
8
0
6
CONTINUOUS
10
3.277797
20
4.972626
30
0.0
11
4.380556
21
5.734352
31
0.0
0
LINE
8
0
6
CONTINUOUS
10
4.341467
20
5.737793
30
0.0
11
3.240881
21
4.977555
31
0.0
0
LINE
8
0
6
CONTINUOUS
10
3.344435
20
7.111199
30
0.0
11
4.482191
21
7.943649
31
0.0
0
LINE
8
0
6
CONTINUOUS
10
2.251627
20
6.298683
30
0.0
11
3.344435
21
7.111199
31
0.0
0
LINE
8
0
6
CONTINUOUS
10
8.882414
20
9.647011
30
0.0
11
8.409508
21
10.423645
31
0.0
0
LINE
8
0
6
CONTINUOUS
10
9.119370
20
9.221382
30
0.0
11
9.110940
21
9.236534
31
0.0
0
LINE
8
0
6
CONTINUOUS
10
-5.746577
20
-7.967331
30
0.0
11
-5.703168
21
-7.956192
31
0.0
0
LINE
8
0
6
CONTINUOUS
10
-6.249540
20
-7.675667
30
0.0
11
-6.041117
21
-7.796531
31
0.0
0
LINE
8
0
6
CONTINUOUS
10
-6.372594
20
-7.604309
30
0.0
11
-6.249540
21
-7.675667
31
0.0
0
LINE
8
0
6
CONTINUOUS
10
-6.640920
20
-7.448707
30
0.0
11
-6.497180
21
-7.532062
31
0.0
0
LINE
8
0
6
CONTINUOUS
10
-7.162122
20
-7.146465
30
0.0
11
-6.789296
21
-7.362663
31
0.0
0
LINE
8
0
6
CONTINUOUS
10
-7.208196
20
-7.083462
30
0.0
11
-7.245744
21
-7.061687
31
0.0
0
LINE
8
0
6
CONTINUOUS
10
-7.243816
20
-7.099090
30
0.0
11
-7.213712
21
-7.116546
31
0.0
0
LINE
8
0
6
CONTINUOUS
10
-7.213712
20
-7.116546
30
0.0
11
-7.162122
21
-7.146465
31
0.0
0
LINE
8
0
6
CONTINUOUS
10
-7.461562
20
-6.972816
30
0.0
11
-7.243816
21
-7.099090
31
0.0
0
LINE
8
0
6
CONTINUOUS
10
-7.466483
20
-6.933655
30
0.0
11
-7.630622
21
-6.838470
31
0.0
0
LINE
8
0
6
CONTINUOUS
10
-7.723335
20
-6.821014
30
0.0
11
-7.622174
21
-6.879680
31
0.0
0
LINE
8
0
6
CONTINUOUS
10
-7.727768
20
-6.818444
30
0.0
11
-7.723335
21
-6.821014
31
0.0
0
LINE
8
0
6
CONTINUOUS
10
-7.768705
20
-6.758411
30
0.0
11
-7.757848
21
-6.801002
31
0.0
0
LINE
8
0
6
CONTINUOUS
10
-6.497180
20
-7.532062
30
0.0
11
-6.372594
21
-7.604309
31
0.0
0
LINE
8
0
6
CONTINUOUS
10
-7.208196
20
-7.083462
30
0.0
11
-7.147288
21
-7.118786
31
0.0
0
LINE
8
0
6
CONTINUOUS
10
-6.618022
20
-7.425701
30
0.0
11
-6.472169
21
-7.510288
31
0.0
0
LINE
8
0
6
CONTINUOUS
10
-6.005295
20
-7.781017
30
0.0
11
-5.841292
21
-7.876106
31
0.0
0
LINE
8
0
6
CONTINUOUS
10
-7.733692
20
-6.778705
30
0.0
11
-7.630622
21
-6.838470
31
0.0
0
LINE
8
0
6
CONTINUOUS
10
-6.472169
20
-7.510288
30
0.0
11
-6.345590
21
-7.583694
31
0.0
0
LINE
8
0
6
CONTINUOUS
10
-5.703168
20
-7.956192
30
0.0
11
-5.695846
21
-7.943821
31
0.0
0
LINE
8
0
6
CONTINUOUS
10
-5.738260
20
-7.935844
30
0.0
11
-5.703168
21
-7.956192
31
0.0
0
LINE
8
0
6
CONTINUOUS
10
-7.761177
20
-6.746212
30
0.0
11
-7.768705
21
-6.758411
31
0.0
0
LINE
8
0
6
CONTINUOUS
10
-7.768705
20
-6.758411
30
0.0
11
-7.733692
21
-6.778705
31
0.0
0
LINE
8
0
6
CONTINUOUS
10
-6.769415
20
-7.337909
30
0.0
11
-6.618022
21
-7.425701
31
0.0
0
LINE
8
0
6
CONTINUOUS
10
-6.219268
20
-7.656944
30
0.0
11
-6.005295
21
-7.781017
31
0.0
0
LINE
8
0
6
CONTINUOUS
10
-6.345590
20
-7.583694
30
0.0
11
-6.219268
21
-7.656944
31
0.0
0
LINE
8
0
6
CONTINUOUS
10
-7.466483
20
-6.933655
30
0.0
11
-7.245744
21
-7.061687
31
0.0
0
LINE
8
0
6
CONTINUOUS
10
-7.147288
20
-7.118786
30
0.0
11
-6.769415
21
-7.337909
31
0.0
0
LINE
8
0
6
CONTINUOUS
10
-5.841292
20
-7.876106
30
0.0
11
-5.738260
21
-7.935844
31
0.0
0
LINE
8
0
6
CONTINUOUS
10
-7.461562
20
-6.972816
30
0.0
11
-7.622174
21
-6.879680
31
0.0
0
LINE
8
0
6
CONTINUOUS
10
-6.640920
20
-7.448707
30
0.0
11
-6.789296
21
-7.362663
31
0.0
0
LINE
8
0
6
CONTINUOUS
10
-7.871369
20
-6.977695
30
0.0
11
-9.145062
21
-9.477005
31
0.0
0
LINE
8
0
6
CONTINUOUS
10
-7.380084
20
-10.500511
30
0.0
11
-5.843494
21
-8.153652
31
0.0
0
LINE
8
0
6
CONTINUOUS
10
-7.766123
20
-6.796203
30
0.0
11
-7.770800
21
-6.804268
31
0.0
0
LINE
8
0
6
CONTINUOUS
10
-5.772797
20
-7.952129
30
0.0
11
-5.874090
21
-7.893387
31
0.0
0
LINE
8
0
6
CONTINUOUS
10
-5.742925
20
-7.980228
30
0.0
11
-5.738248
21
-7.972164
31
0.0
0
LINE
8
0
6
CONTINUOUS
10
-7.770800
20
-6.804268
30
0.0
11
-7.871369
21
-6.977695
31
0.0
0
LINE
8
0
6
CONTINUOUS
10
-5.843494
20
-8.153652
30
0.0
11
-5.742925
21
-7.980228
31
0.0
0
LINE
8
0
6
CONTINUOUS
10
-7.847081
20
-10.286396
30
0.0
11
-7.664790
21
-10.392105
31
0.0
0
LINE
8
0
6
CONTINUOUS
10
-8.727270
20
-9.775974
30
0.0
11
-8.514986
21
-9.899078
31
0.0
0
LINE
8
0
6
CONTINUOUS
10
-9.145062
20
-9.477005
30
0.0
11
-9.167363
21
-9.520767
31
0.0
0
LINE
8
0
6
CONTINUOUS
10
-9.167363
20
-9.520767
30
0.0
11
-9.137372
21
-9.538158
31
0.0
0
LINE
8
0
6
CONTINUOUS
10
-9.137372
20
-9.538158
30
0.0
11
-9.049441
21
-9.589149
31
0.0
0
LINE
8
0
6
CONTINUOUS
10
-7.664790
20
-10.392105
30
0.0
11
-7.524911
21
-10.473221
31
0.0
0
LINE
8
0
6
CONTINUOUS
10
-8.514986
20
-9.899078
30
0.0
11
-8.287176
21
-10.031185
31
0.0
0
LINE
8
0
6
CONTINUOUS
10
-8.287176
20
-10.031185
30
0.0
11
-8.059367
21
-10.163292
31
0.0
0
LINE
8
0
6
CONTINUOUS
10
-9.049441
20
-9.589149
30
0.0
11
-8.909562
21
-9.670265
31
0.0
0
LINE
8
0
6
CONTINUOUS
10
-7.524911
20
-10.473221
30
0.0
11
-7.436980
21
-10.524212
31
0.0
0
LINE
8
0
6
CONTINUOUS
10
-7.406988
20
-10.541603
30
0.0
11
-7.380084
21
-10.500511
31
0.0
0
LINE
8
0
6
CONTINUOUS
10
-7.436980
20
-10.524212
30
0.0
11
-7.406988
21
-10.541603
31
0.0
0
LINE
8
0
6
CONTINUOUS
10
-8.059367
20
-10.163292
30
0.0
11
-7.847081
21
-10.286396
31
0.0
0
LINE
8
0
6
CONTINUOUS
10
-8.909562
20
-9.670265
30
0.0
11
-8.727270
21
-9.775974
31
0.0
0
LINE
8
0
6
CONTINUOUS
10
-7.766123
20
-6.796203
30
0.0
11
-7.731573
21
-6.816238
31
0.0
0
LINE
8
0
6
CONTINUOUS
10
-6.035225
20
-7.799949
30
0.0
11
-5.874090
21
-7.893387
31
0.0
0
LINE
8
0
6
CONTINUOUS
10
-5.772797
20
-7.952129
30
0.0
11
-5.738248
21
-7.972164
31
0.0
0
LINE
8
0
6
CONTINUOUS
10
-0.622157
20
0.867039
30
0.0
11
-0.662284
21
1.011109
31
0.0
0
LINE
8
0
6
CONTINUOUS
10
-0.594885
20
0.769131
30
0.0
11
-0.622157
21
0.867039
31
0.0
0
LINE
8
0
6
CONTINUOUS
10
-0.700752
20
0.539498
30
0.0
11
-0.574177
21
0.748017
31
0.0
0
LINE
8
0
6
CONTINUOUS
10
-0.574177
20
0.748017
30
0.0
11
-0.594885
21
0.769131
31
0.0
0
LINE
8
0
6
CONTINUOUS
10
-0.662284
20
1.011109
30
0.0
11
-0.123284
21
1.939862
31
0.0
0
LINE
8
0
6
CONTINUOUS
10
-0.123284
20
1.939862
30
0.0
11
0.436676
21
2.661804
31
0.0
0
LINE
8
0
6
CONTINUOUS
10
0.843714
20
3.128815
30
0.0
11
0.868458
21
3.118683
31
0.0
0
LINE
8
0
6
CONTINUOUS
10
1.891507
20
4.003212
30
0.0
11
2.313640
21
4.295754
31
0.0
0
LINE
8
0
6
CONTINUOUS
10
2.275057
20
4.296234
30
0.0
11
1.857803
21
4.004364
31
0.0
0
LINE
8
0
6
CONTINUOUS
10
7.915035
20
8.219300
30
0.0
11
7.276102
21
7.780350
31
0.0
0
LINE
8
0
6
CONTINUOUS
10
7.276100
20
7.761597
30
0.0
11
7.879720
21
8.176750
31
0.0
0
LINE
8
0
6
CONTINUOUS
10
9.027056
20
9.009148
30
0.0
11
8.609241
21
8.721062
31
0.0
0
LINE
8
0
6
CONTINUOUS
10
8.569095
20
8.669533
30
0.0
11
8.985302
21
8.953873
31
0.0
0
LINE
8
0
6
CONTINUOUS
10
8.609241
20
8.721062
30
0.0
11
7.915035
21
8.219300
31
0.0
0
LINE
8
0
6
CONTINUOUS
10
7.879720
20
8.176750
30
0.0
11
8.569095
21
8.669533
31
0.0
0
LINE
8
0
6
CONTINUOUS
10
9.167363
20
9.104576
30
0.0
11
9.027056
21
9.009148
31
0.0
0
LINE
8
0
6
CONTINUOUS
10
9.124264
20
9.047135
30
0.0
11
9.167363
21
9.104576
31
0.0
0
LINE
8
0
6
CONTINUOUS
10
8.985302
20
8.953873
30
0.0
11
9.124264
21
9.047135
31
0.0
0
LINE
8
0
6
CONTINUOUS
10
2.313640
20
4.295754
30
0.0
11
3.277797
21
4.972626
31
0.0
0
LINE
8
0
6
CONTINUOUS
10
3.240881
20
4.977555
30
0.0
11
2.275057
21
4.296234
31
0.0
0
LINE
8
0
6
CONTINUOUS
10
6.588115
20
7.286186
30
0.0
11
7.276100
21
7.761597
31
0.0
0
LINE
8
0
6
CONTINUOUS
10
7.276102
20
7.780350
30
0.0
11
6.546951
21
7.276520
31
0.0
0
LINE
8
0
6
CONTINUOUS
10
6.546951
20
7.276520
30
0.0
11
5.468668
21
6.510079
31
0.0
0
LINE
8
0
6
CONTINUOUS
10
5.506914
20
6.510559
30
0.0
11
6.588115
21
7.286186
31
0.0
0
LINE
8
0
6
CONTINUOUS
10
0.740828
20
2.946243
30
0.0
11
0.879748
21
3.118584
31
0.0
0
LINE
8
0
6
CONTINUOUS
10
0.436676
20
2.661804
30
0.0
11
0.740828
21
2.946243
31
0.0
0
LINE
8
0
6
CONTINUOUS
10
1.212049
20
3.437195
30
0.0
11
0.868458
21
3.118683
31
0.0
0
LINE
8
0
6
CONTINUOUS
10
0.879748
20
3.118584
30
0.0
11
1.191229
21
3.417232
31
0.0
0
LINE
8
0
6
CONTINUOUS
10
0.868458
20
3.118683
30
0.0
11
0.879748
21
3.118584
31
0.0
0
LINE
8
0
6
CONTINUOUS
10
-0.662284
20
1.011109
30
0.0
11
-0.622158
21
0.867039
31
0.0
0
LINE
8
0
6
CONTINUOUS
10
-0.123284
20
1.939862
30
0.0
11
-0.662284
21
1.011109
31
0.0
0
LINE
8
0
6
CONTINUOUS
10
0.436675
20
2.661804
30
0.0
11
-0.123284
21
1.939862
31
0.0
0
LINE
8
0
6
CONTINUOUS
10
-0.622158
20
0.867039
30
0.0
11
-0.594886
21
0.769131
31
0.0
0
LINE
8
0
6
CONTINUOUS
10
-0.594886
20
0.769131
30
0.0
11
-0.574178
21
0.748017
31
0.0
0
LINE
8
0
6
CONTINUOUS
10
-0.574178
20
0.748017
30
0.0
11
0.011203
21
1.712376
31
0.0
0
LINE
8
0
6
CONTINUOUS
10
0.011203
20
1.712376
30
0.0
11
0.488362
21
2.342064
31
0.0
0
LINE
8
0
6
CONTINUOUS
10
0.488362
20
2.342064
30
0.0
11
1.337078
21
3.091210
31
0.0
0
LINE
8
0
6
CONTINUOUS
10
7.276934
20
7.007862
30
0.0
11
7.308951
21
7.040096
31
0.0
0
LINE
8
0
6
CONTINUOUS
10
7.947433
20
7.682891
30
0.0
11
7.968219
21
7.703817
31
0.0
0
LINE
8
0
6
CONTINUOUS
10
8.189267
20
7.926359
30
0.0
11
8.400777
21
8.139298
31
0.0
0
LINE
8
0
6
CONTINUOUS
10
6.581160
20
6.392135
30
0.0
11
6.660262
21
6.460495
31
0.0
0
LINE
8
0
6
CONTINUOUS
10
6.882293
20
6.652374
30
0.0
11
7.061197
21
6.806982
31
0.0
0
LINE
8
0
6
CONTINUOUS
10
1.337078
20
3.091210
30
0.0
11
1.393386
21
3.128120
31
0.0
0
LINE
8
0
6
CONTINUOUS
10
1.554313
20
3.732941
30
0.0
11
1.212049
21
3.437195
31
0.0
0
LINE
8
0
6
CONTINUOUS
10
1.191229
20
3.417232
30
0.0
11
0.879747
21
3.118584
31
0.0
0
LINE
8
0
6
CONTINUOUS
10
6.588114
20
7.286186
30
0.0
11
5.506913
21
6.510559
31
0.0
0
LINE
8
0
6
CONTINUOUS
10
7.879719
20
8.176750
30
0.0
11
7.276099
21
7.761597
31
0.0
0
LINE
8
0
6
CONTINUOUS
10
7.276099
20
7.761597
30
0.0
11
6.588114
21
7.286186
31
0.0
0
LINE
8
0
6
CONTINUOUS
10
8.569094
20
8.669533
30
0.0
11
7.879719
21
8.176750
31
0.0
0
LINE
8
0
6
CONTINUOUS
10
8.985301
20
8.953873
30
0.0
11
8.569094
21
8.669533
31
0.0
0
LINE
8
0
6
CONTINUOUS
10
9.124264
20
9.047135
30
0.0
11
8.985301
21
8.953873
31
0.0
0
LINE
8
0
6
CONTINUOUS
10
8.754542
20
8.583205
30
0.0
11
9.124264
21
9.047135
31
0.0
0
LINE
8
0
6
CONTINUOUS
10
5.506913
20
6.510559
30
0.0
11
4.380555
21
5.734352
31
0.0
0
LINE
8
0
6
CONTINUOUS
10
2.876543
20
4.690932
30
0.0
11
2.313639
21
4.295754
31
0.0
0
LINE
8
0
6
CONTINUOUS
10
3.492466
20
4.248088
30
0.0
11
3.781503
21
4.414928
31
0.0
0
LINE
8
0
6
CONTINUOUS
10
4.063145
20
4.577500
30
0.0
11
4.438752
21
4.794311
31
0.0
0
LINE
8
0
6
CONTINUOUS
10
2.162993
20
4.191355
30
0.0
11
1.891507
21
4.003212
31
0.0
0
LINE
8
0
6
CONTINUOUS
10
3.166579
20
4.062504
30
0.0
11
3.209773
21
4.087013
31
0.0
0
LINE
8
0
6
CONTINUOUS
10
1.670935
20
3.296553
30
0.0
11
1.881734
21
3.397255
31
0.0
0
LINE
8
0
6
CONTINUOUS
10
1.881734
20
3.397255
30
0.0
11
2.178705
21
3.537494
31
0.0
0
LINE
8
0
6
CONTINUOUS
10
4.250729
20
5.320762
30
0.0
11
4.337769
21
5.381622
31
0.0
0
LINE
8
0
6
CONTINUOUS
10
4.184403
20
5.415615
30
0.0
11
4.250729
21
5.320762
31
0.0
0
LINE
8
0
6
CONTINUOUS
10
4.337769
20
5.381622
30
0.0
11
4.470520
21
5.474449
31
0.0
0
LINE
8
0
6
CONTINUOUS
10
4.257016
20
5.497109
30
0.0
11
4.337769
21
5.381622
31
0.0
0
LINE
8
0
6
CONTINUOUS
10
6.945889
20
6.561424
30
0.0
11
6.879316
21
6.656632
31
0.0
0
LINE
8
0
6
CONTINUOUS
10
6.832104
20
6.481857
30
0.0
11
6.945889
21
6.561424
31
0.0
0
LINE
8
0
6
CONTINUOUS
10
6.706658
20
6.394142
30
0.0
11
6.712490
21
6.398223
31
0.0
0
LINE
8
0
6
CONTINUOUS
10
6.660262
20
6.460495
30
0.0
11
6.706658
21
6.394142
31
0.0
0
LINE
8
0
6
CONTINUOUS
10
6.832104
20
6.481857
30
0.0
11
6.771476
21
6.568563
31
0.0
0
LINE
8
0
6
CONTINUOUS
10
6.712490
20
6.398223
30
0.0
11
6.832104
21
6.481857
31
0.0
0
LINE
8
0
6
CONTINUOUS
10
6.662386
20
6.469877
30
0.0
11
6.712490
21
6.398223
31
0.0
0
LINE
8
0
6
CONTINUOUS
10
4.764164
20
4.894287
30
0.0
11
4.709200
21
4.972892
31
0.0
0
LINE
8
0
6
CONTINUOUS
10
4.677124
20
4.833427
30
0.0
11
4.764164
21
4.894287
31
0.0
0
LINE
8
0
6
CONTINUOUS
10
4.677124
20
4.833427
30
0.0
11
4.622221
21
4.911944
31
0.0
0
LINE
8
0
6
CONTINUOUS
10
4.544373
20
4.740600
30
0.0
11
4.677124
21
4.833427
31
0.0
0
LINE
8
0
6
CONTINUOUS
10
4.093640
20
4.533889
30
0.0
11
4.063145
21
4.577500
31
0.0
0
LINE
8
0
6
CONTINUOUS
10
4.006600
20
4.473030
30
0.0
11
4.093640
21
4.533889
31
0.0
0
LINE
8
0
6
CONTINUOUS
10
4.006600
20
4.473030
30
0.0
11
3.970816
21
4.524205
31
0.0
0
LINE
8
0
6
CONTINUOUS
10
3.873848
20
4.380203
30
0.0
11
4.006600
21
4.473030
31
0.0
0
LINE
8
0
6
CONTINUOUS
10
3.873848
20
4.380203
30
0.0
11
3.829994
21
4.442919
31
0.0
0
LINE
8
0
6
CONTINUOUS
10
3.828133
20
4.348243
30
0.0
11
3.873848
21
4.380203
31
0.0
0
LINE
8
0
6
CONTINUOUS
10
3.764930
20
4.438629
30
0.0
11
3.828133
21
4.348243
31
0.0
0
LINE
8
0
6
CONTINUOUS
10
3.212296
20
3.997124
30
0.0
11
3.166579
21
4.062504
31
0.0
0
LINE
8
0
6
CONTINUOUS
10
3.125254
20
3.936265
30
0.0
11
3.212296
21
3.997124
31
0.0
0
LINE
8
0
6
CONTINUOUS
10
3.125254
20
3.936265
30
0.0
11
3.073794
21
4.009859
31
0.0
0
LINE
8
0
6
CONTINUOUS
10
2.992502
20
3.843445
30
0.0
11
3.125254
21
3.936265
31
0.0
0
LINE
8
0
6
CONTINUOUS
10
2.992502
20
3.843445
30
0.0
11
2.932283
21
3.929565
31
0.0
0
LINE
8
0
6
CONTINUOUS
10
2.946789
20
3.811471
30
0.0
11
2.992502
21
3.843445
31
0.0
0
LINE
8
0
6
CONTINUOUS
10
2.882919
20
3.902813
30
0.0
11
2.946789
21
3.811471
31
0.0
0
LINE
8
0
6
CONTINUOUS
10
2.493971
20
3.651993
30
0.0
11
2.471007
21
3.684834
31
0.0
0
LINE
8
0
6
CONTINUOUS
10
2.406929
20
3.591126
30
0.0
11
2.493971
21
3.651993
31
0.0
0
LINE
8
0
6
CONTINUOUS
10
2.406929
20
3.591126
30
0.0
11
2.375750
21
3.635717
31
0.0
0
LINE
8
0
6
CONTINUOUS
10
2.274178
20
3.498299
30
0.0
11
2.406929
21
3.591126
31
0.0
0
LINE
8
0
6
CONTINUOUS
10
2.274178
20
3.498299
30
0.0
11
2.229875
21
3.561658
31
0.0
0
LINE
8
0
6
CONTINUOUS
10
2.228464
20
3.466340
30
0.0
11
2.274178
21
3.498299
31
0.0
0
LINE
8
0
6
CONTINUOUS
10
2.158797
20
3.565970
30
0.0
11
2.228464
21
3.466340
31
0.0
0
LINE
8
0
6
CONTINUOUS
10
5.129666
20
5.195350
30
0.0
11
5.095795
21
5.243789
31
0.0
0
LINE
8
0
6
CONTINUOUS
10
5.042626
20
5.134491
30
0.0
11
5.129666
21
5.195350
31
0.0
0
LINE
8
0
6
CONTINUOUS
10
5.042626
20
5.134491
30
0.0
11
5.008817
21
5.182841
31
0.0
0
LINE
8
0
6
CONTINUOUS
10
4.909870
20
5.041656
30
0.0
11
5.042626
21
5.134491
31
0.0
0
LINE
8
0
6
CONTINUOUS
10
3.035071
20
4.464218
30
0.0
11
3.122111
21
4.525077
31
0.0
0
LINE
8
0
6
CONTINUOUS
10
2.962049
20
4.568648
30
0.0
11
3.035071
21
4.464218
31
0.0
0
LINE
8
0
6
CONTINUOUS
10
3.122111
20
4.525077
30
0.0
11
3.254864
21
4.617912
31
0.0
0
LINE
8
0
6
CONTINUOUS
10
3.039231
20
4.643609
30
0.0
11
3.122111
21
4.525077
31
0.0
0
LINE
8
0
6
CONTINUOUS
10
3.300577
20
4.649879
30
0.0
11
3.261390
21
4.705920
31
0.0
0
LINE
8
0
6
CONTINUOUS
10
3.254864
20
4.617912
30
0.0
11
3.300577
21
4.649879
31
0.0
0
LINE
8
0
6
CONTINUOUS
10
3.188901
20
4.712245
30
0.0
11
3.254864
21
4.617912
31
0.0
0
LINE
8
0
6
CONTINUOUS
10
2.180065
20
3.786919
30
0.0
11
2.312817
21
3.879754
31
0.0
0
LINE
8
0
6
CONTINUOUS
10
2.358530
20
3.911713
30
0.0
11
2.324412
21
3.960505
31
0.0
0
LINE
8
0
6
CONTINUOUS
10
2.312817
20
3.879754
30
0.0
11
2.358530
21
3.911713
31
0.0
0
LINE
8
0
6
CONTINUOUS
10
2.250365
20
3.969068
30
0.0
11
2.312817
21
3.879754
31
0.0
0
LINE
8
0
6
CONTINUOUS
10
2.684818
20
3.842843
30
0.0
11
2.771856
21
3.903702
31
0.0
0
LINE
8
0
6
CONTINUOUS
10
2.613025
20
3.945514
30
0.0
11
2.684818
21
3.842843
31
0.0
0
LINE
8
0
6
CONTINUOUS
10
2.771856
20
3.903702
30
0.0
11
2.904610
21
3.996529
31
0.0
0
LINE
8
0
6
CONTINUOUS
10
2.694662
20
4.014100
30
0.0
11
2.771856
21
3.903702
31
0.0
0
LINE
8
0
6
CONTINUOUS
10
4.023426
20
4.635711
30
0.0
11
4.110466
21
4.696571
31
0.0
0
LINE
8
0
6
CONTINUOUS
10
3.957781
20
4.729591
30
0.0
11
4.023426
21
4.635711
31
0.0
0
LINE
8
0
6
CONTINUOUS
10
4.110466
20
4.696571
30
0.0
11
4.243218
21
4.789398
31
0.0
0
LINE
8
0
6
CONTINUOUS
10
4.040104
20
4.797195
30
0.0
11
4.110466
21
4.696571
31
0.0
0
LINE
8
0
6
CONTINUOUS
10
4.288929
20
4.821357
30
0.0
11
4.243304
21
4.886606
31
0.0
0
LINE
8
0
6
CONTINUOUS
10
4.243218
20
4.789398
30
0.0
11
4.288929
21
4.821357
31
0.0
0
LINE
8
0
6
CONTINUOUS
10
4.183893
20
4.874239
30
0.0
11
4.243218
21
4.789398
31
0.0
0
LINE
8
0
6
CONTINUOUS
10
3.572979
20
4.535804
30
0.0
11
3.660019
21
4.596672
31
0.0
0
LINE
8
0
6
CONTINUOUS
10
3.505330
20
4.632551
30
0.0
11
3.572979
21
4.535804
31
0.0
0
LINE
8
0
6
CONTINUOUS
10
3.660019
20
4.596672
30
0.0
11
3.792771
21
4.689491
31
0.0
0
LINE
8
0
6
CONTINUOUS
10
3.584926
20
4.704062
30
0.0
11
3.660019
21
4.596672
31
0.0
0
LINE
8
0
6
CONTINUOUS
10
3.496544
20
4.242257
30
0.0
11
3.453018
21
4.304504
31
0.0
0
LINE
8
0
6
CONTINUOUS
10
3.409502
20
4.181397
30
0.0
11
3.496544
21
4.242257
31
0.0
0
LINE
8
0
6
CONTINUOUS
10
3.409502
20
4.181397
30
0.0
11
3.366981
21
4.242207
31
0.0
0
LINE
8
0
6
CONTINUOUS
10
3.276751
20
4.088570
30
0.0
11
3.409502
21
4.181397
31
0.0
0
LINE
8
0
6
CONTINUOUS
10
3.276751
20
4.088570
30
0.0
11
3.235760
21
4.147192
31
0.0
0
LINE
8
0
6
CONTINUOUS
10
3.231037
20
4.056603
30
0.0
11
3.276751
21
4.088570
31
0.0
0
LINE
8
0
6
CONTINUOUS
10
3.168623
20
4.145863
30
0.0
11
3.231037
21
4.056603
31
0.0
0
LINE
8
0
6
CONTINUOUS
10
1.714310
20
3.234521
30
0.0
11
1.670935
21
3.296553
31
0.0
0
LINE
8
0
6
CONTINUOUS
10
1.627271
20
3.173653
30
0.0
11
1.714310
21
3.234521
31
0.0
0
LINE
8
0
6
CONTINUOUS
10
1.627271
20
3.173653
30
0.0
11
1.575594
21
3.247557
31
0.0
0
LINE
8
0
6
CONTINUOUS
10
1.494517
20
3.080834
30
0.0
11
1.627271
21
3.173653
31
0.0
0
LINE
8
0
6
CONTINUOUS
10
1.494517
20
3.080834
30
0.0
11
1.440059
21
3.158714
31
0.0
0
LINE
8
0
6
CONTINUOUS
10
1.448803
20
3.048867
30
0.0
11
1.494517
21
3.080834
31
0.0
0
LINE
8
0
6
CONTINUOUS
10
1.392584
20
3.129268
30
0.0
11
1.448803
21
3.048867
31
0.0
0
LINE
8
0
6
CONTINUOUS
10
1.690264
20
3.349907
30
0.0
11
1.777304
21
3.410767
31
0.0
0
LINE
8
0
6
CONTINUOUS
10
1.557512
20
3.257073
30
0.0
11
1.690264
21
3.349907
31
0.0
0
LINE
8
0
6
CONTINUOUS
10
1.511798
20
3.225106
30
0.0
11
1.557512
21
3.257073
31
0.0
0
LINE
8
0
6
CONTINUOUS
10
1.443154
20
3.323276
30
0.0
11
1.511798
21
3.225106
31
0.0
0
LINE
8
0
6
CONTINUOUS
10
4.729672
20
5.368141
30
0.0
11
4.862423
21
5.460975
31
0.0
0
LINE
8
0
6
CONTINUOUS
10
4.683956
20
5.336181
30
0.0
11
4.729672
21
5.368141
31
0.0
0
LINE
8
0
6
CONTINUOUS
10
4.628386
20
5.415652
30
0.0
11
4.683956
21
5.336181
31
0.0
0
LINE
8
0
6
CONTINUOUS
10
5.388683
20
5.608726
30
0.0
11
5.343485
21
5.673366
31
0.0
0
LINE
8
0
6
CONTINUOUS
10
5.301644
20
5.547859
30
0.0
11
5.388683
21
5.608726
31
0.0
0
LINE
8
0
6
CONTINUOUS
10
5.301644
20
5.547859
30
0.0
11
5.257447
21
5.611067
31
0.0
0
LINE
8
0
6
CONTINUOUS
10
5.168892
20
5.455040
30
0.0
11
5.301644
21
5.547859
31
0.0
0
LINE
8
0
6
CONTINUOUS
10
5.168892
20
5.455040
30
0.0
11
5.126229
21
5.516053
31
0.0
0
LINE
8
0
6
CONTINUOUS
10
5.123177
20
5.423072
30
0.0
11
5.168892
21
5.455040
31
0.0
0
LINE
8
0
6
CONTINUOUS
10
5.067667
20
5.502460
30
0.0
11
5.123177
21
5.423072
31
0.0
0
LINE
8
0
6
CONTINUOUS
10
4.734482
20
4.983329
30
0.0
11
4.731066
21
4.988214
31
0.0
0
LINE
8
0
6
CONTINUOUS
10
4.647442
20
4.922470
30
0.0
11
4.734482
21
4.983329
31
0.0
0
LINE
8
0
6
CONTINUOUS
10
4.647442
20
4.922470
30
0.0
11
4.532829
21
5.086380
31
0.0
0
LINE
8
0
6
CONTINUOUS
10
4.514691
20
4.829643
30
0.0
11
4.647442
21
4.922470
31
0.0
0
LINE
8
0
6
CONTINUOUS
10
4.514691
20
4.829643
30
0.0
11
4.401607
21
4.991364
31
0.0
0
LINE
8
0
6
CONTINUOUS
10
4.468975
20
4.797676
30
0.0
11
4.514691
21
4.829643
31
0.0
0
LINE
8
0
6
CONTINUOUS
10
4.414402
20
4.875721
30
0.0
11
4.468975
21
4.797676
31
0.0
0
LINE
8
0
6
CONTINUOUS
10
8.259873
20
7.825386
30
0.0
11
8.189267
21
7.926359
31
0.0
0
LINE
8
0
6
CONTINUOUS
10
8.156063
20
7.752800
30
0.0
11
8.259873
21
7.825386
31
0.0
0
LINE
8
0
6
CONTINUOUS
10
8.156063
20
7.752800
30
0.0
11
8.098560
21
7.835039
31
0.0
0
LINE
8
0
6
CONTINUOUS
10
8.029579
20
7.664352
30
0.0
11
8.156063
21
7.752800
31
0.0
0
LINE
8
0
6
CONTINUOUS
10
8.029579
20
7.664352
30
0.0
11
7.988034
21
7.723767
31
0.0
0
LINE
8
0
6
CONTINUOUS
10
8.006901
20
7.648498
30
0.0
11
8.029579
21
7.664352
31
0.0
0
LINE
8
0
6
CONTINUOUS
10
7.968103
20
7.703983
30
0.0
11
8.006901
21
7.648498
31
0.0
0
LINE
8
0
6
CONTINUOUS
10
7.599804
20
7.162819
30
0.0
11
7.530003
21
7.262641
31
0.0
0
LINE
8
0
6
CONTINUOUS
10
7.495999
20
7.090232
30
0.0
11
7.599804
21
7.162819
31
0.0
0
LINE
8
0
6
CONTINUOUS
10
7.495999
20
7.090232
30
0.0
11
7.439297
21
7.171322
31
0.0
0
LINE
8
0
6
CONTINUOUS
10
7.369511
20
7.001785
30
0.0
11
7.495999
21
7.090232
31
0.0
0
LINE
8
0
6
CONTINUOUS
10
7.369511
20
7.001785
30
0.0
11
7.328770
21
7.060049
31
0.0
0
LINE
8
0
6
CONTINUOUS
10
7.346832
20
6.985923
30
0.0
11
7.369511
21
7.001785
31
0.0
0
LINE
8
0
6
CONTINUOUS
10
7.308562
20
7.040653
30
0.0
11
7.346832
21
6.985923
31
0.0
0
LINE
8
0
6
CONTINUOUS
10
7.980850
20
7.635109
30
0.0
11
7.947436
21
7.682894
31
0.0
0
LINE
8
0
6
CONTINUOUS
10
7.975018
20
7.631027
30
0.0
11
7.980850
21
7.635109
31
0.0
0
LINE
8
0
6
CONTINUOUS
10
7.975018
20
7.631027
30
0.0
11
7.942339
21
7.677762
31
0.0
0
LINE
8
0
6
CONTINUOUS
10
7.855404
20
7.547386
30
0.0
11
7.975018
21
7.631027
31
0.0
0
LINE
8
0
6
CONTINUOUS
10
7.855404
20
7.547386
30
0.0
11
7.837818
21
7.572536
31
0.0
0
LINE
8
0
6
CONTINUOUS
10
7.741619
20
7.467826
30
0.0
11
7.855404
21
7.547386
31
0.0
0
LINE
8
0
6
CONTINUOUS
10
7.694736
20
7.534873
30
0.0
11
7.741619
21
7.467826
31
0.0
0
LINE
8
0
6
CONTINUOUS
10
7.314057
20
6.954773
30
0.0
11
7.246534
21
7.051336
31
0.0
0
LINE
8
0
6
CONTINUOUS
10
7.308224
20
6.950706
30
0.0
11
7.314057
21
6.954773
31
0.0
0
LINE
8
0
6
CONTINUOUS
10
7.308224
20
6.950706
30
0.0
11
7.240775
21
7.047165
31
0.0
0
LINE
8
0
6
CONTINUOUS
10
7.188610
20
6.867057
30
0.0
11
7.308224
21
6.950706
31
0.0
0
LINE
8
0
6
CONTINUOUS
10
7.188610
20
6.867057
30
0.0
11
7.122536
21
6.961552
31
0.0
0
LINE
8
0
6
CONTINUOUS
10
7.074822
20
6.787498
30
0.0
11
7.188610
21
6.867057
31
0.0
0
LINE
8
0
6
CONTINUOUS
10
7.028224
20
6.854138
30
0.0
11
7.074822
21
6.787498
31
0.0
0
LINE
8
0
6
CONTINUOUS
10
7.280960
20
7.147148
30
0.0
11
7.254602
21
7.184843
31
0.0
0
LINE
8
0
6
CONTINUOUS
10
7.246880
20
7.123314
30
0.0
11
7.280960
21
7.147148
31
0.0
0
LINE
8
0
6
CONTINUOUS
10
7.246880
20
7.123314
30
0.0
11
7.220914
21
7.160449
31
0.0
0
LINE
8
0
6
CONTINUOUS
10
7.116818
20
7.032371
30
0.0
11
7.246880
21
7.123314
31
0.0
0
LINE
8
0
6
CONTINUOUS
10
7.116818
20
7.032371
30
0.0
11
7.092353
21
7.067359
31
0.0
0
LINE
8
0
6
CONTINUOUS
10
7.020840
20
6.965255
30
0.0
11
7.116818
21
7.032371
31
0.0
0
LINE
8
0
6
CONTINUOUS
10
6.973406
20
7.033092
30
0.0
11
7.020840
21
6.965255
31
0.0
0
LINE
8
0
6
CONTINUOUS
10
6.617081
20
6.340767
30
0.0
11
6.581161
21
6.392136
31
0.0
0
LINE
8
0
6
CONTINUOUS
10
6.583000
20
6.316940
30
0.0
11
6.617081
21
6.340767
31
0.0
0
LINE
8
0
6
CONTINUOUS
10
6.109982
20
5.864738
30
0.0
11
6.240044
21
5.955673
31
0.0
0
LINE
8
0
6
CONTINUOUS
10
6.109982
20
5.864738
30
0.0
11
6.057589
21
5.939666
31
0.0
0
LINE
8
0
6
CONTINUOUS
10
6.014004
20
5.797622
30
0.0
11
6.109982
21
5.864738
31
0.0
0
LINE
8
0
6
CONTINUOUS
10
5.966688
20
5.865288
30
0.0
11
6.014004
21
5.797622
31
0.0
0
LINE
8
0
6
CONTINUOUS
10
6.211727
20
6.416694
30
0.0
11
6.205687
21
6.425333
31
0.0
0
LINE
8
0
6
CONTINUOUS
10
6.150929
20
6.374176
30
0.0
11
6.211727
21
6.416694
31
0.0
0
LINE
8
0
6
CONTINUOUS
10
6.150929
20
6.374176
30
0.0
11
6.145587
21
6.381815
31
0.0
0
LINE
8
0
6
CONTINUOUS
10
6.016258
20
6.280006
30
0.0
11
6.150929
21
6.374176
31
0.0
0
LINE
8
0
6
CONTINUOUS
10
6.016258
20
6.280006
30
0.0
11
6.012468
21
6.285427
31
0.0
0
LINE
8
0
6
CONTINUOUS
10
5.942387
20
6.228355
30
0.0
11
6.016258
21
6.280006
31
0.0
0
LINE
8
0
6
CONTINUOUS
10
5.889264
20
6.304328
30
0.0
11
5.942387
21
6.228355
31
0.0
0
LINE
8
0
6
CONTINUOUS
10
5.617687
20
5.531433
30
0.0
11
5.691555
21
5.583084
31
0.0
0
LINE
8
0
6
CONTINUOUS
10
5.581054
20
5.583822
30
0.0
11
5.617687
21
5.531433
31
0.0
0
LINE
8
0
6
CONTINUOUS
10
5.578015
20
6.236244
30
0.0
11
5.710770
21
6.329071
31
0.0
0
LINE
8
0
6
CONTINUOUS
10
5.532303
20
6.204277
30
0.0
11
5.578015
21
6.236244
31
0.0
0
LINE
8
0
6
CONTINUOUS
10
5.480501
20
6.278361
30
0.0
11
5.532303
21
6.204277
31
0.0
0
LINE
8
0
6
CONTINUOUS
10
8.631062
20
8.340644
30
0.0
11
8.598429
21
8.387313
31
0.0
0
LINE
8
0
6
CONTINUOUS
10
8.527256
20
8.268051
30
0.0
11
8.631062
21
8.340644
31
0.0
0
LINE
8
0
6
CONTINUOUS
10
8.527256
20
8.268051
30
0.0
11
8.516100
21
8.284006
31
0.0
0
LINE
8
0
6
CONTINUOUS
10
8.400768
20
8.179611
30
0.0
11
8.527256
21
8.268051
31
0.0
0
LINE
8
0
6
CONTINUOUS
10
8.378086
20
8.163749
30
0.0
11
8.400768
21
8.179611
31
0.0
0
LINE
8
0
6
CONTINUOUS
10
8.352829
20
8.199869
30
0.0
11
8.378086
21
8.163749
31
0.0
0
LINE
8
0
6
CONTINUOUS
10
8.836857
20
8.469085
30
0.0
11
8.755883
21
8.584887
31
0.0
0
LINE
8
0
6
CONTINUOUS
10
8.807411
20
8.448494
30
0.0
11
8.836857
21
8.469085
31
0.0
0
LINE
8
0
6
CONTINUOUS
10
8.807411
20
8.448494
30
0.0
11
8.732530
21
8.555584
31
0.0
0
LINE
8
0
6
CONTINUOUS
10
8.678700
20
8.358490
30
0.0
11
8.807411
21
8.448494
31
0.0
0
LINE
8
0
6
CONTINUOUS
10
8.678700
20
8.358490
30
0.0
11
8.630450
21
8.427493
31
0.0
0
LINE
8
0
6
CONTINUOUS
10
8.579426
20
8.289077
30
0.0
11
8.678700
21
8.358490
31
0.0
0
LINE
8
0
6
CONTINUOUS
10
7.987400
20
7.883514
30
0.0
11
8.021481
21
7.907341
31
0.0
0
LINE
8
0
6
CONTINUOUS
10
7.857342
20
7.792572
30
0.0
11
7.987400
21
7.883514
31
0.0
0
LINE
8
0
6
CONTINUOUS
10
7.761360
20
7.725456
30
0.0
11
7.857342
21
7.792572
31
0.0
0
LINE
8
0
6
CONTINUOUS
10
7.721208
20
7.782878
30
0.0
11
7.761360
21
7.725456
31
0.0
0
LINE
8
0
6
CONTINUOUS
10
6.977467
20
7.194786
30
0.0
11
7.038265
21
7.237289
31
0.0
0
LINE
8
0
6
CONTINUOUS
10
6.842796
20
7.100616
30
0.0
11
6.977467
21
7.194786
31
0.0
0
LINE
8
0
6
CONTINUOUS
10
6.768929
20
7.048957
30
0.0
11
6.842796
21
7.100616
31
0.0
0
LINE
8
0
6
CONTINUOUS
10
6.721886
20
7.116235
30
0.0
11
6.768929
21
7.048957
31
0.0
0
LINE
8
0
6
CONTINUOUS
10
8.486942
20
8.229118
30
0.0
11
8.613430
21
8.317566
31
0.0
0
LINE
8
0
6
CONTINUOUS
10
8.486942
20
8.229118
30
0.0
11
8.480126
21
8.238865
31
0.0
0
LINE
8
0
6
CONTINUOUS
10
5.619774
20
5.528442
30
0.0
11
5.680573
21
5.570953
31
0.0
0
LINE
8
0
6
CONTINUOUS
10
5.680573
20
5.570953
30
0.0
11
5.815243
21
5.665123
31
0.0
0
LINE
8
0
6
CONTINUOUS
10
6.523663
20
6.269981
30
0.0
11
6.619644
21
6.337097
31
0.0
0
LINE
8
0
6
CONTINUOUS
10
6.393604
20
6.179046
30
0.0
11
6.523663
21
6.269981
31
0.0
0
LINE
8
0
6
CONTINUOUS
10
7.202999
20
6.871315
30
0.0
11
7.316784
21
6.950874
31
0.0
0
LINE
8
0
6
CONTINUOUS
10
7.077553
20
6.783592
30
0.0
11
7.083382
21
6.787666
31
0.0
0
LINE
8
0
6
CONTINUOUS
10
7.083382
20
6.787666
30
0.0
11
7.202999
21
6.871315
31
0.0
0
LINE
8
0
6
CONTINUOUS
10
7.872318
20
7.548027
30
0.0
11
7.986099
21
7.627594
31
0.0
0
LINE
8
0
6
CONTINUOUS
10
7.752701
20
7.464386
30
0.0
11
7.872318
21
7.548027
31
0.0
0
LINE
8
0
6
CONTINUOUS
10
1.815893
20
3.355584
30
0.0
11
1.810537
21
3.363243
31
0.0
0
LINE
8
0
6
CONTINUOUS
10
1.770178
20
3.323609
30
0.0
11
1.815893
21
3.355584
31
0.0
0
LINE
8
0
6
CONTINUOUS
10
1.770178
20
3.323609
30
0.0
11
1.759509
21
3.338866
31
0.0
0
LINE
8
0
6
CONTINUOUS
10
1.637427
20
3.230790
30
0.0
11
1.770178
21
3.323609
31
0.0
0
LINE
8
0
6
CONTINUOUS
10
3.454312
20
4.205308
30
0.0
11
3.500027
21
4.237275
31
0.0
0
LINE
8
0
6
CONTINUOUS
10
3.234518
20
4.051629
30
0.0
11
3.321558
21
4.112488
31
0.0
0
LINE
8
0
6
CONTINUOUS
10
3.321558
20
4.112488
30
0.0
11
3.454312
21
4.205308
31
0.0
0
LINE
8
0
6
CONTINUOUS
10
5.086144
20
5.160247
30
0.0
11
5.131859
21
5.192215
31
0.0
0
LINE
8
0
6
CONTINUOUS
10
4.953392
20
5.067421
30
0.0
11
5.086144
21
5.160247
31
0.0
0
LINE
8
0
6
CONTINUOUS
10
2.452393
20
3.614113
30
0.0
11
2.498108
21
3.646073
31
0.0
0
LINE
8
0
6
CONTINUOUS
10
2.232599
20
3.460419
30
0.0
11
2.319639
21
3.521279
31
0.0
0
LINE
8
0
6
CONTINUOUS
10
2.319639
20
3.521279
30
0.0
11
2.452393
21
3.614113
31
0.0
0
LINE
8
0
6
CONTINUOUS
10
4.516232
20
5.506416
30
0.0
11
4.471065
21
5.571010
31
0.0
0
LINE
8
0
6
CONTINUOUS
10
4.470520
20
5.474449
30
0.0
11
4.516232
21
5.506416
31
0.0
0
LINE
8
0
6
CONTINUOUS
10
4.400346
20
5.574806
30
0.0
11
4.470520
21
5.474449
31
0.0
0
LINE
8
0
6
CONTINUOUS
10
6.374951
20
6.116096
30
0.0
11
6.407509
21
6.229019
31
0.0
0
LINE
8
0
6
CONTINUOUS
10
6.365696
20
6.109581
30
0.0
11
6.374951
21
6.116096
31
0.0
0
LINE
8
0
6
CONTINUOUS
10
6.338745
20
6.090622
30
0.0
11
6.365696
21
6.109581
31
0.0
0
LINE
8
0
6
CONTINUOUS
10
6.295304
20
6.060058
30
0.0
11
6.338745
21
6.090622
31
0.0
0
LINE
8
0
6
CONTINUOUS
10
6.321968
20
6.168830
30
0.0
11
6.258896
21
6.124458
31
0.0
0
LINE
8
0
6
CONTINUOUS
10
6.236580
20
6.018745
30
0.0
11
6.295304
21
6.060058
31
0.0
0
LINE
8
0
6
CONTINUOUS
10
6.258896
20
6.124458
30
0.0
11
6.180721
21
6.069458
31
0.0
0
LINE
8
0
6
CONTINUOUS
10
6.163784
20
5.967529
30
0.0
11
6.236580
21
6.018745
31
0.0
0
LINE
8
0
6
CONTINUOUS
10
6.180721
20
6.069458
30
0.0
11
6.088738
21
6.004745
31
0.0
0
LINE
8
0
6
CONTINUOUS
10
6.078125
20
5.907257
30
0.0
11
6.163784
21
5.967529
31
0.0
0
LINE
8
0
6
CONTINUOUS
10
6.088738
20
6.004745
30
0.0
11
5.984242
21
5.931221
31
0.0
0
LINE
8
0
6
CONTINUOUS
10
5.980812
20
5.838791
30
0.0
11
6.078125
21
5.907257
31
0.0
0
LINE
8
0
6
CONTINUOUS
10
5.984242
20
5.931221
30
0.0
11
5.868519
21
5.849807
31
0.0
0
LINE
8
0
6
CONTINUOUS
10
5.873055
20
5.762977
30
0.0
11
5.980812
21
5.838791
31
0.0
0
LINE
8
0
6
CONTINUOUS
10
5.756058
20
5.680664
30
0.0
11
5.873055
21
5.762977
31
0.0
0
LINE
8
0
6
CONTINUOUS
10
5.631031
20
5.592704
30
0.0
11
5.756058
21
5.680664
31
0.0
0
LINE
8
0
6
CONTINUOUS
10
5.499191
20
5.499946
30
0.0
11
5.631031
21
5.592704
31
0.0
0
LINE
8
0
6
CONTINUOUS
10
5.466938
20
5.567268
30
0.0
11
5.319374
21
5.463447
31
0.0
0
LINE
8
0
6
CONTINUOUS
10
5.361736
20
5.403236
30
0.0
11
5.499191
21
5.499946
31
0.0
0
LINE
8
0
6
CONTINUOUS
10
5.319374
20
5.463447
30
0.0
11
5.171810
21
5.359626
31
0.0
0
LINE
8
0
6
CONTINUOUS
10
5.224281
20
5.306533
30
0.0
11
5.361736
21
5.403236
31
0.0
0
LINE
8
0
6
CONTINUOUS
10
5.171810
20
5.359626
30
0.0
11
5.030193
21
5.259994
31
0.0
0
LINE
8
0
6
CONTINUOUS
10
5.092438
20
5.213768
30
0.0
11
5.224281
21
5.306533
31
0.0
0
LINE
8
0
6
CONTINUOUS
10
5.030193
20
5.259994
30
0.0
11
4.895893
21
5.165504
31
0.0
0
LINE
8
0
6
CONTINUOUS
10
4.967415
20
5.125808
30
0.0
11
5.092438
21
5.213768
31
0.0
0
LINE
8
0
6
CONTINUOUS
10
4.895893
20
5.165504
30
0.0
11
4.770230
21
5.077095
31
0.0
0
LINE
8
0
6
CONTINUOUS
10
4.850418
20
5.043495
30
0.0
11
4.967415
21
5.125808
31
0.0
0
LINE
8
0
6
CONTINUOUS
10
4.742661
20
4.967682
30
0.0
11
4.850418
21
5.043495
31
0.0
0
LINE
8
0
6
CONTINUOUS
10
4.645348
20
4.899215
30
0.0
11
4.742661
21
4.967682
31
0.0
0
LINE
8
0
6
CONTINUOUS
10
4.559689
20
4.838951
30
0.0
11
4.645348
21
4.899215
31
0.0
0
LINE
8
0
6
CONTINUOUS
10
4.486893
20
4.787735
30
0.0
11
4.559689
21
4.838951
31
0.0
0
LINE
8
0
6
CONTINUOUS
10
4.428169
20
4.746414
30
0.0
11
4.486893
21
4.787735
31
0.0
0
LINE
8
0
6
CONTINUOUS
10
4.384728
20
4.715850
30
0.0
11
4.428169
21
4.746414
31
0.0
0
LINE
8
0
6
CONTINUOUS
10
4.357777
20
4.696891
30
0.0
11
4.384728
21
4.715850
31
0.0
0
LINE
8
0
6
CONTINUOUS
10
4.265111
20
4.695712
30
0.0
11
4.348522
21
4.690384
31
0.0
0
LINE
8
0
6
CONTINUOUS
10
4.348522
20
4.690384
30
0.0
11
4.357777
21
4.696891
31
0.0
0
LINE
8
0
6
CONTINUOUS
10
4.544373
20
4.740600
30
0.0
11
4.487244
21
4.822302
31
0.0
0
LINE
8
0
6
CONTINUOUS
10
4.498657
20
4.708641
30
0.0
11
4.544373
21
4.740600
31
0.0
0
LINE
8
0
6
CONTINUOUS
10
4.438626
20
4.794492
30
0.0
11
4.498657
21
4.708641
31
0.0
0
LINE
8
0
6
CONTINUOUS
10
4.909870
20
5.041656
30
0.0
11
4.876152
21
5.089879
31
0.0
0
LINE
8
0
6
CONTINUOUS
10
4.864159
20
5.009697
30
0.0
11
4.909870
21
5.041656
31
0.0
0
LINE
8
0
6
CONTINUOUS
10
4.830473
20
5.057872
30
0.0
11
4.864159
21
5.009697
31
0.0
0
LINE
8
0
6
CONTINUOUS
10
2.180065
20
3.786919
30
0.0
11
2.094687
21
3.909018
31
0.0
0
LINE
8
0
6
CONTINUOUS
10
2.093025
20
3.726060
30
0.0
11
2.180065
21
3.786919
31
0.0
0
LINE
8
0
6
CONTINUOUS
10
2.013066
20
3.840409
30
0.0
11
2.093025
21
3.726060
31
0.0
0
LINE
8
0
6
CONTINUOUS
10
2.950323
20
4.028496
30
0.0
11
2.908466
21
4.088356
31
0.0
0
LINE
8
0
6
CONTINUOUS
10
2.904610
20
3.996529
30
0.0
11
2.950323
21
4.028496
31
0.0
0
LINE
8
0
6
CONTINUOUS
10
2.841962
20
4.086124
30
0.0
11
2.904610
21
3.996529
31
0.0
0
LINE
8
0
6
CONTINUOUS
10
3.838486
20
4.721458
30
0.0
11
3.794751
21
4.784003
31
0.0
0
LINE
8
0
6
CONTINUOUS
10
3.792771
20
4.689491
30
0.0
11
3.838486
21
4.721458
31
0.0
0
LINE
8
0
6
CONTINUOUS
10
3.729633
20
4.779786
30
0.0
11
3.792771
21
4.689491
31
0.0
0
LINE
8
0
6
CONTINUOUS
10
4.862423
20
5.460975
30
0.0
11
4.949463
21
5.521835
31
0.0
0
LINE
8
0
6
CONTINUOUS
10
4.792037
20
5.561635
30
0.0
11
4.862423
21
5.460975
31
0.0
0
LINE
8
0
6
CONTINUOUS
10
6.583000
20
6.316940
30
0.0
11
6.549532
21
6.364802
31
0.0
0
LINE
8
0
6
CONTINUOUS
10
6.452942
20
6.225990
30
0.0
11
6.583000
21
6.316940
31
0.0
0
LINE
8
0
6
CONTINUOUS
10
6.452942
20
6.225990
30
0.0
11
6.428822
21
6.260485
31
0.0
0
LINE
8
0
6
CONTINUOUS
10
6.356960
20
6.158874
30
0.0
11
6.452942
21
6.225990
31
0.0
0
LINE
8
0
6
CONTINUOUS
10
6.309833
20
6.226272
30
0.0
11
6.356960
21
6.158874
31
0.0
0
LINE
8
0
6
CONTINUOUS
10
6.240044
20
5.955673
30
0.0
11
6.274124
21
5.979507
31
0.0
0
LINE
8
0
6
CONTINUOUS
10
6.515076
20
6.422599
30
0.0
11
6.469075
21
6.488386
31
0.0
0
LINE
8
0
6
CONTINUOUS
10
6.454277
20
6.380088
30
0.0
11
6.515076
21
6.422599
31
0.0
0
LINE
8
0
6
CONTINUOUS
10
6.454277
20
6.380088
30
0.0
11
6.408978
21
6.444871
31
0.0
0
LINE
8
0
6
CONTINUOUS
10
6.319607
20
6.285926
30
0.0
11
6.454277
21
6.380088
31
0.0
0
LINE
8
0
6
CONTINUOUS
10
6.319607
20
6.285926
30
0.0
11
6.275862
21
6.348485
31
0.0
0
LINE
8
0
6
CONTINUOUS
10
6.245739
20
6.234268
30
0.0
11
6.319607
21
6.285926
31
0.0
0
LINE
8
0
6
CONTINUOUS
10
6.196072
20
6.305299
30
0.0
11
6.245739
21
6.234268
31
0.0
0
LINE
8
0
6
CONTINUOUS
10
5.659725
20
5.652610
30
0.0
11
5.720524
21
5.695121
31
0.0
0
LINE
8
0
6
CONTINUOUS
10
5.659725
20
5.652610
30
0.0
11
5.543793
21
5.818405
31
0.0
0
LINE
8
0
6
CONTINUOUS
10
5.525055
20
5.558441
30
0.0
11
5.659725
21
5.652610
31
0.0
0
LINE
8
0
6
CONTINUOUS
10
5.525055
20
5.558441
30
0.0
11
5.410676
21
5.722018
31
0.0
0
LINE
8
0
6
CONTINUOUS
10
5.451187
20
5.506790
30
0.0
11
5.525055
21
5.558441
31
0.0
0
LINE
8
0
6
CONTINUOUS
10
5.392795
20
5.590297
30
0.0
11
5.451187
21
5.506790
31
0.0
0
LINE
8
0
6
CONTINUOUS
10
5.887024
20
5.719764
30
0.0
11
5.850204
21
5.772421
31
0.0
0
LINE
8
0
6
CONTINUOUS
10
5.826225
20
5.677253
30
0.0
11
5.887024
21
5.719764
31
0.0
0
LINE
8
0
6
CONTINUOUS
10
5.826225
20
5.677253
30
0.0
11
5.789448
21
5.729848
31
0.0
0
LINE
8
0
6
CONTINUOUS
10
5.691555
20
5.583084
30
0.0
11
5.826225
21
5.677253
31
0.0
0
LINE
8
0
6
CONTINUOUS
10
5.654871
20
5.635547
30
0.0
11
5.691555
21
5.583084
31
0.0
0
LINE
8
0
6
CONTINUOUS
10
5.710770
20
6.329071
30
0.0
11
5.797810
21
6.389930
31
0.0
0
LINE
8
0
6
CONTINUOUS
10
5.633438
20
6.439663
30
0.0
11
5.710770
21
6.329071
31
0.0
0
LINE
8
0
6
CONTINUOUS
10
5.815243
20
5.665123
30
0.0
11
5.889111
21
5.716774
31
0.0
0
LINE
8
0
6
CONTINUOUS
10
4.866352
20
5.006561
30
0.0
11
4.953392
21
5.067421
31
0.0
0
LINE
8
0
6
CONTINUOUS
10
4.049786
20
4.499267
30
0.0
11
4.095497
21
4.531234
31
0.0
0
LINE
8
0
6
CONTINUOUS
10
3.829994
20
4.345581
30
0.0
11
3.917031
21
4.406440
31
0.0
0
LINE
8
0
6
CONTINUOUS
10
3.917031
20
4.406440
30
0.0
11
4.049786
21
4.499267
31
0.0
0
LINE
8
0
6
CONTINUOUS
10
7.758778
20
7.422241
30
0.0
11
7.778339
21
7.514455
31
0.0
0
LINE
8
0
6
CONTINUOUS
10
7.735478
20
7.405372
30
0.0
11
7.758778
21
7.422241
31
0.0
0
LINE
8
0
6
CONTINUOUS
10
7.667599
20
7.356224
30
0.0
11
7.735478
21
7.405372
31
0.0
0
LINE
8
0
6
CONTINUOUS
10
7.558193
20
7.277000
30
0.0
11
7.667599
21
7.356224
31
0.0
0
LINE
8
0
6
CONTINUOUS
10
7.410301
20
7.169914
30
0.0
11
7.558193
21
7.277000
31
0.0
0
LINE
8
0
6
CONTINUOUS
10
7.226971
20
7.037170
30
0.0
11
7.410301
21
7.169914
31
0.0
0
LINE
8
0
6
CONTINUOUS
10
7.011242
20
6.880966
30
0.0
11
7.226971
21
7.037170
31
0.0
0
LINE
8
0
6
CONTINUOUS
10
6.766163
20
6.703506
30
0.0
11
7.010061
21
6.880111
31
0.0
0
LINE
8
0
6
CONTINUOUS
10
6.494778
20
6.506996
30
0.0
11
6.766163
21
6.703506
31
0.0
0
LINE
8
0
6
CONTINUOUS
10
6.409814
20
6.573140
30
0.0
11
6.205687
21
6.425333
31
0.0
0
LINE
8
0
6
CONTINUOUS
10
6.200127
20
6.293647
30
0.0
11
6.494778
21
6.506996
31
0.0
0
LINE
8
0
6
CONTINUOUS
10
5.939452
20
6.232558
30
0.0
11
5.848606
21
6.166778
31
0.0
0
LINE
8
0
6
CONTINUOUS
10
5.885262
20
6.065658
30
0.0
11
6.200127
21
6.293647
31
0.0
0
LINE
8
0
6
CONTINUOUS
10
5.848606
20
6.166778
30
0.0
11
5.504357
21
5.917511
31
0.0
0
LINE
8
0
6
CONTINUOUS
10
5.553223
20
5.825233
30
0.0
11
5.885262
21
6.065658
31
0.0
0
LINE
8
0
6
CONTINUOUS
10
5.504357
20
5.917511
30
0.0
11
5.145641
21
5.657775
31
0.0
0
LINE
8
0
6
CONTINUOUS
10
5.207054
20
5.574577
30
0.0
11
5.553223
21
5.825233
31
0.0
0
LINE
8
0
6
CONTINUOUS
10
5.145641
20
5.657775
30
0.0
11
4.786930
21
5.398033
31
0.0
0
LINE
8
0
6
CONTINUOUS
10
4.860886
20
5.323921
30
0.0
11
5.207054
21
5.574577
31
0.0
0
LINE
8
0
6
CONTINUOUS
10
4.786930
20
5.398033
30
0.0
11
4.442681
21
5.148773
31
0.0
0
LINE
8
0
6
CONTINUOUS
10
4.528847
20
5.083496
30
0.0
11
4.860886
21
5.323921
31
0.0
0
LINE
8
0
6
CONTINUOUS
10
4.442681
20
5.148773
30
0.0
11
4.116211
21
4.912376
31
0.0
0
LINE
8
0
6
CONTINUOUS
10
4.213982
20
4.855507
30
0.0
11
4.528847
21
5.083496
31
0.0
0
LINE
8
0
6
CONTINUOUS
10
4.116211
20
4.912376
30
0.0
11
3.810734
21
4.691185
31
0.0
0
LINE
8
0
6
CONTINUOUS
10
3.919331
20
4.642158
30
0.0
11
4.213982
21
4.855507
31
0.0
0
LINE
8
0
6
CONTINUOUS
10
3.810734
20
4.691185
30
0.0
11
3.529419
21
4.487487
31
0.0
0
LINE
8
0
6
CONTINUOUS
10
3.647946
20
4.445648
30
0.0
11
3.919331
21
4.642158
31
0.0
0
LINE
8
0
6
CONTINUOUS
10
3.529419
20
4.487487
30
0.0
11
3.275402
21
4.303558
31
0.0
0
LINE
8
0
6
CONTINUOUS
10
3.402865
20
4.268189
30
0.0
11
3.647946
21
4.445648
31
0.0
0
LINE
8
0
6
CONTINUOUS
10
3.275402
20
4.303558
30
0.0
11
3.051809
21
4.141663
31
0.0
0
LINE
8
0
6
CONTINUOUS
10
3.187138
20
4.111985
30
0.0
11
3.402865
21
4.268189
31
0.0
0
LINE
8
0
6
CONTINUOUS
10
3.051809
20
4.141663
30
0.0
11
2.931904
21
4.054840
31
0.0
0
LINE
8
0
6
CONTINUOUS
10
3.003805
20
3.979241
30
0.0
11
3.187138
21
4.111985
31
0.0
0
LINE
8
0
6
CONTINUOUS
10
2.855913
20
3.872155
30
0.0
11
3.003805
21
3.979241
31
0.0
0
LINE
8
0
6
CONTINUOUS
10
2.746508
20
3.792931
30
0.0
11
2.855913
21
3.872155
31
0.0
0
LINE
8
0
6
CONTINUOUS
10
2.678631
20
3.743783
30
0.0
11
2.746508
21
3.792931
31
0.0
0
LINE
8
0
6
CONTINUOUS
10
2.567252
20
3.735764
30
0.0
11
2.655329
21
3.726914
31
0.0
0
LINE
8
0
6
CONTINUOUS
10
2.655329
20
3.726914
30
0.0
11
2.678631
21
3.743783
31
0.0
0
LINE
8
0
6
CONTINUOUS
10
7.188610
20
6.867057
30
0.0
11
7.074822
21
6.787498
31
0.0
0
LINE
8
0
6
CONTINUOUS
10
7.308224
20
6.950706
30
0.0
11
7.188610
21
6.867057
31
0.0
0
LINE
8
0
6
CONTINUOUS
10
7.314057
20
6.954773
30
0.0
11
7.308224
21
6.950706
31
0.0
0
LINE
8
0
6
CONTINUOUS
10
3.212296
20
3.997124
30
0.0
11
3.125254
21
3.936265
31
0.0
0
LINE
8
0
6
CONTINUOUS
10
2.992502
20
3.843445
30
0.0
11
2.946789
21
3.811471
31
0.0
0
LINE
8
0
6
CONTINUOUS
10
3.125254
20
3.936265
30
0.0
11
2.992502
21
3.843445
31
0.0
0
LINE
8
0
6
CONTINUOUS
10
1.557512
20
3.257073
30
0.0
11
1.511798
21
3.225106
31
0.0
0
LINE
8
0
6
CONTINUOUS
10
1.690264
20
3.349907
30
0.0
11
1.557512
21
3.257073
31
0.0
0
LINE
8
0
6
CONTINUOUS
10
1.777304
20
3.410767
30
0.0
11
1.690264
21
3.349907
31
0.0
0
LINE
8
0
6
CONTINUOUS
10
3.792771
20
4.689491
30
0.0
11
3.660019
21
4.596672
31
0.0
0
LINE
8
0
6
CONTINUOUS
10
3.838486
20
4.721458
30
0.0
11
3.792771
21
4.689491
31
0.0
0
LINE
8
0
6
CONTINUOUS
10
3.660019
20
4.596672
30
0.0
11
3.572979
21
4.535804
31
0.0
0
LINE
8
0
6
CONTINUOUS
10
8.021481
20
7.907341
30
0.0
11
7.987400
21
7.883514
31
0.0
0
LINE
8
0
6
CONTINUOUS
10
7.857342
20
7.792572
30
0.0
11
7.761360
21
7.725456
31
0.0
0
LINE
8
0
6
CONTINUOUS
10
7.987400
20
7.883514
30
0.0
11
7.857342
21
7.792572
31
0.0
0
LINE
8
0
6
CONTINUOUS
10
3.276751
20
4.088570
30
0.0
11
3.231037
21
4.056603
31
0.0
0
LINE
8
0
6
CONTINUOUS
10
3.409502
20
4.181397
30
0.0
11
3.276751
21
4.088570
31
0.0
0
LINE
8
0
6
CONTINUOUS
10
3.496544
20
4.242257
30
0.0
11
3.409502
21
4.181397
31
0.0
0
LINE
8
0
6
CONTINUOUS
10
2.312817
20
3.879754
30
0.0
11
2.180065
21
3.786919
31
0.0
0
LINE
8
0
6
CONTINUOUS
10
2.358530
20
3.911713
30
0.0
11
2.312817
21
3.879754
31
0.0
0
LINE
8
0
6
CONTINUOUS
10
2.180065
20
3.786919
30
0.0
11
2.093025
21
3.726060
31
0.0
0
LINE
8
0
6
CONTINUOUS
10
3.500027
20
4.237275
30
0.0
11
3.454312
21
4.205308
31
0.0
0
LINE
8
0
6
CONTINUOUS
10
3.321558
20
4.112488
30
0.0
11
3.234518
21
4.051629
31
0.0
0
LINE
8
0
6
CONTINUOUS
10
3.454312
20
4.205308
30
0.0
11
3.321558
21
4.112488
31
0.0
0
LINE
8
0
6
CONTINUOUS
10
5.797810
20
6.389930
30
0.0
11
5.710770
21
6.329071
31
0.0
0
LINE
8
0
6
CONTINUOUS
10
5.578015
20
6.236244
30
0.0
11
5.532303
21
6.204277
31
0.0
0
LINE
8
0
6
CONTINUOUS
10
5.710770
20
6.329071
30
0.0
11
5.578015
21
6.236244
31
0.0
0
LINE
8
0
6
CONTINUOUS
10
7.038265
20
7.237289
30
0.0
11
6.977467
21
7.194786
31
0.0
0
LINE
8
0
6
CONTINUOUS
10
6.842796
20
7.100616
30
0.0
11
6.768929
21
7.048957
31
0.0
0
LINE
8
0
6
CONTINUOUS
10
6.977467
20
7.194786
30
0.0
11
6.842796
21
7.100616
31
0.0
0
LINE
8
0
6
CONTINUOUS
10
7.246880
20
7.123314
30
0.0
11
7.116818
21
7.032371
31
0.0
0
LINE
8
0
6
CONTINUOUS
10
7.280960
20
7.147148
30
0.0
11
7.246880
21
7.123314
31
0.0
0
LINE
8
0
6
CONTINUOUS
10
7.116818
20
7.032371
30
0.0
11
7.020840
21
6.965255
31
0.0
0
LINE
8
0
6
CONTINUOUS
10
5.388683
20
5.608726
30
0.0
11
5.301644
21
5.547859
31
0.0
0
LINE
8
0
6
CONTINUOUS
10
5.168892
20
5.455040
30
0.0
11
5.123177
21
5.423072
31
0.0
0
LINE
8
0
6
CONTINUOUS
10
5.301644
20
5.547859
30
0.0
11
5.168892
21
5.455040
31
0.0
0
LINE
8
0
6
CONTINUOUS
10
7.083382
20
6.787666
30
0.0
11
7.077553
21
6.783592
31
0.0
0
LINE
8
0
6
CONTINUOUS
10
7.202999
20
6.871315
30
0.0
11
7.083382
21
6.787666
31
0.0
0
LINE
8
0
6
CONTINUOUS
10
7.316784
20
6.950874
30
0.0
11
7.202999
21
6.871315
31
0.0
0
LINE
8
0
6
CONTINUOUS
10
6.523663
20
6.269981
30
0.0
11
6.393604
21
6.179046
31
0.0
0
LINE
8
0
6
CONTINUOUS
10
6.619644
20
6.337097
30
0.0
11
6.523663
21
6.269981
31
0.0
0
LINE
8
0
6
CONTINUOUS
10
4.514691
20
4.829643
30
0.0
11
4.468975
21
4.797676
31
0.0
0
LINE
8
0
6
CONTINUOUS
10
4.647442
20
4.922470
30
0.0
11
4.514691
21
4.829643
31
0.0
0
LINE
8
0
6
CONTINUOUS
10
4.734482
20
4.983329
30
0.0
11
4.647442
21
4.922470
31
0.0
0
LINE
8
0
6
CONTINUOUS
10
5.659725
20
5.652610
30
0.0
11
5.525055
21
5.558441
31
0.0
0
LINE
8
0
6
CONTINUOUS
10
5.720524
20
5.695121
30
0.0
11
5.659725
21
5.652610
31
0.0
0
LINE
8
0
6
CONTINUOUS
10
5.525055
20
5.558441
30
0.0
11
5.451187
21
5.506790
31
0.0
0
LINE
8
0
6
CONTINUOUS
10
5.826225
20
5.677253
30
0.0
11
5.691555
21
5.583084
31
0.0
0
LINE
8
0
6
CONTINUOUS
10
5.887024
20
5.719764
30
0.0
11
5.826225
21
5.677253
31
0.0
0
LINE
8
0
6
CONTINUOUS
10
5.691555
20
5.583084
30
0.0
11
5.617687
21
5.531433
31
0.0
0
LINE
8
0
6
CONTINUOUS
10
2.569701
20
3.755225
30
0.0
11
2.567252
21
3.735764
31
0.0
0
LINE
8
0
6
CONTINUOUS
10
2.602447
20
3.780933
30
0.0
11
2.569701
21
3.755225
31
0.0
0
LINE
8
0
6
CONTINUOUS
10
2.632431
20
3.806467
30
0.0
11
2.602447
21
3.780933
31
0.0
0
LINE
8
0
6
CONTINUOUS
10
2.664721
20
3.827908
30
0.0
11
2.632431
21
3.806467
31
0.0
0
LINE
8
0
6
CONTINUOUS
10
4.327590
20
4.756934
30
0.0
11
4.283935
21
4.724104
31
0.0
0
LINE
8
0
6
CONTINUOUS
10
4.391518
20
4.800834
30
0.0
11
4.327590
21
4.756934
31
0.0
0
LINE
8
0
6
CONTINUOUS
10
4.473784
20
4.854572
30
0.0
11
4.391518
21
4.800834
31
0.0
0
LINE
8
0
6
CONTINUOUS
10
3.039231
20
4.643609
30
0.0
11
2.962049
21
4.568648
31
0.0
0
LINE
8
0
6
CONTINUOUS
10
4.400346
20
5.574806
30
0.0
11
4.257016
21
5.497109
31
0.0
0
LINE
8
0
6
CONTINUOUS
10
4.257016
20
5.497109
30
0.0
11
4.184403
21
5.415615
31
0.0
0
LINE
8
0
6
CONTINUOUS
10
5.868785
20
5.844702
30
0.0
11
5.846825
21
5.826364
31
0.0
0
LINE
8
0
6
CONTINUOUS
10
6.763195
20
6.789493
30
0.0
11
6.728461
21
6.759419
31
0.0
0
ENDSEC
0
EOF
