999
unknown String-ID: 20550
0
SECTION
2
HEADER
9
$ACADVER
1
AC1009
9
$DWGCODEPAGE
3
unknown String-ID: 20561
0
ENDSEC
0
SECTION
2
TABLES
0
TABLE
2
LAYER
70
1
0
LAYER
2
0
70
0
62
7
6
CONTINUOUS
0
ENDTAB
0
ENDSEC
0
SECTION
2
ENTITIES
0
LINE
8
0
6
CONTINUOUS
10
5.267278
20
-5.384350
30
0.0
11
5.269846
21
-5.371206
31
0.0
0
LINE
8
0
6
CONTINUOUS
10
4.892600
20
-6.480285
30
0.0
11
5.267278
21
-5.384350
31
0.0
0
LINE
8
0
6
CONTINUOUS
10
-0.000006
20
-9.167363
30
0.0
11
1.320736
21
-9.027058
31
0.0
0
LINE
8
0
6
CONTINUOUS
10
1.320736
20
-9.027058
30
0.0
11
2.595690
21
-8.609243
31
0.0
0
LINE
8
0
6
CONTINUOUS
10
2.595690
20
-8.609243
30
0.0
11
3.717507
21
-7.915039
31
0.0
0
LINE
8
0
6
CONTINUOUS
10
4.858748
20
-6.546955
30
0.0
11
4.892600
21
-6.480285
31
0.0
0
LINE
8
0
6
CONTINUOUS
10
4.368655
20
-7.276106
30
0.0
11
4.858748
21
-6.546955
31
0.0
0
LINE
8
0
6
CONTINUOUS
10
3.717507
20
-7.915039
30
0.0
11
4.368655
21
-7.276106
31
0.0
0
LINE
8
0
6
CONTINUOUS
10
3.901217
20
-0.873056
30
0.0
11
3.392222
21
-0.471635
31
0.0
0
LINE
8
0
6
CONTINUOUS
10
1.001088
20
7.466482
30
0.0
11
0.703467
21
7.630621
31
0.0
0
LINE
8
0
6
CONTINUOUS
10
1.273968
20
7.208195
30
0.0
11
1.241573
21
7.245743
31
0.0
0
LINE
8
0
6
CONTINUOUS
10
1.514846
20
4.624038
30
0.0
11
1.353694
21
6.350512
31
0.0
0
LINE
8
0
6
CONTINUOUS
10
1.500437
20
4.684612
30
0.0
11
1.623935
21
3.341577
31
0.0
0
LINE
8
0
6
CONTINUOUS
10
1.640279
20
3.266943
30
0.0
11
1.514846
21
4.624038
31
0.0
0
LINE
8
0
6
CONTINUOUS
10
1.623935
20
3.341577
30
0.0
11
1.723861
21
2.245462
31
0.0
0
LINE
8
0
6
CONTINUOUS
10
1.741465
20
2.157162
30
0.0
11
1.640279
21
3.266943
31
0.0
0
LINE
8
0
6
CONTINUOUS
10
1.831128
20
1.494820
30
0.0
11
1.741465
21
2.157162
31
0.0
0
LINE
8
0
6
CONTINUOUS
10
1.821134
20
1.520467
30
0.0
11
1.723861
21
2.245462
31
0.0
0
LINE
8
0
6
CONTINUOUS
10
2.434594
20
0.388034
30
0.0
11
2.040591
21
0.957281
31
0.0
0
LINE
8
0
6
CONTINUOUS
10
5.290201
20
-4.482197
30
0.0
11
4.909724
21
-5.559737
31
0.0
0
LINE
8
0
6
CONTINUOUS
10
5.378971
20
-4.540886
30
0.0
11
5.387280
21
-3.369787
31
0.0
0
LINE
8
0
6
CONTINUOUS
10
5.339424
20
-5.015123
30
0.0
11
5.375647
21
-4.580754
31
0.0
0
LINE
8
0
6
CONTINUOUS
10
5.387280
20
-3.369787
30
0.0
11
5.023871
21
-2.252422
31
0.0
0
LINE
8
0
6
CONTINUOUS
10
4.309696
20
-1.274180
30
0.0
11
5.021153
21
-2.251631
31
0.0
0
LINE
8
0
6
CONTINUOUS
10
5.023871
20
-2.252422
30
0.0
11
4.312879
21
-1.260262
31
0.0
0
LINE
8
0
6
CONTINUOUS
10
4.312879
20
-1.260262
30
0.0
11
3.901217
21
-0.873056
31
0.0
0
LINE
8
0
6
CONTINUOUS
10
3.901217
20
-0.873056
30
0.0
11
4.309696
21
-1.274180
31
0.0
0
LINE
8
0
6
CONTINUOUS
10
1.306239
20
-8.086626
30
0.0
11
-0.000008
21
-8.205785
31
0.0
0
LINE
8
0
6
CONTINUOUS
10
2.543144
20
-7.701788
30
0.0
11
1.306239
21
-8.086626
31
0.0
0
LINE
8
0
6
CONTINUOUS
10
3.666377
20
-7.027797
30
0.0
11
2.543144
21
-7.701788
31
0.0
0
LINE
8
0
6
CONTINUOUS
10
4.909724
20
-5.559737
30
0.0
11
4.393442
21
-6.318498
31
0.0
0
LINE
8
0
6
CONTINUOUS
10
4.393442
20
-6.318498
30
0.0
11
3.666377
21
-7.027797
31
0.0
0
LINE
8
0
6
CONTINUOUS
10
2.879660
20
-0.038988
30
0.0
11
2.434594
21
0.388034
31
0.0
0
LINE
8
0
6
CONTINUOUS
10
3.392222
20
-0.471635
30
0.0
11
2.879660
21
-0.038988
31
0.0
0
LINE
8
0
6
CONTINUOUS
10
2.040591
20
0.957281
30
0.0
11
1.821134
21
1.520467
31
0.0
0
LINE
8
0
6
CONTINUOUS
10
5.290201
20
-4.482197
30
0.0
11
5.344303
21
-3.344440
31
0.0
0
LINE
8
0
6
CONTINUOUS
10
5.344303
20
-3.344440
30
0.0
11
5.021153
21
-2.251631
31
0.0
0
LINE
8
0
6
CONTINUOUS
10
5.375647
20
-4.580754
30
0.0
11
5.378971
21
-4.540886
31
0.0
0
LINE
8
0
6
CONTINUOUS
10
5.269846
20
-5.371206
30
0.0
11
5.339424
21
-5.015123
31
0.0
0
LINE
8
0
6
CONTINUOUS
10
0.703467
20
7.630621
30
0.0
11
0.359533
21
7.733691
31
0.0
0
LINE
8
0
6
CONTINUOUS
10
0.359533
20
7.733691
30
0.0
11
0.000029
21
7.768705
31
0.0
0
LINE
8
0
6
CONTINUOUS
10
1.241573
20
7.245743
30
0.0
11
1.001088
21
7.466482
31
0.0
0
LINE
8
0
6
CONTINUOUS
10
1.353694
20
6.350512
30
0.0
11
1.280590
21
7.140151
31
0.0
0
LINE
8
0
6
CONTINUOUS
10
-5.267280
20
-5.384344
30
0.0
11
-4.892605
21
-6.480282
31
0.0
0
LINE
8
0
6
CONTINUOUS
10
-5.269846
20
-5.371201
30
0.0
11
-5.267280
21
-5.384344
31
0.0
0
LINE
8
0
6
CONTINUOUS
10
-1.320747
20
-9.027056
30
0.0
11
-0.000006
21
-9.167363
31
0.0
0
LINE
8
0
6
CONTINUOUS
10
-2.595699
20
-8.609241
30
0.0
11
-1.320747
21
-9.027056
31
0.0
0
LINE
8
0
6
CONTINUOUS
10
-3.717514
20
-7.915035
30
0.0
11
-2.595699
21
-8.609241
31
0.0
0
LINE
8
0
6
CONTINUOUS
10
-4.858752
20
-6.546951
30
0.0
11
-4.368661
21
-7.276102
31
0.0
0
LINE
8
0
6
CONTINUOUS
10
-4.892605
20
-6.480282
30
0.0
11
-4.858752
21
-6.546951
31
0.0
0
LINE
8
0
6
CONTINUOUS
10
-4.368661
20
-7.276102
30
0.0
11
-3.717514
21
-7.915035
31
0.0
0
LINE
8
0
6
CONTINUOUS
10
-3.392212
20
-0.471633
30
0.0
11
-3.901209
21
-0.873052
31
0.0
0
LINE
8
0
6
CONTINUOUS
10
-0.703410
20
7.630622
30
0.0
11
-1.001031
21
7.466483
31
0.0
0
LINE
8
0
6
CONTINUOUS
10
-1.241515
20
7.245744
30
0.0
11
-1.273910
21
7.208196
31
0.0
0
LINE
8
0
6
CONTINUOUS
10
-1.353643
20
6.350514
30
0.0
11
-1.514806
21
4.624040
31
0.0
0
LINE
8
0
6
CONTINUOUS
10
-1.514806
20
4.624040
30
0.0
11
-1.640248
21
3.266945
31
0.0
0
LINE
8
0
6
CONTINUOUS
10
-1.623903
20
3.341579
30
0.0
11
-1.500398
21
4.684613
31
0.0
0
LINE
8
0
6
CONTINUOUS
10
-1.640248
20
3.266945
30
0.0
11
-1.741441
21
2.157164
31
0.0
0
LINE
8
0
6
CONTINUOUS
10
-1.723838
20
2.245464
30
0.0
11
-1.623903
21
3.341579
31
0.0
0
LINE
8
0
6
CONTINUOUS
10
-1.741441
20
2.157164
30
0.0
11
-1.831108
21
1.494823
31
0.0
0
LINE
8
0
6
CONTINUOUS
10
-1.723838
20
2.245464
30
0.0
11
-1.821114
21
1.520469
31
0.0
0
LINE
8
0
6
CONTINUOUS
10
-2.040575
20
0.957283
30
0.0
11
-2.434581
21
0.388038
31
0.0
0
LINE
8
0
6
CONTINUOUS
10
-4.909732
20
-5.559734
30
0.0
11
-5.290207
21
-4.482191
31
0.0
0
LINE
8
0
6
CONTINUOUS
10
-5.387280
20
-3.369781
30
0.0
11
-5.378975
21
-4.540882
31
0.0
0
LINE
8
0
6
CONTINUOUS
10
-5.375650
20
-4.580749
30
0.0
11
-5.339427
21
-5.015119
31
0.0
0
LINE
8
0
6
CONTINUOUS
10
-5.023866
20
-2.252416
30
0.0
11
-5.387280
21
-3.369781
31
0.0
0
LINE
8
0
6
CONTINUOUS
10
-4.312872
20
-1.260257
30
0.0
11
-5.023866
21
-2.252416
31
0.0
0
LINE
8
0
6
CONTINUOUS
10
-5.021149
20
-2.251627
30
0.0
11
-4.309689
21
-1.274176
31
0.0
0
LINE
8
0
6
CONTINUOUS
10
-3.901209
20
-0.873052
30
0.0
11
-4.312872
21
-1.260257
31
0.0
0
LINE
8
0
6
CONTINUOUS
10
-4.309689
20
-1.274176
30
0.0
11
-3.901209
21
-0.873052
31
0.0
0
LINE
8
0
6
CONTINUOUS
10
-0.000008
20
-8.205785
30
0.0
11
-1.306253
21
-8.086624
31
0.0
0
LINE
8
0
6
CONTINUOUS
10
-1.306253
20
-8.086624
30
0.0
11
-2.543157
21
-7.701786
31
0.0
0
LINE
8
0
6
CONTINUOUS
10
-2.543157
20
-7.701786
30
0.0
11
-3.666390
21
-7.027795
31
0.0
0
LINE
8
0
6
CONTINUOUS
10
-4.393453
20
-6.318495
30
0.0
11
-4.909732
21
-5.559734
31
0.0
0
LINE
8
0
6
CONTINUOUS
10
-3.666390
20
-7.027795
30
0.0
11
-4.392224
21
-6.319693
31
0.0
0
LINE
8
0
6
CONTINUOUS
10
-2.434581
20
0.388038
30
0.0
11
-2.879648
21
-0.038985
31
0.0
0
LINE
8
0
6
CONTINUOUS
10
-2.879648
20
-0.038985
30
0.0
11
-3.392212
21
-0.471633
31
0.0
0
LINE
8
0
6
CONTINUOUS
10
-1.821114
20
1.520469
30
0.0
11
-2.040575
21
0.957283
31
0.0
0
LINE
8
0
6
CONTINUOUS
10
-5.344304
20
-3.344435
30
0.0
11
-5.290207
21
-4.482191
31
0.0
0
LINE
8
0
6
CONTINUOUS
10
-5.021149
20
-2.251627
30
0.0
11
-5.344304
21
-3.344435
31
0.0
0
LINE
8
0
6
CONTINUOUS
10
-5.378975
20
-4.540882
30
0.0
11
-5.375650
21
-4.580749
31
0.0
0
LINE
8
0
6
CONTINUOUS
10
-5.339427
20
-5.015119
30
0.0
11
-5.269846
21
-5.371201
31
0.0
0
LINE
8
0
6
CONTINUOUS
10
-0.359476
20
7.733692
30
0.0
11
-0.703410
21
7.630622
31
0.0
0
LINE
8
0
6
CONTINUOUS
10
0.000029
20
7.768705
30
0.0
11
-0.359476
21
7.733692
31
0.0
0
LINE
8
0
6
CONTINUOUS
10
-1.001031
20
7.466483
30
0.0
11
-1.241515
21
7.245744
31
0.0
0
LINE
8
0
6
CONTINUOUS
10
-1.280533
20
7.140152
30
0.0
11
-1.353643
21
6.350514
31
0.0
0
LINE
8
0
6
CONTINUOUS
10
-1.013188
20
8.262573
30
0.0
11
-1.110107
21
7.366364
31
0.0
0
LINE
8
0
6
CONTINUOUS
10
1.125521
20
7.352266
30
0.0
11
1.027085
21
8.262573
31
0.0
0
LINE
8
0
6
CONTINUOUS
10
0.888109
20
8.727268
30
0.0
11
0.726413
21
8.909561
31
0.0
0
LINE
8
0
6
CONTINUOUS
10
-0.874212
20
8.727270
30
0.0
11
-0.975858
21
8.514986
31
0.0
0
LINE
8
0
6
CONTINUOUS
10
0.006949
20
9.167363
30
0.0
11
-0.256394
21
9.137372
31
0.0
0
LINE
8
0
6
CONTINUOUS
10
0.726413
20
8.909561
30
0.0
11
0.515687
21
9.049441
31
0.0
0
LINE
8
0
6
CONTINUOUS
10
-0.256394
20
9.137372
30
0.0
11
-0.501790
21
9.049441
31
0.0
0
LINE
8
0
6
CONTINUOUS
10
-1.010527
20
8.287176
30
0.0
11
-1.013188
21
8.262573
31
0.0
0
LINE
8
0
6
CONTINUOUS
10
-0.975858
20
8.514986
30
0.0
11
-1.010527
21
8.287176
31
0.0
0
LINE
8
0
6
CONTINUOUS
10
0.515687
20
9.049441
30
0.0
11
0.270292
21
9.137372
31
0.0
0
LINE
8
0
6
CONTINUOUS
10
1.027085
20
8.262573
30
0.0
11
1.024426
21
8.287175
31
0.0
0
LINE
8
0
6
CONTINUOUS
10
1.024426
20
8.287175
30
0.0
11
0.989756
21
8.514984
31
0.0
0
LINE
8
0
6
CONTINUOUS
10
-0.501790
20
9.049441
30
0.0
11
-0.712516
21
8.909562
31
0.0
0
LINE
8
0
6
CONTINUOUS
10
0.270292
20
9.137372
30
0.0
11
0.006949
21
9.167363
31
0.0
0
LINE
8
0
6
CONTINUOUS
10
0.989756
20
8.514984
30
0.0
11
0.888109
21
8.727268
31
0.0
0
LINE
8
0
6
CONTINUOUS
10
-0.712516
20
8.909562
30
0.0
11
-0.874212
21
8.727270
31
0.0
0
ENDSEC
0
EOF
