999
unknown String-ID: 20550
0
SECTION
2
HEADER
9
$ACADVER
1
AC1009
9
$DWGCODEPAGE
3
unknown String-ID: 20561
0
ENDSEC
0
SECTION
2
TABLES
0
TABLE
2
LAYER
70
1
0
LAYER
2
0
70
0
62
7
6
CONTINUOUS
0
ENDTAB
0
ENDSEC
0
SECTION
2
ENTITIES
0
LINE
8
0
6
CONTINUOUS
10
9.167363
20
9.104576
30
0.0
11
9.119370
21
9.221382
31
0.0
0
LINE
8
0
6
CONTINUOUS
10
-0.510411
20
4.699105
30
0.0
11
-0.733463
21
4.437653
31
0.0
0
LINE
8
0
6
CONTINUOUS
10
6.979782
20
9.709000
30
0.0
11
6.297531
21
9.239121
31
0.0
0
LINE
8
0
6
CONTINUOUS
10
8.205785
20
10.541603
30
0.0
11
8.150882
21
10.522095
31
0.0
0
LINE
8
0
6
CONTINUOUS
10
6.297531
20
9.239121
30
0.0
11
5.569980
21
8.731369
31
0.0
0
LINE
8
0
6
CONTINUOUS
10
-5.695846
20
-7.943821
30
0.0
11
-4.885515
21
-6.574985
31
0.0
0
LINE
8
0
6
CONTINUOUS
10
-6.928079
20
-5.396156
30
0.0
11
-7.761177
21
-6.746212
31
0.0
0
LINE
8
0
6
CONTINUOUS
10
-5.101837
20
-2.412498
30
0.0
11
-6.928079
21
-5.396156
31
0.0
0
LINE
8
0
6
CONTINUOUS
10
-3.097678
20
-3.561916
30
0.0
11
-1.692852
21
-1.198959
31
0.0
0
LINE
8
0
6
CONTINUOUS
10
-1.692852
20
-1.198959
30
0.0
11
-0.700752
21
0.539498
31
0.0
0
LINE
8
0
6
CONTINUOUS
10
-3.661906
20
-0.073559
30
0.0
11
-5.101837
21
-2.412498
31
0.0
0
LINE
8
0
6
CONTINUOUS
10
-3.341579
20
-0.317692
30
0.0
11
-4.684613
21
-2.662014
31
0.0
0
LINE
8
0
6
CONTINUOUS
10
-2.521528
20
1.778507
30
0.0
11
-3.661906
21
-0.073559
31
0.0
0
LINE
8
0
6
CONTINUOUS
10
-2.245464
20
1.593632
30
0.0
11
-3.341579
21
-0.317692
31
0.0
0
LINE
8
0
6
CONTINUOUS
10
-0.963997
20
0.910614
30
0.0
11
-2.124690
21
-0.959808
31
0.0
0
LINE
8
0
6
CONTINUOUS
10
-1.855447
20
2.851738
30
0.0
11
-2.521528
21
1.778507
31
0.0
0
LINE
8
0
6
CONTINUOUS
10
-2.245464
20
1.593632
30
0.0
11
-1.520469
21
2.812958
31
0.0
0
LINE
8
0
6
CONTINUOUS
10
-1.482792
20
3.428688
30
0.0
11
-1.855447
21
2.851738
31
0.0
0
LINE
8
0
6
CONTINUOUS
10
-1.219384
20
3.802872
30
0.0
11
-1.482792
21
3.428688
31
0.0
0
LINE
8
0
6
CONTINUOUS
10
-0.733463
20
4.437653
30
0.0
11
-0.952557
21
4.172867
31
0.0
0
LINE
8
0
6
CONTINUOUS
10
5.559734
20
8.705704
30
0.0
11
4.482191
21
7.943649
31
0.0
0
LINE
8
0
6
CONTINUOUS
10
2.251627
20
6.298683
30
0.0
11
1.274176
21
5.583908
31
0.0
0
LINE
8
0
6
CONTINUOUS
10
1.274176
20
5.583908
30
0.0
11
0.873052
21
5.266754
31
0.0
0
LINE
8
0
6
CONTINUOUS
10
8.205785
20
10.541603
30
0.0
11
8.086624
21
10.457489
31
0.0
0
LINE
8
0
6
CONTINUOUS
10
8.366101
20
10.494927
30
0.0
11
8.205785
21
10.541603
31
0.0
0
LINE
8
0
6
CONTINUOUS
10
8.409508
20
10.423645
30
0.0
11
8.366101
21
10.494927
31
0.0
0
LINE
8
0
6
CONTINUOUS
10
9.110940
20
9.236534
30
0.0
11
8.882414
21
9.647011
31
0.0
0
LINE
8
0
6
CONTINUOUS
10
8.086624
20
10.457489
30
0.0
11
7.701786
21
10.189842
31
0.0
0
LINE
8
0
6
CONTINUOUS
10
7.701786
20
10.189842
30
0.0
11
7.027795
21
9.728394
31
0.0
0
LINE
8
0
6
CONTINUOUS
10
6.318495
20
9.238754
30
0.0
11
5.559734
21
8.705704
31
0.0
0
LINE
8
0
6
CONTINUOUS
10
7.027795
20
9.728394
30
0.0
11
6.318495
21
9.238754
31
0.0
0
LINE
8
0
6
CONTINUOUS
10
0.370690
20
2.696015
30
0.0
11
-0.191606
21
2.039696
31
0.0
0
LINE
8
0
6
CONTINUOUS
10
0.741256
20
3.104904
30
0.0
11
0.370690
21
2.696015
31
0.0
0
LINE
8
0
6
CONTINUOUS
10
0.873052
20
5.266754
30
0.0
11
0.471633
21
4.955376
31
0.0
0
LINE
8
0
6
CONTINUOUS
10
-0.952557
20
4.172867
30
0.0
11
-1.219384
21
3.802872
31
0.0
0
LINE
8
0
6
CONTINUOUS
10
0.038985
20
4.576630
30
0.0
11
-0.388038
21
4.142525
31
0.0
0
LINE
8
0
6
CONTINUOUS
10
0.471633
20
4.955376
30
0.0
11
0.038985
21
4.576630
31
0.0
0
LINE
8
0
6
CONTINUOUS
10
-1.520469
20
2.812958
30
0.0
11
-0.957283
21
3.564331
31
0.0
0
LINE
8
0
6
CONTINUOUS
10
-4.885515
20
-6.574985
30
0.0
11
-3.097678
21
-3.561916
31
0.0
0
LINE
8
0
6
CONTINUOUS
10
-0.963997
20
0.910614
30
0.0
11
-0.191606
21
2.039696
31
0.0
0
LINE
8
0
6
CONTINUOUS
10
-0.332131
20
4.904350
30
0.0
11
-0.510411
21
4.699105
31
0.0
0
LINE
8
0
6
CONTINUOUS
10
0.134370
20
5.397911
30
0.0
11
-0.332131
21
4.904350
31
0.0
0
LINE
8
0
6
CONTINUOUS
10
1.144011
20
6.306267
30
0.0
11
0.635446
21
5.856186
31
0.0
0
LINE
8
0
6
CONTINUOUS
10
0.635446
20
5.856186
30
0.0
11
0.134370
21
5.397911
31
0.0
0
LINE
8
0
6
CONTINUOUS
10
2.621824
20
7.490105
30
0.0
11
1.144011
21
6.306267
31
0.0
0
LINE
8
0
6
CONTINUOUS
10
4.247883
20
8.609375
30
0.0
11
2.621824
21
7.490105
31
0.0
0
LINE
8
0
6
CONTINUOUS
10
5.884310
20
9.539734
30
0.0
11
4.247883
21
8.609375
31
0.0
0
LINE
8
0
6
CONTINUOUS
10
7.389326
20
10.217812
30
0.0
11
5.884310
21
9.539734
31
0.0
0
LINE
8
0
6
CONTINUOUS
10
8.150882
20
10.522095
30
0.0
11
7.389326
21
10.217812
31
0.0
0
LINE
8
0
6
CONTINUOUS
10
1.554314
20
3.732941
30
0.0
11
1.891507
21
4.003212
31
0.0
0
LINE
8
0
6
CONTINUOUS
10
1.857803
20
4.004364
30
0.0
11
1.526923
21
3.736550
31
0.0
0
LINE
8
0
6
CONTINUOUS
10
1.526923
20
3.736550
30
0.0
11
1.184777
21
3.445816
31
0.0
0
LINE
8
0
6
CONTINUOUS
10
1.212049
20
3.437195
30
0.0
11
1.554314
21
3.732941
31
0.0
0
LINE
8
0
6
CONTINUOUS
10
4.380556
20
5.734352
30
0.0
11
5.506914
21
6.510559
31
0.0
0
LINE
8
0
6
CONTINUOUS
10
5.468668
20
6.510079
30
0.0
11
4.341467
21
5.737793
31
0.0
0
LINE
8
0
6
CONTINUOUS
10
3.277797
20
4.972626
30
0.0
11
4.380556
21
5.734352
31
0.0
0
LINE
8
0
6
CONTINUOUS
10
4.341467
20
5.737793
30
0.0
11
3.240881
21
4.977555
31
0.0
0
LINE
8
0
6
CONTINUOUS
10
3.344435
20
7.111199
30
0.0
11
4.482191
21
7.943649
31
0.0
0
LINE
8
0
6
CONTINUOUS
10
2.251627
20
6.298683
30
0.0
11
3.344435
21
7.111199
31
0.0
0
LINE
8
0
6
CONTINUOUS
10
8.882414
20
9.647011
30
0.0
11
8.409508
21
10.423645
31
0.0
0
LINE
8
0
6
CONTINUOUS
10
9.119370
20
9.221382
30
0.0
11
9.110940
21
9.236534
31
0.0
0
LINE
8
0
6
CONTINUOUS
10
-5.746577
20
-7.967331
30
0.0
11
-5.703168
21
-7.956192
31
0.0
0
LINE
8
0
6
CONTINUOUS
10
-6.249540
20
-7.675667
30
0.0
11
-6.041117
21
-7.796531
31
0.0
0
LINE
8
0
6
CONTINUOUS
10
-6.372594
20
-7.604309
30
0.0
11
-6.249540
21
-7.675667
31
0.0
0
LINE
8
0
6
CONTINUOUS
10
-6.640920
20
-7.448707
30
0.0
11
-6.497180
21
-7.532062
31
0.0
0
LINE
8
0
6
CONTINUOUS
10
-7.162122
20
-7.146465
30
0.0
11
-6.789296
21
-7.362663
31
0.0
0
LINE
8
0
6
CONTINUOUS
10
-7.208196
20
-7.083462
30
0.0
11
-7.245744
21
-7.061687
31
0.0
0
LINE
8
0
6
CONTINUOUS
10
-7.243816
20
-7.099090
30
0.0
11
-7.213712
21
-7.116546
31
0.0
0
LINE
8
0
6
CONTINUOUS
10
-7.213712
20
-7.116546
30
0.0
11
-7.162122
21
-7.146465
31
0.0
0
LINE
8
0
6
CONTINUOUS
10
-7.461562
20
-6.972816
30
0.0
11
-7.243816
21
-7.099090
31
0.0
0
LINE
8
0
6
CONTINUOUS
10
-7.466483
20
-6.933655
30
0.0
11
-7.630622
21
-6.838470
31
0.0
0
LINE
8
0
6
CONTINUOUS
10
-7.723335
20
-6.821014
30
0.0
11
-7.622174
21
-6.879680
31
0.0
0
LINE
8
0
6
CONTINUOUS
10
-7.727768
20
-6.818444
30
0.0
11
-7.723335
21
-6.821014
31
0.0
0
LINE
8
0
6
CONTINUOUS
10
-7.768705
20
-6.758411
30
0.0
11
-7.757848
21
-6.801002
31
0.0
0
LINE
8
0
6
CONTINUOUS
10
-6.497180
20
-7.532062
30
0.0
11
-6.372594
21
-7.604309
31
0.0
0
LINE
8
0
6
CONTINUOUS
10
-7.208196
20
-7.083462
30
0.0
11
-7.147288
21
-7.118786
31
0.0
0
LINE
8
0
6
CONTINUOUS
10
-6.618022
20
-7.425701
30
0.0
11
-6.472169
21
-7.510288
31
0.0
0
LINE
8
0
6
CONTINUOUS
10
-6.005295
20
-7.781017
30
0.0
11
-5.841292
21
-7.876106
31
0.0
0
LINE
8
0
6
CONTINUOUS
10
-7.733692
20
-6.778705
30
0.0
11
-7.630622
21
-6.838470
31
0.0
0
LINE
8
0
6
CONTINUOUS
10
-6.472169
20
-7.510288
30
0.0
11
-6.345590
21
-7.583694
31
0.0
0
LINE
8
0
6
CONTINUOUS
10
-5.703168
20
-7.956192
30
0.0
11
-5.695846
21
-7.943821
31
0.0
0
LINE
8
0
6
CONTINUOUS
10
-5.738260
20
-7.935844
30
0.0
11
-5.703168
21
-7.956192
31
0.0
0
LINE
8
0
6
CONTINUOUS
10
-7.761177
20
-6.746212
30
0.0
11
-7.768705
21
-6.758411
31
0.0
0
LINE
8
0
6
CONTINUOUS
10
-7.768705
20
-6.758411
30
0.0
11
-7.733692
21
-6.778705
31
0.0
0
LINE
8
0
6
CONTINUOUS
10
-6.769415
20
-7.337909
30
0.0
11
-6.618022
21
-7.425701
31
0.0
0
LINE
8
0
6
CONTINUOUS
10
-6.219268
20
-7.656944
30
0.0
11
-6.005295
21
-7.781017
31
0.0
0
LINE
8
0
6
CONTINUOUS
10
-6.345590
20
-7.583694
30
0.0
11
-6.219268
21
-7.656944
31
0.0
0
LINE
8
0
6
CONTINUOUS
10
-7.466483
20
-6.933655
30
0.0
11
-7.245744
21
-7.061687
31
0.0
0
LINE
8
0
6
CONTINUOUS
10
-7.147288
20
-7.118786
30
0.0
11
-6.769415
21
-7.337909
31
0.0
0
LINE
8
0
6
CONTINUOUS
10
-5.841292
20
-7.876106
30
0.0
11
-5.738260
21
-7.935844
31
0.0
0
LINE
8
0
6
CONTINUOUS
10
-7.461562
20
-6.972816
30
0.0
11
-7.622174
21
-6.879680
31
0.0
0
LINE
8
0
6
CONTINUOUS
10
-6.640920
20
-7.448707
30
0.0
11
-6.789296
21
-7.362663
31
0.0
0
LINE
8
0
6
CONTINUOUS
10
-7.871369
20
-6.977695
30
0.0
11
-9.145062
21
-9.477005
31
0.0
0
LINE
8
0
6
CONTINUOUS
10
-7.380084
20
-10.500511
30
0.0
11
-5.843494
21
-8.153652
31
0.0
0
LINE
8
0
6
CONTINUOUS
10
-7.766123
20
-6.796203
30
0.0
11
-7.770800
21
-6.804268
31
0.0
0
LINE
8
0
6
CONTINUOUS
10
-5.772797
20
-7.952129
30
0.0
11
-5.874090
21
-7.893387
31
0.0
0
LINE
8
0
6
CONTINUOUS
10
-5.742925
20
-7.980228
30
0.0
11
-5.738248
21
-7.972164
31
0.0
0
LINE
8
0
6
CONTINUOUS
10
-7.770800
20
-6.804268
30
0.0
11
-7.871369
21
-6.977695
31
0.0
0
LINE
8
0
6
CONTINUOUS
10
-5.843494
20
-8.153652
30
0.0
11
-5.742925
21
-7.980228
31
0.0
0
LINE
8
0
6
CONTINUOUS
10
-7.847081
20
-10.286396
30
0.0
11
-7.664790
21
-10.392105
31
0.0
0
LINE
8
0
6
CONTINUOUS
10
-8.727270
20
-9.775974
30
0.0
11
-8.514986
21
-9.899078
31
0.0
0
LINE
8
0
6
CONTINUOUS
10
-9.145062
20
-9.477005
30
0.0
11
-9.167363
21
-9.520767
31
0.0
0
LINE
8
0
6
CONTINUOUS
10
-9.167363
20
-9.520767
30
0.0
11
-9.137372
21
-9.538158
31
0.0
0
LINE
8
0
6
CONTINUOUS
10
-9.137372
20
-9.538158
30
0.0
11
-9.049441
21
-9.589149
31
0.0
0
LINE
8
0
6
CONTINUOUS
10
-7.664790
20
-10.392105
30
0.0
11
-7.524911
21
-10.473221
31
0.0
0
LINE
8
0
6
CONTINUOUS
10
-8.514986
20
-9.899078
30
0.0
11
-8.287176
21
-10.031185
31
0.0
0
LINE
8
0
6
CONTINUOUS
10
-8.287176
20
-10.031185
30
0.0
11
-8.059367
21
-10.163292
31
0.0
0
LINE
8
0
6
CONTINUOUS
10
-9.049441
20
-9.589149
30
0.0
11
-8.909562
21
-9.670265
31
0.0
0
LINE
8
0
6
CONTINUOUS
10
-7.524911
20
-10.473221
30
0.0
11
-7.436980
21
-10.524212
31
0.0
0
LINE
8
0
6
CONTINUOUS
10
-7.406988
20
-10.541603
30
0.0
11
-7.380084
21
-10.500511
31
0.0
0
LINE
8
0
6
CONTINUOUS
10
-7.436980
20
-10.524212
30
0.0
11
-7.406988
21
-10.541603
31
0.0
0
LINE
8
0
6
CONTINUOUS
10
-8.059367
20
-10.163292
30
0.0
11
-7.847081
21
-10.286396
31
0.0
0
LINE
8
0
6
CONTINUOUS
10
-8.909562
20
-9.670265
30
0.0
11
-8.727270
21
-9.775974
31
0.0
0
LINE
8
0
6
CONTINUOUS
10
-7.766123
20
-6.796203
30
0.0
11
-7.731573
21
-6.816238
31
0.0
0
LINE
8
0
6
CONTINUOUS
10
-6.035225
20
-7.799949
30
0.0
11
-5.874090
21
-7.893387
31
0.0
0
LINE
8
0
6
CONTINUOUS
10
-5.772797
20
-7.952129
30
0.0
11
-5.738248
21
-7.972164
31
0.0
0
LINE
8
0
6
CONTINUOUS
10
-0.622157
20
0.867039
30
0.0
11
-0.662284
21
1.011109
31
0.0
0
LINE
8
0
6
CONTINUOUS
10
-0.594885
20
0.769131
30
0.0
11
-0.622157
21
0.867039
31
0.0
0
LINE
8
0
6
CONTINUOUS
10
-0.700752
20
0.539498
30
0.0
11
-0.574177
21
0.748017
31
0.0
0
LINE
8
0
6
CONTINUOUS
10
-0.574177
20
0.748017
30
0.0
11
-0.594885
21
0.769131
31
0.0
0
LINE
8
0
6
CONTINUOUS
10
-0.662284
20
1.011109
30
0.0
11
-0.123284
21
1.939862
31
0.0
0
LINE
8
0
6
CONTINUOUS
10
-0.123284
20
1.939862
30
0.0
11
0.436676
21
2.661804
31
0.0
0
LINE
8
0
6
CONTINUOUS
10
0.843714
20
3.128815
30
0.0
11
0.868458
21
3.118683
31
0.0
0
LINE
8
0
6
CONTINUOUS
10
1.891507
20
4.003212
30
0.0
11
2.313640
21
4.295754
31
0.0
0
LINE
8
0
6
CONTINUOUS
10
2.275057
20
4.296234
30
0.0
11
1.857803
21
4.004364
31
0.0
0
LINE
8
0
6
CONTINUOUS
10
7.915035
20
8.219300
30
0.0
11
7.276102
21
7.780350
31
0.0
0
LINE
8
0
6
CONTINUOUS
10
7.276100
20
7.761597
30
0.0
11
7.879720
21
8.176750
31
0.0
0
LINE
8
0
6
CONTINUOUS
10
9.027056
20
9.009148
30
0.0
11
8.609241
21
8.721062
31
0.0
0
LINE
8
0
6
CONTINUOUS
10
8.569095
20
8.669533
30
0.0
11
8.985302
21
8.953873
31
0.0
0
LINE
8
0
6
CONTINUOUS
10
8.609241
20
8.721062
30
0.0
11
7.915035
21
8.219300
31
0.0
0
LINE
8
0
6
CONTINUOUS
10
7.879720
20
8.176750
30
0.0
11
8.569095
21
8.669533
31
0.0
0
LINE
8
0
6
CONTINUOUS
10
9.167363
20
9.104576
30
0.0
11
9.027056
21
9.009148
31
0.0
0
LINE
8
0
6
CONTINUOUS
10
9.124264
20
9.047135
30
0.0
11
9.167363
21
9.104576
31
0.0
0
LINE
8
0
6
CONTINUOUS
10
8.985302
20
8.953873
30
0.0
11
9.124264
21
9.047135
31
0.0
0
LINE
8
0
6
CONTINUOUS
10
2.313640
20
4.295754
30
0.0
11
3.277797
21
4.972626
31
0.0
0
LINE
8
0
6
CONTINUOUS
10
3.240881
20
4.977555
30
0.0
11
2.275057
21
4.296234
31
0.0
0
LINE
8
0
6
CONTINUOUS
10
6.588115
20
7.286186
30
0.0
11
7.276100
21
7.761597
31
0.0
0
LINE
8
0
6
CONTINUOUS
10
7.276102
20
7.780350
30
0.0
11
6.546951
21
7.276520
31
0.0
0
LINE
8
0
6
CONTINUOUS
10
6.546951
20
7.276520
30
0.0
11
5.468668
21
6.510079
31
0.0
0
LINE
8
0
6
CONTINUOUS
10
5.506914
20
6.510559
30
0.0
11
6.588115
21
7.286186
31
0.0
0
LINE
8
0
6
CONTINUOUS
10
0.740828
20
2.946243
30
0.0
11
0.879748
21
3.118584
31
0.0
0
LINE
8
0
6
CONTINUOUS
10
0.436676
20
2.661804
30
0.0
11
0.740828
21
2.946243
31
0.0
0
LINE
8
0
6
CONTINUOUS
10
1.212049
20
3.437195
30
0.0
11
0.868458
21
3.118683
31
0.0
0
LINE
8
0
6
CONTINUOUS
10
0.879748
20
3.118584
30
0.0
11
1.212049
21
3.437195
31
0.0
0
LINE
8
0
6
CONTINUOUS
10
0.868458
20
3.118683
30
0.0
11
0.879748
21
3.118584
31
0.0
0
LINE
8
0
6
CONTINUOUS
10
2.728609
20
4.587081
30
0.0
11
2.313637
21
4.295756
31
0.0
0
LINE
8
0
6
CONTINUOUS
10
6.037190
20
5.922040
30
0.0
11
6.092429
21
5.969777
31
0.0
0
LINE
8
0
6
CONTINUOUS
10
6.318021
20
6.164734
30
0.0
11
6.363181
21
6.203760
31
0.0
0
LINE
8
0
6
CONTINUOUS
10
6.624541
20
6.429627
30
0.0
11
6.758119
21
6.545064
31
0.0
0
LINE
8
0
6
CONTINUOUS
10
7.114795
20
6.853303
30
0.0
11
7.175633
21
6.905878
31
0.0
0
LINE
8
0
6
CONTINUOUS
10
9.124264
20
9.047137
30
0.0
11
8.985303
21
8.953875
31
0.0
0
LINE
8
0
6
CONTINUOUS
10
8.832497
20
8.681025
30
0.0
11
9.124264
21
9.047137
31
0.0
0
LINE
8
0
6
CONTINUOUS
10
2.157486
20
3.527477
30
0.0
11
2.256537
21
3.574251
31
0.0
0
LINE
8
0
6
CONTINUOUS
10
2.061190
20
4.120808
30
0.0
11
1.891505
21
4.003214
31
0.0
0
LINE
8
0
6
CONTINUOUS
10
3.684867
20
4.359149
30
0.0
11
3.712722
21
4.375227
31
0.0
0
LINE
8
0
6
CONTINUOUS
10
4.229767
20
4.673681
30
0.0
11
4.329201
21
4.731077
31
0.0
0
LINE
8
0
6
CONTINUOUS
10
4.751517
20
5.002546
30
0.0
11
4.831325
21
5.058470
31
0.0
0
LINE
8
0
6
CONTINUOUS
10
5.138571
20
5.273765
30
0.0
11
5.355680
21
5.425898
31
0.0
0
LINE
8
0
6
CONTINUOUS
10
5.789154
20
5.729645
30
0.0
11
5.802848
21
5.739241
31
0.0
0
LINE
8
0
6
CONTINUOUS
10
1.594999
20
3.260279
30
0.0
11
1.774946
21
3.346243
31
0.0
0
LINE
8
0
6
CONTINUOUS
10
3.159813
20
4.058667
30
0.0
11
3.423772
21
4.208437
31
0.0
0
LINE
8
0
6
CONTINUOUS
10
3.565274
20
5.171203
30
0.0
11
3.277795
21
4.972628
31
0.0
0
LINE
8
0
6
CONTINUOUS
10
7.276099
20
7.761599
30
0.0
11
6.588113
21
7.286188
31
0.0
0
LINE
8
0
6
CONTINUOUS
10
7.879719
20
8.176752
30
0.0
11
7.276099
21
7.761599
31
0.0
0
LINE
8
0
6
CONTINUOUS
10
1.212048
20
3.437197
30
0.0
11
0.879746
21
3.118586
31
0.0
0
LINE
8
0
6
CONTINUOUS
10
-0.596269
20
0.908137
30
0.0
11
-0.570195
21
0.808207
31
0.0
0
LINE
8
0
6
CONTINUOUS
10
6.588113
20
7.286188
30
0.0
11
5.506913
21
6.510561
31
0.0
0
LINE
8
0
6
CONTINUOUS
10
0.740827
20
2.946245
30
0.0
11
1.172813
21
3.134516
31
0.0
0
LINE
8
0
6
CONTINUOUS
10
-0.631246
20
1.033404
30
0.0
11
-0.596269
21
0.908137
31
0.0
0
LINE
8
0
6
CONTINUOUS
10
-0.112921
20
1.925204
30
0.0
11
-0.631246
21
1.033404
31
0.0
0
LINE
8
0
6
CONTINUOUS
10
8.569096
20
8.669535
30
0.0
11
7.879719
21
8.176752
31
0.0
0
LINE
8
0
6
CONTINUOUS
10
1.172813
20
3.134516
30
0.0
11
1.308470
21
3.114024
31
0.0
0
LINE
8
0
6
CONTINUOUS
10
0.507765
20
2.325289
30
0.0
11
1.303780
21
3.060458
31
0.0
0
LINE
8
0
6
CONTINUOUS
10
1.303780
20
3.060458
30
0.0
11
1.274949
21
3.083597
31
0.0
0
LINE
8
0
6
CONTINUOUS
10
8.985303
20
8.953875
30
0.0
11
8.569096
21
8.669535
31
0.0
0
LINE
8
0
6
CONTINUOUS
10
0.030606
20
1.695597
30
0.0
11
0.507765
21
2.325289
31
0.0
0
LINE
8
0
6
CONTINUOUS
10
1.337078
20
3.091212
30
0.0
11
1.594999
21
3.260279
31
0.0
0
LINE
8
0
6
CONTINUOUS
10
1.308470
20
3.114024
30
0.0
11
1.337078
21
3.091212
31
0.0
0
LINE
8
0
6
CONTINUOUS
10
1.554312
20
3.732943
30
0.0
11
1.212048
21
3.437197
31
0.0
0
LINE
8
0
6
CONTINUOUS
10
1.741863
20
3.883272
30
0.0
11
1.554312
21
3.732943
31
0.0
0
LINE
8
0
6
CONTINUOUS
10
2.256537
20
3.574251
30
0.0
11
2.299763
21
3.596540
31
0.0
0
LINE
8
0
6
CONTINUOUS
10
2.673900
20
3.789451
30
0.0
11
2.709111
21
3.807606
31
0.0
0
LINE
8
0
6
CONTINUOUS
10
5.506913
20
6.510561
30
0.0
11
4.380553
21
5.734354
31
0.0
0
LINE
8
0
6
CONTINUOUS
10
7.234943
20
6.965590
30
0.0
11
7.328367
21
7.059644
31
0.0
0
LINE
8
0
6
CONTINUOUS
10
8.006870
20
7.742730
30
0.0
11
8.058462
21
7.794670
31
0.0
0
LINE
8
0
6
CONTINUOUS
10
1.274949
20
3.083597
30
0.0
11
1.139169
21
3.102839
31
0.0
0
LINE
8
0
6
CONTINUOUS
10
-0.549752
20
0.786288
30
0.0
11
0.030606
21
1.695597
31
0.0
0
LINE
8
0
6
CONTINUOUS
10
-0.570195
20
0.808207
30
0.0
11
-0.549752
21
0.786288
31
0.0
0
LINE
8
0
6
CONTINUOUS
10
0.443321
20
2.646532
30
0.0
11
-0.112921
21
1.925204
31
0.0
0
LINE
8
0
6
CONTINUOUS
10
0.741664
20
2.928759
30
0.0
11
0.443321
21
2.646532
31
0.0
0
LINE
8
0
6
CONTINUOUS
10
1.139169
20
3.102839
30
0.0
11
0.741664
21
2.928759
31
0.0
0
LINE
8
0
6
CONTINUOUS
10
1.328641
20
3.088991
30
0.0
11
1.337078
21
3.091212
31
0.0
0
LINE
8
0
6
CONTINUOUS
10
1.337078
20
3.091212
30
0.0
11
1.308470
21
3.114024
31
0.0
0
LINE
8
0
6
CONTINUOUS
10
-0.574178
20
0.748019
30
0.0
11
-0.572061
21
0.776118
31
0.0
0
LINE
8
0
6
CONTINUOUS
10
0.741664
20
2.928759
30
0.0
11
1.139169
21
3.102839
31
0.0
0
LINE
8
0
6
CONTINUOUS
10
1.139169
20
3.102839
30
0.0
11
1.274949
21
3.083597
31
0.0
0
LINE
8
0
6
CONTINUOUS
10
1.293908
20
3.099352
30
0.0
11
1.265187
21
3.122324
31
0.0
0
LINE
8
0
6
CONTINUOUS
10
1.303780
20
3.060458
30
0.0
11
1.293908
21
3.099352
31
0.0
0
LINE
8
0
6
CONTINUOUS
10
1.274949
20
3.083597
30
0.0
11
1.303780
21
3.060458
31
0.0
0
LINE
8
0
6
CONTINUOUS
10
0.443321
20
2.646532
30
0.0
11
0.741664
21
2.928759
31
0.0
0
LINE
8
0
6
CONTINUOUS
10
-0.631246
20
1.033404
30
0.0
11
-0.112921
21
1.925204
31
0.0
0
LINE
8
0
6
CONTINUOUS
10
-0.570195
20
0.808207
30
0.0
11
-0.596269
21
0.908137
31
0.0
0
LINE
8
0
6
CONTINUOUS
10
-0.587919
20
0.791346
30
0.0
11
-0.549752
21
0.786288
31
0.0
0
LINE
8
0
6
CONTINUOUS
10
-0.608495
20
0.812861
30
0.0
11
-0.587919
21
0.791346
31
0.0
0
LINE
8
0
6
CONTINUOUS
10
-0.549752
20
0.786288
30
0.0
11
-0.570195
21
0.808207
31
0.0
0
LINE
8
0
6
CONTINUOUS
10
-0.112921
20
1.925204
30
0.0
11
0.443321
21
2.646532
31
0.0
0
LINE
8
0
6
CONTINUOUS
10
-0.596269
20
0.908137
30
0.0
11
-0.631246
21
1.033404
31
0.0
0
LINE
8
0
6
CONTINUOUS
10
3.321313
20
4.151654
30
0.0
11
3.336148
21
4.149230
31
0.0
0
LINE
8
0
6
CONTINUOUS
10
3.336148
20
4.149230
30
0.0
11
3.353940
21
4.162032
31
0.0
0
LINE
8
0
6
CONTINUOUS
10
3.353940
20
4.162032
30
0.0
11
3.405764
21
4.199301
31
0.0
0
LINE
8
0
6
CONTINUOUS
10
3.405764
20
4.199301
30
0.0
11
3.489297
21
4.259375
31
0.0
0
LINE
8
0
6
CONTINUOUS
10
3.489297
20
4.259375
30
0.0
11
3.602212
21
4.340583
31
0.0
0
LINE
8
0
6
CONTINUOUS
10
4.382654
20
4.901868
30
0.0
11
4.451511
21
4.951390
31
0.0
0
LINE
8
0
6
CONTINUOUS
10
4.673449
20
5.111009
30
0.0
11
4.766585
21
5.177993
31
0.0
0
LINE
8
0
6
CONTINUOUS
10
4.766585
20
5.177993
30
0.0
11
5.020098
21
5.360312
31
0.0
0
LINE
8
0
6
CONTINUOUS
10
5.020098
20
5.360312
30
0.0
11
5.284400
21
5.550391
31
0.0
0
LINE
8
0
6
CONTINUOUS
10
5.284400
20
5.550391
30
0.0
11
5.548701
21
5.740477
31
0.0
0
LINE
8
0
6
CONTINUOUS
10
5.548701
20
5.740477
30
0.0
11
5.802214
21
5.922805
31
0.0
0
LINE
8
0
6
CONTINUOUS
10
5.802214
20
5.922805
30
0.0
11
5.835566
21
5.946792
31
0.0
0
LINE
8
0
6
CONTINUOUS
10
6.065998
20
6.112511
30
0.0
11
6.116055
21
6.148510
31
0.0
0
LINE
8
0
6
CONTINUOUS
10
6.267581
20
6.257483
30
0.0
11
6.474786
21
6.406508
31
0.0
0
LINE
8
0
6
CONTINUOUS
10
6.826613
20
6.659537
30
0.0
11
6.966588
21
6.760207
31
0.0
0
LINE
8
0
6
CONTINUOUS
10
6.966588
20
6.760207
30
0.0
11
7.079503
21
6.841414
31
0.0
0
LINE
8
0
6
CONTINUOUS
10
7.079503
20
6.841414
30
0.0
11
7.163037
21
6.901488
31
0.0
0
LINE
8
0
6
CONTINUOUS
10
7.163037
20
6.901488
30
0.0
11
7.214860
21
6.938758
31
0.0
0
LINE
8
0
6
CONTINUOUS
10
7.232651
20
6.951552
30
0.0
11
7.235295
21
6.967743
31
0.0
0
LINE
8
0
6
CONTINUOUS
10
7.214860
20
6.938758
30
0.0
11
7.232651
21
6.951552
31
0.0
0
LINE
8
0
6
CONTINUOUS
10
7.706259
20
7.339919
30
0.0
11
7.725843
21
7.459805
31
0.0
0
LINE
8
0
6
CONTINUOUS
10
7.683778
20
7.323752
30
0.0
11
7.706259
21
7.339919
31
0.0
0
LINE
8
0
6
CONTINUOUS
10
7.618291
20
7.276648
30
0.0
11
7.683778
21
7.323752
31
0.0
0
LINE
8
0
6
CONTINUOUS
10
7.512734
20
7.200736
30
0.0
11
7.618291
21
7.276648
31
0.0
0
LINE
8
0
6
CONTINUOUS
10
7.370047
20
7.098120
30
0.0
11
7.512734
21
7.200736
31
0.0
0
LINE
8
0
6
CONTINUOUS
10
7.380667
20
7.217818
30
0.0
11
7.198491
21
7.086798
31
0.0
0
LINE
8
0
6
CONTINUOUS
10
7.193167
20
6.970908
30
0.0
11
7.370047
21
7.098120
31
0.0
0
LINE
8
0
6
CONTINUOUS
10
7.198491
20
7.086798
30
0.0
11
6.984141
21
6.932631
31
0.0
0
LINE
8
0
6
CONTINUOUS
10
6.985032
20
6.821219
30
0.0
11
7.193167
21
6.970908
31
0.0
0
LINE
8
0
6
CONTINUOUS
10
6.748578
20
6.651160
30
0.0
11
6.985032
21
6.821219
31
0.0
0
LINE
8
0
6
CONTINUOUS
10
6.651405
20
6.693333
30
0.0
11
6.470940
21
6.563544
31
0.0
0
LINE
8
0
6
CONTINUOUS
10
6.486743
20
6.462851
30
0.0
11
6.748578
21
6.651160
31
0.0
0
LINE
8
0
6
CONTINUOUS
10
6.470940
20
6.563544
30
0.0
11
6.275847
21
6.423237
31
0.0
0
LINE
8
0
6
CONTINUOUS
10
6.202464
20
6.258406
30
0.0
11
6.486743
21
6.462851
31
0.0
0
LINE
8
0
6
CONTINUOUS
10
5.951958
20
6.190303
30
0.0
11
5.865121
21
6.127852
31
0.0
0
LINE
8
0
6
CONTINUOUS
10
5.898679
20
6.039923
30
0.0
11
6.202464
21
6.258406
31
0.0
0
LINE
8
0
6
CONTINUOUS
10
5.865121
20
6.127852
30
0.0
11
5.535105
21
5.890517
31
0.0
0
LINE
8
0
6
CONTINUOUS
10
5.578324
20
5.809531
30
0.0
11
5.898679
21
6.039923
31
0.0
0
LINE
8
0
6
CONTINUOUS
10
5.535105
20
5.890517
30
0.0
11
5.191222
21
5.643187
31
0.0
0
LINE
8
0
6
CONTINUOUS
10
5.244340
20
5.569335
30
0.0
11
5.578324
21
5.809531
31
0.0
0
LINE
8
0
6
CONTINUOUS
10
5.191222
20
5.643187
30
0.0
11
4.847338
21
5.395873
31
0.0
0
LINE
8
0
6
CONTINUOUS
10
4.910353
20
5.329131
30
0.0
11
5.244340
21
5.569335
31
0.0
0
LINE
8
0
6
CONTINUOUS
10
4.847338
20
5.395873
30
0.0
11
4.517321
21
5.158530
31
0.0
0
LINE
8
0
6
CONTINUOUS
10
4.589999
20
5.098746
30
0.0
11
4.910353
21
5.329131
31
0.0
0
LINE
8
0
6
CONTINUOUS
10
4.517321
20
5.158530
30
0.0
11
4.204350
21
4.933448
31
0.0
0
LINE
8
0
6
CONTINUOUS
10
4.286216
20
4.880263
30
0.0
11
4.589999
21
5.098746
31
0.0
0
LINE
8
0
6
CONTINUOUS
10
4.204350
20
4.933448
30
0.0
11
3.911504
21
4.722831
31
0.0
0
LINE
8
0
6
CONTINUOUS
10
4.001935
20
4.675811
30
0.0
11
4.286216
21
4.880263
31
0.0
0
LINE
8
0
6
CONTINUOUS
10
3.911504
20
4.722831
30
0.0
11
3.641818
21
4.528876
31
0.0
0
LINE
8
0
6
CONTINUOUS
10
3.740100
20
4.487502
30
0.0
11
4.001935
21
4.675811
31
0.0
0
LINE
8
0
6
CONTINUOUS
10
3.641818
20
4.528876
30
0.0
11
3.398303
21
4.353743
31
0.0
0
LINE
8
0
6
CONTINUOUS
10
3.503646
20
4.317450
30
0.0
11
3.740100
21
4.487502
31
0.0
0
LINE
8
0
6
CONTINUOUS
10
3.398303
20
4.353743
30
0.0
11
3.183953
21
4.199591
31
0.0
0
LINE
8
0
6
CONTINUOUS
10
3.295510
20
4.167762
30
0.0
11
3.503646
21
4.317450
31
0.0
0
LINE
8
0
6
CONTINUOUS
10
3.183953
20
4.199591
30
0.0
11
3.001775
21
4.068564
31
0.0
0
LINE
8
0
6
CONTINUOUS
10
3.118632
20
4.040549
30
0.0
11
3.295510
21
4.167762
31
0.0
0
LINE
8
0
6
CONTINUOUS
10
2.975945
20
3.937934
30
0.0
11
3.118632
21
4.040549
31
0.0
0
LINE
8
0
6
CONTINUOUS
10
2.870389
20
3.862014
30
0.0
11
2.975945
21
3.937934
31
0.0
0
LINE
8
0
6
CONTINUOUS
10
2.804900
20
3.814917
30
0.0
11
2.870389
21
3.862014
31
0.0
0
LINE
8
0
6
CONTINUOUS
10
2.782418
20
3.798751
30
0.0
11
2.804900
21
3.814917
31
0.0
0
LINE
8
0
6
CONTINUOUS
10
6.985064
20
6.652266
30
0.0
11
7.105584
21
6.739012
31
0.0
0
LINE
8
0
6
CONTINUOUS
10
3.179742
20
3.969481
30
0.0
11
3.208903
21
3.990470
31
0.0
0
LINE
8
0
6
CONTINUOUS
10
3.140385
20
3.924643
30
0.0
11
3.169547
21
3.945632
31
0.0
0
LINE
8
0
6
CONTINUOUS
10
6.838147
20
6.560988
30
0.0
11
6.958665
21
6.647734
31
0.0
0
LINE
8
0
6
CONTINUOUS
10
6.614207
20
6.316901
30
0.0
11
6.674464
21
6.360274
31
0.0
0
LINE
8
0
6
CONTINUOUS
10
6.171864
20
5.986525
30
0.0
11
6.292382
21
6.073271
31
0.0
0
LINE
8
0
6
CONTINUOUS
10
6.292382
20
6.073271
30
0.0
11
6.352639
21
6.116637
31
0.0
0
LINE
8
0
6
CONTINUOUS
10
4.025784
20
4.448706
30
0.0
11
4.086047
21
4.492079
31
0.0
0
LINE
8
0
6
CONTINUOUS
10
4.086047
20
4.492079
30
0.0
11
4.206567
21
4.578826
31
0.0
0
LINE
8
0
6
CONTINUOUS
10
4.206567
20
4.578826
30
0.0
11
4.266824
21
4.622199
31
0.0
0
LINE
8
0
6
CONTINUOUS
10
3.664883
20
4.259833
30
0.0
11
3.725138
21
4.303206
31
0.0
0
LINE
8
0
6
CONTINUOUS
10
8.505383
20
8.157042
30
0.0
11
8.462453
21
8.216688
31
0.0
0
LINE
8
0
6
CONTINUOUS
10
8.436963
20
8.107795
30
0.0
11
8.505383
21
8.157042
31
0.0
0
LINE
8
0
6
CONTINUOUS
10
8.436963
20
8.107795
30
0.0
11
8.407877
21
8.148206
31
0.0
0
LINE
8
0
6
CONTINUOUS
10
3.697465
20
4.987548
30
0.0
11
3.674115
21
5.019988
31
0.0
0
LINE
8
0
6
CONTINUOUS
10
3.623589
20
4.934371
30
0.0
11
3.697465
21
4.987548
31
0.0
0
LINE
8
0
6
CONTINUOUS
10
2.085494
20
3.473448
30
0.0
11
2.120612
21
3.498732
31
0.0
0
LINE
8
0
6
CONTINUOUS
10
2.000983
20
3.590862
30
0.0
11
2.085494
21
3.473448
31
0.0
0
LINE
8
0
6
CONTINUOUS
10
2.921668
20
4.148802
30
0.0
11
2.893917
21
4.187358
31
0.0
0
LINE
8
0
6
CONTINUOUS
10
4.200713
20
5.139113
30
0.0
11
4.296239
21
5.207869
31
0.0
0
LINE
8
0
6
CONTINUOUS
10
4.153678
20
5.204459
30
0.0
11
4.200713
21
5.139113
31
0.0
0
LINE
8
0
6
CONTINUOUS
10
4.396697
20
5.090590
30
0.0
11
4.363732
21
5.136390
31
0.0
0
LINE
8
0
6
CONTINUOUS
10
4.360270
20
5.064368
30
0.0
11
4.396697
21
5.090590
31
0.0
0
LINE
8
0
6
CONTINUOUS
10
3.566554
20
4.476256
30
0.0
11
3.538937
21
4.514625
31
0.0
0
LINE
8
0
6
CONTINUOUS
10
8.064708
20
7.662375
30
0.0
11
8.006870
21
7.742731
31
0.0
0
LINE
8
0
6
CONTINUOUS
10
7.965077
20
7.590667
30
0.0
11
8.064708
21
7.662375
31
0.0
0
LINE
8
0
6
CONTINUOUS
10
6.976403
20
6.844245
30
0.0
11
7.123841
21
6.950362
31
0.0
0
LINE
8
0
6
CONTINUOUS
10
5.498811
20
5.939727
30
0.0
11
5.572686
21
5.992896
31
0.0
0
LINE
8
0
6
CONTINUOUS
10
7.613833
20
7.545391
30
0.0
11
7.649613
21
7.495681
31
0.0
0
LINE
8
0
6
CONTINUOUS
10
7.649613
20
7.495681
30
0.0
11
7.684731
21
7.520957
31
0.0
0
LINE
8
0
6
CONTINUOUS
10
7.635641
20
7.589158
30
0.0
11
7.684731
21
7.520957
31
0.0
0
LINE
8
0
6
CONTINUOUS
10
7.684731
20
7.520957
30
0.0
11
7.846219
21
7.637191
31
0.0
0
LINE
8
0
6
CONTINUOUS
10
7.778703
20
7.730993
30
0.0
11
7.846219
21
7.637191
31
0.0
0
LINE
8
0
6
CONTINUOUS
10
7.972586
20
7.728148
30
0.0
11
7.899954
21
7.829059
31
0.0
0
LINE
8
0
6
CONTINUOUS
10
7.846219
20
7.637191
30
0.0
11
7.972586
21
7.728148
31
0.0
0
LINE
8
0
6
CONTINUOUS
10
3.653067
20
4.354995
30
0.0
11
3.734986
21
4.413954
31
0.0
0
LINE
8
0
6
CONTINUOUS
10
3.619908
20
4.401063
30
0.0
11
3.653067
21
4.354995
31
0.0
0
LINE
8
0
6
CONTINUOUS
10
3.540051
20
4.179076
30
0.0
11
3.660569
21
4.265822
31
0.0
0
LINE
8
0
6
CONTINUOUS
10
3.604153
20
4.344204
30
0.0
11
3.660569
21
4.265822
31
0.0
0
LINE
8
0
6
CONTINUOUS
10
3.720828
20
4.309188
30
0.0
11
3.672141
21
4.376829
31
0.0
0
LINE
8
0
6
CONTINUOUS
10
3.660569
20
4.265822
30
0.0
11
3.720828
21
4.309188
31
0.0
0
LINE
8
0
6
CONTINUOUS
10
3.799184
20
4.382209
30
0.0
11
3.919705
21
4.468955
31
0.0
0
LINE
8
0
6
CONTINUOUS
10
3.799184
20
4.382209
30
0.0
11
3.777356
21
4.412536
31
0.0
0
LINE
8
0
6
CONTINUOUS
10
3.738921
20
4.338828
30
0.0
11
3.799184
21
4.382209
31
0.0
0
LINE
8
0
6
CONTINUOUS
10
3.712722
20
4.375227
30
0.0
11
3.738921
21
4.338828
31
0.0
0
LINE
8
0
6
CONTINUOUS
10
4.021138
20
4.455153
30
0.0
11
4.081403
21
4.498534
31
0.0
0
LINE
8
0
6
CONTINUOUS
10
3.971253
20
4.524459
30
0.0
11
4.021138
21
4.455153
31
0.0
0
LINE
8
0
6
CONTINUOUS
10
4.421933
20
4.729346
30
0.0
11
4.542453
21
4.816092
31
0.0
0
LINE
8
0
6
CONTINUOUS
10
4.491793
20
4.886476
30
0.0
11
4.542453
21
4.816092
31
0.0
0
LINE
8
0
6
CONTINUOUS
10
4.602710
20
4.859465
30
0.0
11
4.555910
21
4.924485
31
0.0
0
LINE
8
0
6
CONTINUOUS
10
4.542453
20
4.816092
30
0.0
11
4.602710
21
4.859465
31
0.0
0
LINE
8
0
6
CONTINUOUS
10
4.421933
20
4.729346
30
0.0
11
4.393834
21
4.768385
31
0.0
0
LINE
8
0
6
CONTINUOUS
10
4.361670
20
4.685965
30
0.0
11
4.421933
21
4.729346
31
0.0
0
LINE
8
0
6
CONTINUOUS
10
4.302187
20
4.768608
30
0.0
11
4.361670
21
4.685965
31
0.0
0
LINE
8
0
6
CONTINUOUS
10
4.555348
20
4.766715
30
0.0
11
4.615613
21
4.810096
31
0.0
0
LINE
8
0
6
CONTINUOUS
10
4.507091
20
4.833760
30
0.0
11
4.555348
21
4.766715
31
0.0
0
LINE
8
0
6
CONTINUOUS
10
5.733350
20
5.737159
30
0.0
11
5.793614
21
5.780539
31
0.0
0
LINE
8
0
6
CONTINUOUS
10
5.674098
20
5.819480
30
0.0
11
5.733350
21
5.737159
31
0.0
0
LINE
8
0
6
CONTINUOUS
10
5.719701
20
5.883229
30
0.0
11
5.793614
21
5.780539
31
0.0
0
LINE
8
0
6
CONTINUOUS
10
5.793614
20
5.780539
30
0.0
11
5.914134
21
5.867285
31
0.0
0
LINE
8
0
6
CONTINUOUS
10
5.332774
20
5.457721
30
0.0
11
5.389834
21
5.378447
31
0.0
0
LINE
8
0
6
CONTINUOUS
10
5.389834
20
5.378447
30
0.0
11
5.450099
21
5.421828
31
0.0
0
LINE
8
0
6
CONTINUOUS
10
6.365805
20
6.200118
30
0.0
11
6.426068
21
6.243491
31
0.0
0
LINE
8
0
6
CONTINUOUS
10
6.312926
20
6.273583
30
0.0
11
6.365805
21
6.200118
31
0.0
0
LINE
8
0
6
CONTINUOUS
10
6.358526
20
6.337329
30
0.0
11
6.426068
21
6.243491
31
0.0
0
LINE
8
0
6
CONTINUOUS
10
6.426068
20
6.243491
30
0.0
11
6.546588
21
6.330245
31
0.0
0
LINE
8
0
6
CONTINUOUS
10
6.487340
20
6.238967
30
0.0
11
6.607861
21
6.325713
31
0.0
0
LINE
8
0
6
CONTINUOUS
10
7.014264
20
6.697570
30
0.0
11
6.983710
21
6.740019
31
0.0
0
LINE
8
0
6
CONTINUOUS
10
6.954009
20
6.654204
30
0.0
11
7.014264
21
6.697570
31
0.0
0
LINE
8
0
6
CONTINUOUS
10
7.812310
20
7.820234
30
0.0
11
7.855714
21
7.759932
31
0.0
0
LINE
8
0
6
CONTINUOUS
10
7.855714
20
7.759932
30
0.0
11
7.890832
21
7.785208
31
0.0
0
LINE
8
0
6
CONTINUOUS
10
7.176636
20
7.309859
30
0.0
11
7.302106
21
7.400168
31
0.0
0
LINE
8
0
6
CONTINUOUS
10
7.119247
20
7.389592
30
0.0
11
7.176636
21
7.309859
31
0.0
0
LINE
8
0
6
CONTINUOUS
10
6.429597
20
6.802687
30
0.0
11
6.599002
21
6.924620
31
0.0
0
LINE
8
0
6
CONTINUOUS
10
6.480778
20
7.088871
30
0.0
11
6.599002
21
6.924620
31
0.0
0
LINE
8
0
6
CONTINUOUS
10
6.672875
20
6.977790
30
0.0
11
6.577747
21
7.109955
31
0.0
0
LINE
8
0
6
CONTINUOUS
10
6.599002
20
6.924620
30
0.0
11
6.672875
21
6.977790
31
0.0
0
LINE
8
0
6
CONTINUOUS
10
5.421948
20
6.105605
30
0.0
11
5.590186
21
6.226699
31
0.0
0
LINE
8
0
6
CONTINUOUS
10
7.511910
20
7.169043
30
0.0
11
7.569499
21
7.210494
31
0.0
0
LINE
8
0
6
CONTINUOUS
10
6.119469
20
6.143767
30
0.0
11
6.177062
21
6.185218
31
0.0
0
LINE
8
0
6
CONTINUOUS
10
6.177062
20
6.185218
30
0.0
11
6.292247
21
6.268126
31
0.0
0
LINE
8
0
6
CONTINUOUS
10
7.439343
20
7.109107
30
0.0
11
7.554528
21
7.192015
31
0.0
0
LINE
8
0
6
CONTINUOUS
10
7.554528
20
7.192015
30
0.0
11
7.612113
21
7.233466
31
0.0
0
LINE
8
0
6
CONTINUOUS
10
6.872533
20
6.683425
30
0.0
11
6.845555
21
6.720907
31
0.0
0
LINE
8
0
6
CONTINUOUS
10
6.814946
20
6.641974
30
0.0
11
6.872533
21
6.683425
31
0.0
0
LINE
8
0
6
CONTINUOUS
10
6.413659
20
6.358321
30
0.0
11
6.471255
21
6.399779
31
0.0
0
LINE
8
0
6
CONTINUOUS
10
5.844422
20
5.934493
30
0.0
11
5.902016
21
5.975951
31
0.0
0
LINE
8
0
6
CONTINUOUS
10
5.788515
20
6.012165
30
0.0
11
5.844422
21
5.934493
31
0.0
0
LINE
8
0
6
CONTINUOUS
10
5.902016
20
5.975951
30
0.0
11
6.017199
21
6.058852
31
0.0
0
LINE
8
0
6
CONTINUOUS
10
2.938132
20
3.798575
30
0.0
11
3.020053
21
3.857543
31
0.0
0
LINE
8
0
6
CONTINUOUS
10
2.869493
20
3.893940
30
0.0
11
2.938132
21
3.798575
31
0.0
0
LINE
8
0
6
CONTINUOUS
10
3.992200
20
4.598761
30
0.0
11
4.103284
21
4.678717
31
0.0
0
LINE
8
0
6
CONTINUOUS
10
4.366587
20
4.862693
30
0.0
11
4.395747
21
4.883681
31
0.0
0
LINE
8
0
6
CONTINUOUS
10
4.395747
20
4.883681
30
0.0
11
4.335659
21
4.967164
31
0.0
0
LINE
8
0
6
CONTINUOUS
10
4.255505
20
4.782737
30
0.0
11
4.366587
21
4.862693
31
0.0
0
LINE
8
0
6
CONTINUOUS
10
6.082009
20
5.859771
30
0.0
11
6.037190
21
5.922040
31
0.0
0
LINE
8
0
6
CONTINUOUS
10
6.021752
20
5.816405
30
0.0
11
6.082009
21
5.859771
31
0.0
0
LINE
8
0
6
CONTINUOUS
10
7.054355
20
6.810186
30
0.0
11
7.105584
21
6.739012
31
0.0
0
LINE
8
0
6
CONTINUOUS
10
7.165839
20
6.782386
30
0.0
11
7.114795
21
6.853303
31
0.0
0
LINE
8
0
6
CONTINUOUS
10
7.105584
20
6.739012
30
0.0
11
7.165839
21
6.782386
31
0.0
0
LINE
8
0
6
CONTINUOUS
10
6.924800
20
6.608893
30
0.0
11
6.985064
21
6.652266
31
0.0
0
LINE
8
0
6
CONTINUOUS
10
3.029305
20
3.844695
30
0.0
11
3.140385
21
3.924643
31
0.0
0
LINE
8
0
6
CONTINUOUS
10
2.947385
20
3.785727
30
0.0
11
3.029305
21
3.844695
31
0.0
0
LINE
8
0
6
CONTINUOUS
10
7.452384
20
7.091002
30
0.0
11
7.567565
21
7.173903
31
0.0
0
LINE
8
0
6
CONTINUOUS
10
7.567565
20
7.173903
30
0.0
11
7.625151
21
7.215354
31
0.0
0
LINE
8
0
6
CONTINUOUS
10
7.394788
20
7.049544
30
0.0
11
7.452384
21
7.091002
31
0.0
0
LINE
8
0
6
CONTINUOUS
10
7.351144
20
7.027999
30
0.0
11
7.408738
21
7.069457
31
0.0
0
LINE
8
0
6
CONTINUOUS
10
6.777882
20
6.517615
30
0.0
11
6.838147
21
6.560988
31
0.0
0
LINE
8
0
6
CONTINUOUS
10
6.493689
20
6.230155
30
0.0
11
6.614207
21
6.316901
31
0.0
0
LINE
8
0
6
CONTINUOUS
10
6.433425
20
6.186774
30
0.0
11
6.493689
21
6.230155
31
0.0
0
LINE
8
0
6
CONTINUOUS
10
6.111598
20
5.943145
30
0.0
11
6.171864
21
5.986525
31
0.0
0
LINE
8
0
6
CONTINUOUS
10
4.364449
20
4.682105
30
0.0
11
4.424716
21
4.725486
31
0.0
0
LINE
8
0
6
CONTINUOUS
10
4.424716
20
4.725486
30
0.0
11
4.545233
21
4.812232
31
0.0
0
LINE
8
0
6
CONTINUOUS
10
3.739835
20
4.337561
30
0.0
11
3.800099
21
4.380934
31
0.0
0
LINE
8
0
6
CONTINUOUS
10
3.800099
20
4.380934
30
0.0
11
3.920619
21
4.467681
31
0.0
0
LINE
8
0
6
CONTINUOUS
10
3.920619
20
4.467681
30
0.0
11
3.980876
21
4.511054
31
0.0
0
LINE
8
0
6
CONTINUOUS
10
3.484099
20
4.129706
30
0.0
11
3.544364
21
4.173087
31
0.0
0
LINE
8
0
6
CONTINUOUS
10
3.544364
20
4.173087
30
0.0
11
3.664883
21
4.259833
31
0.0
0
LINE
8
0
6
CONTINUOUS
10
4.391228
20
5.478728
30
0.0
11
4.559464
21
5.599814
31
0.0
0
LINE
8
0
6
CONTINUOUS
10
4.496046
20
5.687923
30
0.0
11
4.559464
21
5.599814
31
0.0
0
LINE
8
0
6
CONTINUOUS
10
4.663897
20
5.674987
30
0.0
11
4.631450
21
5.720067
31
0.0
0
LINE
8
0
6
CONTINUOUS
10
4.559464
20
5.599814
30
0.0
11
4.663897
21
5.674987
31
0.0
0
LINE
8
0
6
CONTINUOUS
10
4.391228
20
5.478728
30
0.0
11
4.264792
21
5.654389
31
0.0
0
LINE
8
0
6
CONTINUOUS
10
4.327422
20
5.432799
30
0.0
11
4.391228
21
5.478728
31
0.0
0
LINE
8
0
6
CONTINUOUS
10
4.283954
20
5.493191
30
0.0
11
4.327422
21
5.432799
31
0.0
0
LINE
8
0
6
CONTINUOUS
10
3.454188
20
4.812445
30
0.0
11
3.623589
21
4.934371
31
0.0
0
LINE
8
0
6
CONTINUOUS
10
3.454188
20
4.812445
30
0.0
11
3.318604
21
5.000814
31
0.0
0
LINE
8
0
6
CONTINUOUS
10
3.358657
20
4.743682
30
0.0
11
3.454188
21
4.812445
31
0.0
0
LINE
8
0
6
CONTINUOUS
10
3.300559
20
4.824400
30
0.0
11
3.358657
21
4.743682
31
0.0
0
LINE
8
0
6
CONTINUOUS
10
2.679625
20
4.236853
30
0.0
11
2.841523
21
4.353377
31
0.0
0
LINE
8
0
6
CONTINUOUS
10
2.790464
20
4.424315
30
0.0
11
2.841523
21
4.353377
31
0.0
0
LINE
8
0
6
CONTINUOUS
10
2.877949
20
4.379599
30
0.0
11
2.863858
21
4.399176
31
0.0
0
LINE
8
0
6
CONTINUOUS
10
2.841523
20
4.353377
30
0.0
11
2.877949
21
4.379599
31
0.0
0
LINE
8
0
6
CONTINUOUS
10
2.679625
20
4.236853
30
0.0
11
2.528606
21
4.446668
31
0.0
0
LINE
8
0
6
CONTINUOUS
10
2.554154
20
4.146544
30
0.0
11
2.679625
21
4.236853
31
0.0
0
LINE
8
0
6
CONTINUOUS
10
2.478787
20
4.251254
30
0.0
11
2.554154
21
4.146544
31
0.0
0
LINE
8
0
6
CONTINUOUS
10
2.129227
20
3.759757
30
0.0
11
2.255595
21
3.850714
31
0.0
0
LINE
8
0
6
CONTINUOUS
10
1.967740
20
3.643523
30
0.0
11
2.129227
21
3.759757
31
0.0
0
LINE
8
0
6
CONTINUOUS
10
1.861342
20
3.717277
30
0.0
11
1.932622
21
3.618247
31
0.0
0
LINE
8
0
6
CONTINUOUS
10
1.967740
20
3.643523
30
0.0
11
1.872322
21
3.776090
31
0.0
0
LINE
8
0
6
CONTINUOUS
10
1.932622
20
3.618247
30
0.0
11
1.967740
21
3.643523
31
0.0
0
LINE
8
0
6
CONTINUOUS
10
1.733584
20
3.369117
30
0.0
11
1.833213
21
3.440825
31
0.0
0
LINE
8
0
6
CONTINUOUS
10
1.564624
20
3.247504
30
0.0
11
1.733584
21
3.369117
31
0.0
0
LINE
8
0
6
CONTINUOUS
10
1.403985
20
3.324454
30
0.0
11
1.495291
21
3.197600
31
0.0
0
LINE
8
0
6
CONTINUOUS
10
1.564624
20
3.247504
30
0.0
11
1.467892
21
3.381897
31
0.0
0
LINE
8
0
6
CONTINUOUS
10
1.495291
20
3.197600
30
0.0
11
1.564624
21
3.247504
31
0.0
0
LINE
8
0
6
CONTINUOUS
10
2.192992
20
3.478148
30
0.0
11
2.157486
21
3.527477
31
0.0
0
LINE
8
0
6
CONTINUOUS
10
2.093364
20
3.406440
30
0.0
11
2.192992
21
3.478148
31
0.0
0
LINE
8
0
6
CONTINUOUS
10
2.093364
20
3.406440
30
0.0
11
2.044611
21
3.474173
31
0.0
0
LINE
8
0
6
CONTINUOUS
10
1.924403
20
3.284827
30
0.0
11
2.093364
21
3.406440
31
0.0
0
LINE
8
0
6
CONTINUOUS
10
1.755523
20
3.373228
30
0.0
11
1.855071
21
3.234923
31
0.0
0
LINE
8
0
6
CONTINUOUS
10
1.924403
20
3.284827
30
0.0
11
1.828125
21
3.418590
31
0.0
0
LINE
8
0
6
CONTINUOUS
10
1.855071
20
3.234923
30
0.0
11
1.924403
21
3.284827
31
0.0
0
LINE
8
0
6
CONTINUOUS
10
2.282099
20
3.614966
30
0.0
11
2.408469
21
3.705924
31
0.0
0
LINE
8
0
6
CONTINUOUS
10
2.025613
20
3.630716
30
0.0
11
2.120612
21
3.498732
31
0.0
0
LINE
8
0
6
CONTINUOUS
10
2.282099
20
3.614966
30
0.0
11
2.205542
21
3.721330
31
0.0
0
LINE
8
0
6
CONTINUOUS
10
2.120612
20
3.498732
30
0.0
11
2.282099
21
3.614966
31
0.0
0
LINE
8
0
6
CONTINUOUS
10
2.773558
20
4.042197
30
0.0
11
2.920998
21
4.148322
31
0.0
0
LINE
8
0
6
CONTINUOUS
10
2.626788
20
3.936553
30
0.0
11
2.773558
21
4.042197
31
0.0
0
LINE
8
0
6
CONTINUOUS
10
2.545876
20
4.048967
30
0.0
11
2.626788
21
3.936553
31
0.0
0
LINE
8
0
6
CONTINUOUS
10
3.429623
20
4.572341
30
0.0
11
3.591519
21
4.688864
31
0.0
0
LINE
8
0
6
CONTINUOUS
10
3.544016
20
4.754861
30
0.0
11
3.591519
21
4.688864
31
0.0
0
LINE
8
0
6
CONTINUOUS
10
3.627948
20
4.715087
30
0.0
11
3.612780
21
4.736161
31
0.0
0
LINE
8
0
6
CONTINUOUS
10
3.591519
20
4.688864
30
0.0
11
3.627948
21
4.715087
31
0.0
0
LINE
8
0
6
CONTINUOUS
10
3.304152
20
4.482032
30
0.0
11
3.429623
21
4.572341
31
0.0
0
LINE
8
0
6
CONTINUOUS
10
3.240117
20
4.570997
30
0.0
11
3.304152
21
4.482032
31
0.0
0
LINE
8
0
6
CONTINUOUS
10
4.225329
20
5.306386
30
0.0
11
4.296239
21
5.207869
31
0.0
0
LINE
8
0
6
CONTINUOUS
10
4.296239
20
5.207869
30
0.0
11
4.465644
21
5.329802
31
0.0
0
LINE
8
0
6
CONTINUOUS
10
4.405565
20
5.413271
30
0.0
11
4.465644
21
5.329802
31
0.0
0
LINE
8
0
6
CONTINUOUS
10
4.539517
20
5.382979
30
0.0
11
4.514147
21
5.418227
31
0.0
0
LINE
8
0
6
CONTINUOUS
10
4.465644
20
5.329802
30
0.0
11
4.539517
21
5.382979
31
0.0
0
LINE
8
0
6
CONTINUOUS
10
5.099038
20
5.589240
30
0.0
11
5.268441
21
5.711173
31
0.0
0
LINE
8
0
6
CONTINUOUS
10
5.342314
20
5.764342
30
0.0
11
5.304871
21
5.816362
31
0.0
0
LINE
8
0
6
CONTINUOUS
10
5.268441
20
5.711173
30
0.0
11
5.342314
21
5.764342
31
0.0
0
LINE
8
0
6
CONTINUOUS
10
5.003510
20
5.520484
30
0.0
11
5.099038
21
5.589240
31
0.0
0
LINE
8
0
6
CONTINUOUS
10
4.957125
20
5.584928
30
0.0
11
5.003510
21
5.520484
31
0.0
0
LINE
8
0
6
CONTINUOUS
10
4.198373
20
4.947837
30
0.0
11
4.360270
21
5.064368
31
0.0
0
LINE
8
0
6
CONTINUOUS
10
4.072903
20
4.857527
30
0.0
11
4.198373
21
4.947837
31
0.0
0
LINE
8
0
6
CONTINUOUS
10
4.015671
20
4.937041
30
0.0
11
4.072903
21
4.857527
31
0.0
0
LINE
8
0
6
CONTINUOUS
10
3.418448
20
4.369651
30
0.0
11
3.565886
21
4.475775
31
0.0
0
LINE
8
0
6
CONTINUOUS
10
3.198471
20
4.365720
30
0.0
11
3.271676
21
4.264014
31
0.0
0
LINE
8
0
6
CONTINUOUS
10
3.418448
20
4.369651
30
0.0
11
3.346610
21
4.469457
31
0.0
0
LINE
8
0
6
CONTINUOUS
10
3.271676
20
4.264014
30
0.0
11
3.418448
21
4.369651
31
0.0
0
LINE
8
0
6
CONTINUOUS
10
2.922301
20
3.926078
30
0.0
11
3.048669
21
4.017035
31
0.0
0
LINE
8
0
6
CONTINUOUS
10
2.760812
20
3.809844
30
0.0
11
2.922301
21
3.926078
31
0.0
0
LINE
8
0
6
CONTINUOUS
10
2.649922
20
3.889838
30
0.0
11
2.725693
21
3.784568
31
0.0
0
LINE
8
0
6
CONTINUOUS
10
2.760812
20
3.809844
30
0.0
11
2.677942
21
3.924979
31
0.0
0
LINE
8
0
6
CONTINUOUS
10
2.725693
20
3.784568
30
0.0
11
2.760812
21
3.809844
31
0.0
0
LINE
8
0
6
CONTINUOUS
10
2.714411
20
3.733168
30
0.0
11
2.673900
21
3.789451
31
0.0
0
LINE
8
0
6
CONTINUOUS
10
2.614783
20
3.661460
30
0.0
11
2.714411
21
3.733168
31
0.0
0
LINE
8
0
6
CONTINUOUS
10
2.614783
20
3.661460
30
0.0
11
2.563595
21
3.732576
31
0.0
0
LINE
8
0
6
CONTINUOUS
10
2.445821
20
3.539847
30
0.0
11
2.614783
21
3.661460
31
0.0
0
LINE
8
0
6
CONTINUOUS
10
2.284185
20
3.618182
30
0.0
11
2.376488
21
3.489943
31
0.0
0
LINE
8
0
6
CONTINUOUS
10
2.445821
20
3.539847
30
0.0
11
2.356555
21
3.663865
31
0.0
0
LINE
8
0
6
CONTINUOUS
10
2.376488
20
3.489943
30
0.0
11
2.445821
21
3.539847
31
0.0
0
LINE
8
0
6
CONTINUOUS
10
7.695341
20
7.462838
30
0.0
11
7.726786
21
7.419150
31
0.0
0
LINE
8
0
6
CONTINUOUS
10
7.726786
20
7.419150
30
0.0
11
7.796117
21
7.469054
31
0.0
0
LINE
8
0
6
CONTINUOUS
10
7.752406
20
7.529784
30
0.0
11
7.796117
21
7.469054
31
0.0
0
LINE
8
0
6
CONTINUOUS
10
7.965077
20
7.590667
30
0.0
11
7.901675
21
7.678753
31
0.0
0
LINE
8
0
6
CONTINUOUS
10
7.796117
20
7.469054
30
0.0
11
7.965077
21
7.590667
31
0.0
0
LINE
8
0
6
CONTINUOUS
10
7.345583
20
7.200515
30
0.0
11
7.388312
21
7.141150
31
0.0
0
LINE
8
0
6
CONTINUOUS
10
7.388312
20
7.141150
30
0.0
11
7.423428
21
7.166419
31
0.0
0
LINE
8
0
6
CONTINUOUS
10
7.360692
20
7.253582
30
0.0
11
7.423428
21
7.166419
31
0.0
0
LINE
8
0
6
CONTINUOUS
10
7.423428
20
7.166419
30
0.0
11
7.584918
21
7.282660
31
0.0
0
LINE
8
0
6
CONTINUOUS
10
7.498079
20
7.403309
30
0.0
11
7.584918
21
7.282660
31
0.0
0
LINE
8
0
6
CONTINUOUS
10
7.711287
20
7.373610
30
0.0
11
7.620348
21
7.499958
31
0.0
0
LINE
8
0
6
CONTINUOUS
10
7.584918
20
7.282660
30
0.0
11
7.711287
21
7.373610
31
0.0
0
LINE
8
0
6
CONTINUOUS
10
6.770003
20
6.821445
30
0.0
11
6.829633
21
6.738600
31
0.0
0
LINE
8
0
6
CONTINUOUS
10
6.976403
20
6.844245
30
0.0
11
6.887505
21
6.967754
31
0.0
0
LINE
8
0
6
CONTINUOUS
10
6.829633
20
6.738600
30
0.0
11
6.976403
21
6.844245
31
0.0
0
LINE
8
0
6
CONTINUOUS
10
7.033560
20
7.075792
30
0.0
11
7.123841
21
6.950362
31
0.0
0
LINE
8
0
6
CONTINUOUS
10
7.124511
20
6.950843
30
0.0
11
7.049611
21
7.054907
31
0.0
0
LINE
8
0
6
CONTINUOUS
10
5.900434
20
6.261886
30
0.0
11
5.985514
21
6.143683
31
0.0
0
LINE
8
0
6
CONTINUOUS
10
5.985514
20
6.143683
30
0.0
11
6.110984
21
6.233992
31
0.0
0
LINE
8
0
6
CONTINUOUS
10
6.010752
20
6.373248
30
0.0
11
6.110984
21
6.233992
31
0.0
0
LINE
8
0
6
CONTINUOUS
10
6.110984
20
6.233992
30
0.0
11
6.272881
21
6.350524
31
0.0
0
LINE
8
0
6
CONTINUOUS
10
6.176567
20
6.484337
30
0.0
11
6.272881
21
6.350524
31
0.0
0
LINE
8
0
6
CONTINUOUS
10
6.309310
20
6.376746
30
0.0
11
6.232064
21
6.484065
31
0.0
0
LINE
8
0
6
CONTINUOUS
10
6.272881
20
6.350524
30
0.0
11
6.309310
21
6.376746
31
0.0
0
LINE
8
0
6
CONTINUOUS
10
5.145433
20
5.871909
30
0.0
11
5.233878
21
5.749030
31
0.0
0
LINE
8
0
6
CONTINUOUS
10
5.233878
20
5.749030
30
0.0
11
5.329407
21
5.817794
31
0.0
0
LINE
8
0
6
CONTINUOUS
10
5.209597
20
5.984250
30
0.0
11
5.329407
21
5.817794
31
0.0
0
LINE
8
0
6
CONTINUOUS
10
5.498811
20
5.939727
30
0.0
11
5.379137
21
6.105995
31
0.0
0
LINE
8
0
6
CONTINUOUS
10
5.329407
20
5.817794
30
0.0
11
5.498811
21
5.939727
31
0.0
0
LINE
8
0
6
CONTINUOUS
10
6.098140
20
6.518432
30
0.0
11
6.173730
21
6.413413
31
0.0
0
LINE
8
0
6
CONTINUOUS
10
6.173730
20
6.413413
30
0.0
11
6.299201
21
6.503722
31
0.0
0
LINE
8
0
6
CONTINUOUS
10
6.195783
20
6.647404
30
0.0
11
6.299201
21
6.503722
31
0.0
0
LINE
8
0
6
CONTINUOUS
10
6.299201
20
6.503722
30
0.0
11
6.461097
21
6.620246
31
0.0
0
LINE
8
0
6
CONTINUOUS
10
6.356737
20
6.765240
30
0.0
11
6.461097
21
6.620246
31
0.0
0
LINE
8
0
6
CONTINUOUS
10
6.497525
20
6.646468
30
0.0
11
6.412592
21
6.764468
31
0.0
0
LINE
8
0
6
CONTINUOUS
10
6.461097
20
6.620246
30
0.0
11
6.497525
21
6.646468
31
0.0
0
LINE
8
0
6
CONTINUOUS
10
6.932979
20
7.138660
30
0.0
11
7.012784
21
7.027785
31
0.0
0
LINE
8
0
6
CONTINUOUS
10
7.012784
20
7.027785
30
0.0
11
7.159552
21
7.133429
31
0.0
0
LINE
8
0
6
CONTINUOUS
10
7.062835
20
7.267802
30
0.0
11
7.159552
21
7.133429
31
0.0
0
LINE
8
0
6
CONTINUOUS
10
7.159552
20
7.133429
30
0.0
11
7.306992
21
7.239554
31
0.0
0
LINE
8
0
6
CONTINUOUS
10
7.208922
20
7.375806
30
0.0
11
7.306992
21
7.239554
31
0.0
0
LINE
8
0
6
CONTINUOUS
10
7.307664
20
7.240035
30
0.0
11
7.225098
21
7.354745
31
0.0
0
LINE
8
0
6
CONTINUOUS
10
8.035574
20
7.826468
30
0.0
11
8.062867
21
7.788550
31
0.0
0
LINE
8
0
6
CONTINUOUS
10
8.062867
20
7.788550
30
0.0
11
8.132199
21
7.838454
31
0.0
0
LINE
8
0
6
CONTINUOUS
10
8.093185
20
7.892657
30
0.0
11
8.132199
21
7.838454
31
0.0
0
LINE
8
0
6
CONTINUOUS
10
8.132199
20
7.838454
30
0.0
11
8.301160
21
7.960067
31
0.0
0
LINE
8
0
6
CONTINUOUS
10
8.240733
20
8.044019
30
0.0
11
8.301160
21
7.960067
31
0.0
0
LINE
8
0
6
CONTINUOUS
10
8.400788
20
8.031775
30
0.0
11
8.330035
21
8.130073
31
0.0
0
LINE
8
0
6
CONTINUOUS
10
8.301160
20
7.960067
30
0.0
11
8.400788
21
8.031775
31
0.0
0
LINE
8
0
6
CONTINUOUS
10
3.846068
20
4.493911
30
0.0
11
3.875230
21
4.514899
31
0.0
0
LINE
8
0
6
CONTINUOUS
10
3.875230
20
4.514899
30
0.0
11
3.817699
21
4.594828
31
0.0
0
LINE
8
0
6
CONTINUOUS
10
3.734986
20
4.413954
30
0.0
11
3.846068
21
4.493911
31
0.0
0
LINE
8
0
6
CONTINUOUS
10
3.701849
20
4.459993
30
0.0
11
3.734986
21
4.413954
31
0.0
0
LINE
8
0
6
CONTINUOUS
10
3.540051
20
4.179076
30
0.0
11
3.490990
21
4.247238
31
0.0
0
LINE
8
0
6
CONTINUOUS
10
3.479787
20
4.135695
30
0.0
11
3.540051
21
4.179076
31
0.0
0
LINE
8
0
6
CONTINUOUS
10
3.426355
20
4.209929
30
0.0
11
3.479787
21
4.135695
31
0.0
0
LINE
8
0
6
CONTINUOUS
10
3.864464
20
4.545703
30
0.0
11
3.919705
21
4.468955
31
0.0
0
LINE
8
0
6
CONTINUOUS
10
3.979962
20
4.512328
30
0.0
11
3.937320
21
4.571572
31
0.0
0
LINE
8
0
6
CONTINUOUS
10
3.919705
20
4.468955
30
0.0
11
3.979962
21
4.512328
31
0.0
0
LINE
8
0
6
CONTINUOUS
10
4.021102
20
4.582312
30
0.0
11
4.081403
21
4.498534
31
0.0
0
LINE
8
0
6
CONTINUOUS
10
4.081403
20
4.498534
30
0.0
11
4.201922
21
4.585280
31
0.0
0
LINE
8
0
6
CONTINUOUS
10
4.150611
20
4.656568
30
0.0
11
4.201922
21
4.585280
31
0.0
0
LINE
8
0
6
CONTINUOUS
10
4.262177
20
4.628653
30
0.0
11
4.218484
21
4.689357
31
0.0
0
LINE
8
0
6
CONTINUOUS
10
4.201922
20
4.585280
30
0.0
11
4.262177
21
4.628653
31
0.0
0
LINE
8
0
6
CONTINUOUS
10
4.925725
20
5.054427
30
0.0
11
5.046244
21
5.141173
31
0.0
0
LINE
8
0
6
CONTINUOUS
10
5.013759
20
5.186306
30
0.0
11
5.046244
21
5.141173
31
0.0
0
LINE
8
0
6
CONTINUOUS
10
5.106499
20
5.184539
30
0.0
11
5.074561
21
5.228912
31
0.0
0
LINE
8
0
6
CONTINUOUS
10
5.046244
20
5.141173
30
0.0
11
5.106499
21
5.184539
31
0.0
0
LINE
8
0
6
CONTINUOUS
10
4.925725
20
5.054427
30
0.0
11
4.892141
21
5.101086
31
0.0
0
LINE
8
0
6
CONTINUOUS
10
4.865460
20
5.011046
30
0.0
11
4.925725
21
5.054427
31
0.0
0
LINE
8
0
6
CONTINUOUS
10
4.809819
20
5.088349
30
0.0
11
4.865460
21
5.011046
31
0.0
0
LINE
8
0
6
CONTINUOUS
10
4.362469
20
4.788497
30
0.0
11
4.482989
21
4.875243
31
0.0
0
LINE
8
0
6
CONTINUOUS
10
4.423894
20
4.957346
30
0.0
11
4.482989
21
4.875243
31
0.0
0
LINE
8
0
6
CONTINUOUS
10
4.543246
20
4.918608
30
0.0
11
4.495276
21
4.985254
31
0.0
0
LINE
8
0
6
CONTINUOUS
10
4.482989
20
4.875243
30
0.0
11
4.543246
21
4.918608
31
0.0
0
LINE
8
0
6
CONTINUOUS
10
4.244908
20
4.824720
30
0.0
11
4.302205
21
4.745116
31
0.0
0
LINE
8
0
6
CONTINUOUS
10
4.362469
20
4.788497
30
0.0
11
4.300193
21
4.875019
31
0.0
0
LINE
8
0
6
CONTINUOUS
10
4.302205
20
4.745116
30
0.0
11
4.362469
21
4.788497
31
0.0
0
LINE
8
0
6
CONTINUOUS
10
4.961282
20
5.138800
30
0.0
11
5.081803
21
5.225547
31
0.0
0
LINE
8
0
6
CONTINUOUS
10
5.022523
20
5.307906
30
0.0
11
5.081803
21
5.225547
31
0.0
0
LINE
8
0
6
CONTINUOUS
10
5.142058
20
5.268920
30
0.0
11
5.093908
21
5.335815
31
0.0
0
LINE
8
0
6
CONTINUOUS
10
5.081803
20
5.225547
30
0.0
11
5.142058
21
5.268920
31
0.0
0
LINE
8
0
6
CONTINUOUS
10
4.961282
20
5.138800
30
0.0
11
4.876286
21
5.256887
31
0.0
0
LINE
8
0
6
CONTINUOUS
10
4.901019
20
5.095427
30
0.0
11
4.961282
21
5.138800
31
0.0
0
LINE
8
0
6
CONTINUOUS
10
4.849026
20
5.167663
30
0.0
11
4.901019
21
5.095427
31
0.0
0
LINE
8
0
6
CONTINUOUS
10
4.569098
20
4.874721
30
0.0
11
4.615613
21
4.810096
31
0.0
0
LINE
8
0
6
CONTINUOUS
10
4.615613
20
4.810096
30
0.0
11
4.736132
21
4.896842
31
0.0
0
LINE
8
0
6
CONTINUOUS
10
4.678383
20
4.977073
30
0.0
11
4.736132
21
4.896842
31
0.0
0
LINE
8
0
6
CONTINUOUS
10
4.796387
20
4.940207
30
0.0
11
4.742496
21
5.015079
31
0.0
0
LINE
8
0
6
CONTINUOUS
10
4.736132
20
4.896842
30
0.0
11
4.796387
21
4.940207
31
0.0
0
LINE
8
0
6
CONTINUOUS
10
5.046267
20
5.301886
30
0.0
11
5.166787
21
5.388633
31
0.0
0
LINE
8
0
6
CONTINUOUS
10
5.109268
20
5.468546
30
0.0
11
5.166787
21
5.388633
31
0.0
0
LINE
8
0
6
CONTINUOUS
10
5.227044
20
5.432006
30
0.0
11
5.180002
21
5.497362
31
0.0
0
LINE
8
0
6
CONTINUOUS
10
5.166787
20
5.388633
30
0.0
11
5.227044
21
5.432006
31
0.0
0
LINE
8
0
6
CONTINUOUS
10
5.046267
20
5.301886
30
0.0
11
5.009631
21
5.352785
31
0.0
0
LINE
8
0
6
CONTINUOUS
10
4.986003
20
5.258506
30
0.0
11
5.046267
21
5.301886
31
0.0
0
LINE
8
0
6
CONTINUOUS
10
4.933734
20
5.331125
30
0.0
11
4.986003
21
5.258506
31
0.0
0
LINE
8
0
6
CONTINUOUS
10
5.833019
20
5.979980
30
0.0
11
5.914134
21
5.867285
31
0.0
0
LINE
8
0
6
CONTINUOUS
10
5.974389
20
5.910651
30
0.0
11
5.900735
21
6.012983
31
0.0
0
LINE
8
0
6
CONTINUOUS
10
5.914134
20
5.867285
30
0.0
11
5.974389
21
5.910651
31
0.0
0
LINE
8
0
6
CONTINUOUS
10
5.390871
20
5.504115
30
0.0
11
5.450099
21
5.421828
31
0.0
0
LINE
8
0
6
CONTINUOUS
10
5.450099
20
5.421828
30
0.0
11
5.570616
21
5.508574
31
0.0
0
LINE
8
0
6
CONTINUOUS
10
5.512853
20
5.588826
30
0.0
11
5.570616
21
5.508574
31
0.0
0
LINE
8
0
6
CONTINUOUS
10
5.570616
20
5.508574
30
0.0
11
5.630873
21
5.551947
31
0.0
0
LINE
8
0
6
CONTINUOUS
10
5.506058
20
5.614584
30
0.0
11
5.566903
21
5.530051
31
0.0
0
LINE
8
0
6
CONTINUOUS
10
5.566903
20
5.530051
30
0.0
11
5.627167
21
5.573424
31
0.0
0
LINE
8
0
6
CONTINUOUS
10
5.557134
20
5.670723
30
0.0
11
5.627167
21
5.573424
31
0.0
0
LINE
8
0
6
CONTINUOUS
10
5.627167
20
5.573424
30
0.0
11
5.747685
21
5.660178
31
0.0
0
LINE
8
0
6
CONTINUOUS
10
5.680268
20
5.753841
30
0.0
11
5.747685
21
5.660178
31
0.0
0
LINE
8
0
6
CONTINUOUS
10
5.807942
20
5.703543
30
0.0
11
5.750999
21
5.782655
31
0.0
0
LINE
8
0
6
CONTINUOUS
10
5.747685
20
5.660178
30
0.0
11
5.807942
21
5.703543
31
0.0
0
LINE
8
0
6
CONTINUOUS
10
6.471848
20
6.434084
30
0.0
11
6.546588
21
6.330245
31
0.0
0
LINE
8
0
6
CONTINUOUS
10
6.606845
20
6.373610
30
0.0
11
6.539563
21
6.467087
31
0.0
0
LINE
8
0
6
CONTINUOUS
10
6.546588
20
6.330245
30
0.0
11
6.606845
21
6.373610
31
0.0
0
LINE
8
0
6
CONTINUOUS
10
6.063871
20
6.009458
30
0.0
11
6.107093
21
5.949408
31
0.0
0
LINE
8
0
6
CONTINUOUS
10
6.107093
20
5.949408
30
0.0
11
6.167357
21
5.992781
31
0.0
0
LINE
8
0
6
CONTINUOUS
10
6.117543
20
6.061989
30
0.0
11
6.167357
21
5.992781
31
0.0
0
LINE
8
0
6
CONTINUOUS
10
6.167357
20
5.992781
30
0.0
11
6.287877
21
6.079528
31
0.0
0
LINE
8
0
6
CONTINUOUS
10
6.231048
20
6.158483
30
0.0
11
6.287877
21
6.079528
31
0.0
0
LINE
8
0
6
CONTINUOUS
10
6.348134
20
6.122901
30
0.0
11
6.290377
21
6.203143
31
0.0
0
LINE
8
0
6
CONTINUOUS
10
6.287877
20
6.079528
30
0.0
11
6.348134
21
6.122901
31
0.0
0
LINE
8
0
6
CONTINUOUS
10
5.788510
20
5.759161
30
0.0
11
5.840970
21
5.686278
31
0.0
0
LINE
8
0
6
CONTINUOUS
10
5.840970
20
5.686278
30
0.0
11
5.901234
21
5.729659
31
0.0
0
LINE
8
0
6
CONTINUOUS
10
5.846606
20
5.805555
30
0.0
11
5.901234
21
5.729659
31
0.0
0
LINE
8
0
6
CONTINUOUS
10
6.021752
20
5.816405
30
0.0
11
5.961554
21
5.900040
31
0.0
0
LINE
8
0
6
CONTINUOUS
10
5.901234
20
5.729659
30
0.0
11
6.021752
21
5.816405
31
0.0
0
LINE
8
0
6
CONTINUOUS
10
6.398949
20
6.234671
30
0.0
11
6.427075
21
6.195594
31
0.0
0
LINE
8
0
6
CONTINUOUS
10
6.487340
20
6.238967
30
0.0
11
6.455350
21
6.283412
31
0.0
0
LINE
8
0
6
CONTINUOUS
10
6.427075
20
6.195594
30
0.0
11
6.487340
21
6.238967
31
0.0
0
LINE
8
0
6
CONTINUOUS
10
6.568146
20
6.380890
30
0.0
11
6.607861
21
6.325713
31
0.0
0
LINE
8
0
6
CONTINUOUS
10
6.668116
20
6.369086
30
0.0
11
6.613358
21
6.445163
31
0.0
0
LINE
8
0
6
CONTINUOUS
10
6.607861
20
6.325713
30
0.0
11
6.668116
21
6.369086
31
0.0
0
LINE
8
0
6
CONTINUOUS
10
6.737218
20
6.574103
30
0.0
11
6.773225
21
6.524077
31
0.0
0
LINE
8
0
6
CONTINUOUS
10
6.773225
20
6.524077
30
0.0
11
6.833489
21
6.567458
31
0.0
0
LINE
8
0
6
CONTINUOUS
10
6.791396
20
6.625939
30
0.0
11
6.833489
21
6.567458
31
0.0
0
LINE
8
0
6
CONTINUOUS
10
6.954009
20
6.654204
30
0.0
11
6.904900
21
6.722433
31
0.0
0
LINE
8
0
6
CONTINUOUS
10
6.833489
20
6.567458
30
0.0
11
6.954009
21
6.654204
31
0.0
0
LINE
8
0
6
CONTINUOUS
10
8.624200
20
8.469979
30
0.0
11
8.675832
21
8.398246
31
0.0
0
LINE
8
0
6
CONTINUOUS
10
8.675832
20
8.398246
30
0.0
11
8.844685
21
8.519782
31
0.0
0
LINE
8
0
6
CONTINUOUS
10
8.759897
20
8.637580
30
0.0
11
8.844685
21
8.519782
31
0.0
0
LINE
8
0
6
CONTINUOUS
10
8.913108
20
8.569030
30
0.0
11
8.818924
21
8.699883
31
0.0
0
LINE
8
0
6
CONTINUOUS
10
8.844685
20
8.519782
30
0.0
11
8.913108
21
8.569030
31
0.0
0
LINE
8
0
6
CONTINUOUS
10
8.282860
20
8.163201
30
0.0
11
8.319072
21
8.112891
31
0.0
0
LINE
8
0
6
CONTINUOUS
10
8.319072
20
8.112891
30
0.0
11
8.388402
21
8.162795
31
0.0
0
LINE
8
0
6
CONTINUOUS
10
8.324975
20
8.250917
30
0.0
11
8.388402
21
8.162795
31
0.0
0
LINE
8
0
6
CONTINUOUS
10
8.388402
20
8.162795
30
0.0
11
8.557364
21
8.284407
31
0.0
0
LINE
8
0
6
CONTINUOUS
10
8.460395
20
8.419129
30
0.0
11
8.557364
21
8.284407
31
0.0
0
LINE
8
0
6
CONTINUOUS
10
8.656993
20
8.356116
30
0.0
11
8.551965
21
8.502035
31
0.0
0
LINE
8
0
6
CONTINUOUS
10
8.557364
20
8.284407
30
0.0
11
8.656993
21
8.356116
31
0.0
0
LINE
8
0
6
CONTINUOUS
10
7.817834
20
7.886627
30
0.0
11
7.890832
21
7.785208
31
0.0
0
LINE
8
0
6
CONTINUOUS
10
7.890832
20
7.785208
30
0.0
11
8.052321
21
7.901442
31
0.0
0
LINE
8
0
6
CONTINUOUS
10
7.944972
20
8.050584
30
0.0
11
8.052321
21
7.901442
31
0.0
0
LINE
8
0
6
CONTINUOUS
10
8.178687
20
7.992400
30
0.0
11
8.064118
21
8.151574
31
0.0
0
LINE
8
0
6
CONTINUOUS
10
8.052321
20
7.901442
30
0.0
11
8.178687
21
7.992400
31
0.0
0
LINE
8
0
6
CONTINUOUS
10
7.213107
20
7.523816
30
0.0
11
7.302106
21
7.400168
31
0.0
0
LINE
8
0
6
CONTINUOUS
10
7.302106
20
7.400168
30
0.0
11
7.464003
21
7.516700
31
0.0
0
LINE
8
0
6
CONTINUOUS
10
7.364318
20
7.655195
30
0.0
11
7.464003
21
7.516700
31
0.0
0
LINE
8
0
6
CONTINUOUS
10
7.500430
20
7.542914
30
0.0
11
7.425218
21
7.647409
31
0.0
0
LINE
8
0
6
CONTINUOUS
10
7.464003
20
7.516700
30
0.0
11
7.500430
21
7.542914
31
0.0
0
LINE
8
0
6
CONTINUOUS
10
6.257879
20
6.839784
30
0.0
11
6.334069
21
6.733931
31
0.0
0
LINE
8
0
6
CONTINUOUS
10
6.429597
20
6.802687
30
0.0
11
6.317006
21
6.959113
31
0.0
0
LINE
8
0
6
CONTINUOUS
10
6.334069
20
6.733931
30
0.0
11
6.429597
21
6.802687
31
0.0
0
LINE
8
0
6
CONTINUOUS
10
5.275003
20
6.175189
30
0.0
11
5.358144
21
6.059676
31
0.0
0
LINE
8
0
6
CONTINUOUS
10
5.421948
20
6.105605
30
0.0
11
5.311805
21
6.258630
31
0.0
0
LINE
8
0
6
CONTINUOUS
10
5.358144
20
6.059676
30
0.0
11
5.421948
21
6.105605
31
0.0
0
LINE
8
0
6
CONTINUOUS
10
5.477820
20
6.382812
30
0.0
11
5.590186
21
6.226699
31
0.0
0
LINE
8
0
6
CONTINUOUS
10
5.694617
20
6.301863
30
0.0
11
5.607030
21
6.423551
31
0.0
0
LINE
8
0
6
CONTINUOUS
10
5.590186
20
6.226699
30
0.0
11
5.694617
21
6.301863
31
0.0
0
LINE
8
0
6
CONTINUOUS
10
7.314126
20
7.079429
30
0.0
11
7.339135
21
7.044684
31
0.0
0
LINE
8
0
6
CONTINUOUS
10
7.339135
20
7.044684
30
0.0
11
7.396729
21
7.086135
31
0.0
0
LINE
8
0
6
CONTINUOUS
10
7.379062
20
7.110681
30
0.0
11
7.396729
21
7.086135
31
0.0
0
LINE
8
0
6
CONTINUOUS
10
7.396729
20
7.086135
30
0.0
11
7.511910
21
7.169043
31
0.0
0
LINE
8
0
6
CONTINUOUS
10
6.292247
20
6.268126
30
0.0
11
6.349831
21
6.309577
31
0.0
0
LINE
8
0
6
CONTINUOUS
10
7.381751
20
7.067656
30
0.0
11
7.439343
21
7.109107
31
0.0
0
LINE
8
0
6
CONTINUOUS
10
6.642169
20
6.517615
30
0.0
11
6.699763
21
6.559066
31
0.0
0
LINE
8
0
6
CONTINUOUS
10
6.699763
20
6.559066
30
0.0
11
6.814946
21
6.641974
31
0.0
0
LINE
8
0
6
CONTINUOUS
10
6.471255
20
6.399779
30
0.0
11
6.586436
21
6.482680
31
0.0
0
LINE
8
0
6
CONTINUOUS
10
6.586436
20
6.482680
30
0.0
11
6.644025
21
6.524131
31
0.0
0
LINE
8
0
6
CONTINUOUS
10
6.017199
20
6.058852
30
0.0
11
6.074786
21
6.100302
31
0.0
0
LINE
8
0
6
CONTINUOUS
10
4.658375
20
5.071051
30
0.0
11
4.687535
21
5.092040
31
0.0
0
LINE
8
0
6
CONTINUOUS
10
4.687535
20
5.092040
30
0.0
11
4.622029
21
5.183049
31
0.0
0
LINE
8
0
6
CONTINUOUS
10
4.547292
20
4.991095
30
0.0
11
4.658375
21
5.071051
31
0.0
0
LINE
8
0
6
CONTINUOUS
10
4.465375
20
4.932135
30
0.0
11
4.547292
21
4.991095
31
0.0
0
LINE
8
0
6
CONTINUOUS
10
4.428866
20
4.982858
30
0.0
11
4.465375
21
4.932135
31
0.0
0
LINE
8
0
6
CONTINUOUS
10
3.131135
20
3.937499
30
0.0
11
3.160294
21
3.958487
31
0.0
0
LINE
8
0
6
CONTINUOUS
10
3.020053
20
3.857543
30
0.0
11
3.131135
21
3.937499
31
0.0
0
LINE
8
0
6
CONTINUOUS
10
3.173352
20
3.978354
30
0.0
11
3.202513
21
3.999343
31
0.0
0
LINE
8
0
6
CONTINUOUS
10
3.202513
20
3.999343
30
0.0
11
3.146595
21
4.077032
31
0.0
0
LINE
8
0
6
CONTINUOUS
10
3.062272
20
3.898406
30
0.0
11
3.173352
21
3.978354
31
0.0
0
LINE
8
0
6
CONTINUOUS
10
3.173352
20
3.978354
30
0.0
11
3.111787
21
4.063888
31
0.0
0
LINE
8
0
6
CONTINUOUS
10
2.980351
20
3.839438
30
0.0
11
3.062272
21
3.898406
31
0.0
0
LINE
8
0
6
CONTINUOUS
10
2.920352
20
3.922797
30
0.0
11
2.980351
21
3.839438
31
0.0
0
LINE
8
0
6
CONTINUOUS
10
3.062272
20
3.898406
30
0.0
11
2.991918
21
3.996151
31
0.0
0
LINE
8
0
6
CONTINUOUS
10
4.103284
20
4.678717
30
0.0
11
4.132443
21
4.699706
31
0.0
0
LINE
8
0
6
CONTINUOUS
10
4.070093
20
4.724830
30
0.0
11
4.103284
21
4.678717
31
0.0
0
LINE
8
0
6
CONTINUOUS
10
4.132443
20
4.699706
30
0.0
11
4.075677
21
4.778573
31
0.0
0
LINE
8
0
6
CONTINUOUS
10
3.910281
20
4.539801
30
0.0
11
3.992200
21
4.598761
31
0.0
0
LINE
8
0
6
CONTINUOUS
10
3.877038
20
4.585987
30
0.0
11
3.910281
21
4.539801
31
0.0
0
LINE
8
0
6
CONTINUOUS
10
4.173587
20
4.723777
30
0.0
11
4.255505
21
4.782737
31
0.0
0
LINE
8
0
6
CONTINUOUS
10
4.137787
20
4.773515
30
0.0
11
4.173587
21
4.723777
31
0.0
0
LINE
8
0
6
CONTINUOUS
10
3.208903
20
3.990470
30
0.0
11
3.179742
21
3.969481
31
0.0
0
LINE
8
0
6
CONTINUOUS
10
7.567565
20
7.173903
30
0.0
11
7.452384
21
7.091002
31
0.0
0
LINE
8
0
6
CONTINUOUS
10
7.625151
20
7.215354
30
0.0
11
7.567565
21
7.173903
31
0.0
0
LINE
8
0
6
CONTINUOUS
10
7.452384
20
7.091002
30
0.0
11
7.394788
21
7.049544
31
0.0
0
LINE
8
0
6
CONTINUOUS
10
7.408738
20
7.069457
30
0.0
11
7.351144
21
7.027999
31
0.0
0
LINE
8
0
6
CONTINUOUS
10
6.958665
20
6.647734
30
0.0
11
6.838147
21
6.560988
31
0.0
0
LINE
8
0
6
CONTINUOUS
10
6.838147
20
6.560988
30
0.0
11
6.777882
21
6.517615
31
0.0
0
LINE
8
0
6
CONTINUOUS
10
6.614207
20
6.316901
30
0.0
11
6.493689
21
6.230155
31
0.0
0
LINE
8
0
6
CONTINUOUS
10
6.674464
20
6.360274
30
0.0
11
6.614207
21
6.316901
31
0.0
0
LINE
8
0
6
CONTINUOUS
10
6.493689
20
6.230155
30
0.0
11
6.433425
21
6.186774
31
0.0
0
LINE
8
0
6
CONTINUOUS
10
6.292382
20
6.073271
30
0.0
11
6.171864
21
5.986525
31
0.0
0
LINE
8
0
6
CONTINUOUS
10
6.352639
20
6.116637
30
0.0
11
6.292382
21
6.073271
31
0.0
0
LINE
8
0
6
CONTINUOUS
10
6.171864
20
5.986525
30
0.0
11
6.111598
21
5.943145
31
0.0
0
LINE
8
0
6
CONTINUOUS
10
4.424716
20
4.725486
30
0.0
11
4.364449
21
4.682105
31
0.0
0
LINE
8
0
6
CONTINUOUS
10
4.545233
20
4.812232
30
0.0
11
4.424716
21
4.725486
31
0.0
0
LINE
8
0
6
CONTINUOUS
10
3.800099
20
4.380934
30
0.0
11
3.739835
21
4.337561
31
0.0
0
LINE
8
0
6
CONTINUOUS
10
3.920619
20
4.467681
30
0.0
11
3.800099
21
4.380934
31
0.0
0
LINE
8
0
6
CONTINUOUS
10
3.980876
20
4.511054
30
0.0
11
3.920619
21
4.467681
31
0.0
0
LINE
8
0
6
CONTINUOUS
10
3.544364
20
4.173087
30
0.0
11
3.484099
21
4.129706
31
0.0
0
LINE
8
0
6
CONTINUOUS
10
3.664883
20
4.259833
30
0.0
11
3.544364
21
4.173087
31
0.0
0
LINE
8
0
6
CONTINUOUS
10
3.725138
20
4.303206
30
0.0
11
3.664883
21
4.259833
31
0.0
0
LINE
8
0
6
CONTINUOUS
10
4.559464
20
5.599814
30
0.0
11
4.391228
21
5.478728
31
0.0
0
LINE
8
0
6
CONTINUOUS
10
4.663897
20
5.674987
30
0.0
11
4.559464
21
5.599814
31
0.0
0
LINE
8
0
6
CONTINUOUS
10
4.391228
20
5.478728
30
0.0
11
4.327422
21
5.432799
31
0.0
0
LINE
8
0
6
CONTINUOUS
10
1.833213
20
3.440825
30
0.0
11
1.733584
21
3.369117
31
0.0
0
LINE
8
0
6
CONTINUOUS
10
1.564624
20
3.247504
30
0.0
11
1.495291
21
3.197600
31
0.0
0
LINE
8
0
6
CONTINUOUS
10
1.733584
20
3.369117
30
0.0
11
1.564624
21
3.247504
31
0.0
0
LINE
8
0
6
CONTINUOUS
10
2.408469
20
3.705924
30
0.0
11
2.282099
21
3.614966
31
0.0
0
LINE
8
0
6
CONTINUOUS
10
2.120612
20
3.498732
30
0.0
11
2.085494
21
3.473448
31
0.0
0
LINE
8
0
6
CONTINUOUS
10
2.282099
20
3.614966
30
0.0
11
2.120612
21
3.498732
31
0.0
0
LINE
8
0
6
CONTINUOUS
10
2.920998
20
4.148322
30
0.0
11
2.773558
21
4.042197
31
0.0
0
LINE
8
0
6
CONTINUOUS
10
2.773558
20
4.042197
30
0.0
11
2.626788
21
3.936553
31
0.0
0
LINE
8
0
6
CONTINUOUS
10
4.465644
20
5.329802
30
0.0
11
4.296239
21
5.207869
31
0.0
0
LINE
8
0
6
CONTINUOUS
10
4.539517
20
5.382979
30
0.0
11
4.465644
21
5.329802
31
0.0
0
LINE
8
0
6
CONTINUOUS
10
4.296239
20
5.207869
30
0.0
11
4.200713
21
5.139113
31
0.0
0
LINE
8
0
6
CONTINUOUS
10
5.268441
20
5.711173
30
0.0
11
5.099038
21
5.589240
31
0.0
0
LINE
8
0
6
CONTINUOUS
10
5.342314
20
5.764342
30
0.0
11
5.268441
21
5.711173
31
0.0
0
LINE
8
0
6
CONTINUOUS
10
5.099038
20
5.589240
30
0.0
11
5.003510
21
5.520484
31
0.0
0
LINE
8
0
6
CONTINUOUS
10
3.048669
20
4.017035
30
0.0
11
2.922301
21
3.926078
31
0.0
0
LINE
8
0
6
CONTINUOUS
10
2.760812
20
3.809844
30
0.0
11
2.725693
21
3.784568
31
0.0
0
LINE
8
0
6
CONTINUOUS
10
2.922301
20
3.926078
30
0.0
11
2.760812
21
3.809844
31
0.0
0
LINE
8
0
6
CONTINUOUS
10
2.714411
20
3.733168
30
0.0
11
2.614783
21
3.661460
31
0.0
0
LINE
8
0
6
CONTINUOUS
10
2.445821
20
3.539847
30
0.0
11
2.376488
21
3.489943
31
0.0
0
LINE
8
0
6
CONTINUOUS
10
2.614783
20
3.661460
30
0.0
11
2.445821
21
3.539847
31
0.0
0
LINE
8
0
6
CONTINUOUS
10
7.796117
20
7.469054
30
0.0
11
7.726786
21
7.419150
31
0.0
0
LINE
8
0
6
CONTINUOUS
10
7.965077
20
7.590667
30
0.0
11
7.796117
21
7.469054
31
0.0
0
LINE
8
0
6
CONTINUOUS
10
8.064708
20
7.662375
30
0.0
11
7.965077
21
7.590667
31
0.0
0
LINE
8
0
6
CONTINUOUS
10
7.423428
20
7.166419
30
0.0
11
7.388312
21
7.141150
31
0.0
0
LINE
8
0
6
CONTINUOUS
10
7.584918
20
7.282660
30
0.0
11
7.423428
21
7.166419
31
0.0
0
LINE
8
0
6
CONTINUOUS
10
7.711287
20
7.373610
30
0.0
11
7.584918
21
7.282660
31
0.0
0
LINE
8
0
6
CONTINUOUS
10
6.976403
20
6.844245
30
0.0
11
6.829633
21
6.738600
31
0.0
0
LINE
8
0
6
CONTINUOUS
10
7.123841
20
6.950362
30
0.0
11
6.976403
21
6.844245
31
0.0
0
LINE
8
0
6
CONTINUOUS
10
5.329407
20
5.817794
30
0.0
11
5.233878
21
5.749030
31
0.0
0
LINE
8
0
6
CONTINUOUS
10
5.498811
20
5.939727
30
0.0
11
5.329407
21
5.817794
31
0.0
0
LINE
8
0
6
CONTINUOUS
10
5.572686
20
5.992896
30
0.0
11
5.498811
21
5.939727
31
0.0
0
LINE
8
0
6
CONTINUOUS
10
6.299201
20
6.503722
30
0.0
11
6.173730
21
6.413413
31
0.0
0
LINE
8
0
6
CONTINUOUS
10
6.461097
20
6.620246
30
0.0
11
6.299201
21
6.503722
31
0.0
0
LINE
8
0
6
CONTINUOUS
10
6.497525
20
6.646468
30
0.0
11
6.461097
21
6.620246
31
0.0
0
LINE
8
0
6
CONTINUOUS
10
7.159552
20
7.133429
30
0.0
11
7.012784
21
7.027785
31
0.0
0
LINE
8
0
6
CONTINUOUS
10
7.306992
20
7.239554
30
0.0
11
7.159552
21
7.133429
31
0.0
0
LINE
8
0
6
CONTINUOUS
10
7.684731
20
7.520957
30
0.0
11
7.649613
21
7.495681
31
0.0
0
LINE
8
0
6
CONTINUOUS
10
7.846219
20
7.637191
30
0.0
11
7.684731
21
7.520957
31
0.0
0
LINE
8
0
6
CONTINUOUS
10
7.972586
20
7.728148
30
0.0
11
7.846219
21
7.637191
31
0.0
0
LINE
8
0
6
CONTINUOUS
10
8.132199
20
7.838454
30
0.0
11
8.062867
21
7.788550
31
0.0
0
LINE
8
0
6
CONTINUOUS
10
8.301160
20
7.960067
30
0.0
11
8.132199
21
7.838454
31
0.0
0
LINE
8
0
6
CONTINUOUS
10
8.400788
20
8.031775
30
0.0
11
8.301160
21
7.960067
31
0.0
0
LINE
8
0
6
CONTINUOUS
10
3.734986
20
4.413954
30
0.0
11
3.653067
21
4.354995
31
0.0
0
LINE
8
0
6
CONTINUOUS
10
3.846068
20
4.493911
30
0.0
11
3.734986
21
4.413954
31
0.0
0
LINE
8
0
6
CONTINUOUS
10
3.875230
20
4.514899
30
0.0
11
3.846068
21
4.493911
31
0.0
0
LINE
8
0
6
CONTINUOUS
10
3.660569
20
4.265822
30
0.0
11
3.540051
21
4.179076
31
0.0
0
LINE
8
0
6
CONTINUOUS
10
3.720828
20
4.309188
30
0.0
11
3.660569
21
4.265822
31
0.0
0
LINE
8
0
6
CONTINUOUS
10
3.540051
20
4.179076
30
0.0
11
3.479787
21
4.135695
31
0.0
0
LINE
8
0
6
CONTINUOUS
10
3.919705
20
4.468955
30
0.0
11
3.799184
21
4.382209
31
0.0
0
LINE
8
0
6
CONTINUOUS
10
3.979962
20
4.512328
30
0.0
11
3.919705
21
4.468955
31
0.0
0
LINE
8
0
6
CONTINUOUS
10
3.799184
20
4.382209
30
0.0
11
3.738921
21
4.338828
31
0.0
0
LINE
8
0
6
CONTINUOUS
10
4.201922
20
4.585280
30
0.0
11
4.081403
21
4.498534
31
0.0
0
LINE
8
0
6
CONTINUOUS
10
4.262177
20
4.628653
30
0.0
11
4.201922
21
4.585280
31
0.0
0
LINE
8
0
6
CONTINUOUS
10
4.081403
20
4.498534
30
0.0
11
4.021138
21
4.455153
31
0.0
0
LINE
8
0
6
CONTINUOUS
10
5.046244
20
5.141173
30
0.0
11
4.925725
21
5.054427
31
0.0
0
LINE
8
0
6
CONTINUOUS
10
5.106499
20
5.184539
30
0.0
11
5.046244
21
5.141173
31
0.0
0
LINE
8
0
6
CONTINUOUS
10
4.925725
20
5.054427
30
0.0
11
4.865460
21
5.011046
31
0.0
0
LINE
8
0
6
CONTINUOUS
10
4.542453
20
4.816092
30
0.0
11
4.421933
21
4.729346
31
0.0
0
LINE
8
0
6
CONTINUOUS
10
4.602710
20
4.859465
30
0.0
11
4.542453
21
4.816092
31
0.0
0
LINE
8
0
6
CONTINUOUS
10
4.421933
20
4.729346
30
0.0
11
4.361670
21
4.685965
31
0.0
0
LINE
8
0
6
CONTINUOUS
10
4.482989
20
4.875243
30
0.0
11
4.362469
21
4.788497
31
0.0
0
LINE
8
0
6
CONTINUOUS
10
4.543246
20
4.918608
30
0.0
11
4.482989
21
4.875243
31
0.0
0
LINE
8
0
6
CONTINUOUS
10
4.362469
20
4.788497
30
0.0
11
4.302205
21
4.745116
31
0.0
0
LINE
8
0
6
CONTINUOUS
10
4.736132
20
4.896842
30
0.0
11
4.615613
21
4.810096
31
0.0
0
LINE
8
0
6
CONTINUOUS
10
4.796387
20
4.940207
30
0.0
11
4.736132
21
4.896842
31
0.0
0
LINE
8
0
6
CONTINUOUS
10
4.615613
20
4.810096
30
0.0
11
4.555348
21
4.766715
31
0.0
0
LINE
8
0
6
CONTINUOUS
10
5.166787
20
5.388633
30
0.0
11
5.046267
21
5.301886
31
0.0
0
LINE
8
0
6
CONTINUOUS
10
5.227044
20
5.432006
30
0.0
11
5.166787
21
5.388633
31
0.0
0
LINE
8
0
6
CONTINUOUS
10
5.046267
20
5.301886
30
0.0
11
4.986003
21
5.258506
31
0.0
0
LINE
8
0
6
CONTINUOUS
10
5.793614
20
5.780539
30
0.0
11
5.733350
21
5.737159
31
0.0
0
LINE
8
0
6
CONTINUOUS
10
5.914134
20
5.867285
30
0.0
11
5.793614
21
5.780539
31
0.0
0
LINE
8
0
6
CONTINUOUS
10
5.974389
20
5.910651
30
0.0
11
5.914134
21
5.867285
31
0.0
0
LINE
8
0
6
CONTINUOUS
10
5.450099
20
5.421828
30
0.0
11
5.389834
21
5.378447
31
0.0
0
LINE
8
0
6
CONTINUOUS
10
5.570616
20
5.508574
30
0.0
11
5.450099
21
5.421828
31
0.0
0
LINE
8
0
6
CONTINUOUS
10
5.630873
20
5.551947
30
0.0
11
5.570616
21
5.508574
31
0.0
0
LINE
8
0
6
CONTINUOUS
10
5.901234
20
5.729659
30
0.0
11
5.840970
21
5.686278
31
0.0
0
LINE
8
0
6
CONTINUOUS
10
6.021752
20
5.816405
30
0.0
11
5.901234
21
5.729659
31
0.0
0
LINE
8
0
6
CONTINUOUS
10
6.082009
20
5.859771
30
0.0
11
6.021752
21
5.816405
31
0.0
0
LINE
8
0
6
CONTINUOUS
10
6.833489
20
6.567458
30
0.0
11
6.773225
21
6.524077
31
0.0
0
LINE
8
0
6
CONTINUOUS
10
6.954009
20
6.654204
30
0.0
11
6.833489
21
6.567458
31
0.0
0
LINE
8
0
6
CONTINUOUS
10
7.014264
20
6.697570
30
0.0
11
6.954009
21
6.654204
31
0.0
0
LINE
8
0
6
CONTINUOUS
10
8.844685
20
8.519782
30
0.0
11
8.675832
21
8.398246
31
0.0
0
LINE
8
0
6
CONTINUOUS
10
8.913108
20
8.569030
30
0.0
11
8.844685
21
8.519782
31
0.0
0
LINE
8
0
6
CONTINUOUS
10
8.388402
20
8.162795
30
0.0
11
8.319072
21
8.112891
31
0.0
0
LINE
8
0
6
CONTINUOUS
10
8.557364
20
8.284407
30
0.0
11
8.388402
21
8.162795
31
0.0
0
LINE
8
0
6
CONTINUOUS
10
8.656993
20
8.356116
30
0.0
11
8.557364
21
8.284407
31
0.0
0
LINE
8
0
6
CONTINUOUS
10
6.471255
20
6.399779
30
0.0
11
6.413659
21
6.358321
31
0.0
0
LINE
8
0
6
CONTINUOUS
10
6.586436
20
6.482680
30
0.0
11
6.471255
21
6.399779
31
0.0
0
LINE
8
0
6
CONTINUOUS
10
6.644025
20
6.524131
30
0.0
11
6.586436
21
6.482680
31
0.0
0
LINE
8
0
6
CONTINUOUS
10
5.902016
20
5.975951
30
0.0
11
5.844422
21
5.934493
31
0.0
0
LINE
8
0
6
CONTINUOUS
10
6.017199
20
6.058852
30
0.0
11
5.902016
21
5.975951
31
0.0
0
LINE
8
0
6
CONTINUOUS
10
6.074786
20
6.100302
30
0.0
11
6.017199
21
6.058852
31
0.0
0
LINE
8
0
6
CONTINUOUS
10
4.547292
20
4.991095
30
0.0
11
4.465375
21
4.932135
31
0.0
0
LINE
8
0
6
CONTINUOUS
10
4.658375
20
5.071051
30
0.0
11
4.547292
21
4.991095
31
0.0
0
LINE
8
0
6
CONTINUOUS
10
4.687535
20
5.092040
30
0.0
11
4.658375
21
5.071051
31
0.0
0
LINE
8
0
6
CONTINUOUS
10
3.062272
20
3.898406
30
0.0
11
2.980351
21
3.839438
31
0.0
0
LINE
8
0
6
CONTINUOUS
10
3.173352
20
3.978354
30
0.0
11
3.062272
21
3.898406
31
0.0
0
LINE
8
0
6
CONTINUOUS
10
3.202513
20
3.999343
30
0.0
11
3.173352
21
3.978354
31
0.0
0
LINE
8
0
6
CONTINUOUS
10
4.255505
20
4.782737
30
0.0
11
4.173587
21
4.723777
31
0.0
0
LINE
8
0
6
CONTINUOUS
10
4.366587
20
4.862693
30
0.0
11
4.255505
21
4.782737
31
0.0
0
LINE
8
0
6
CONTINUOUS
10
4.395747
20
4.883681
30
0.0
11
4.366587
21
4.862693
31
0.0
0
LINE
8
0
6
CONTINUOUS
10
7.302106
20
7.400168
30
0.0
11
7.176636
21
7.309859
31
0.0
0
LINE
8
0
6
CONTINUOUS
10
7.464003
20
7.516700
30
0.0
11
7.302106
21
7.400168
31
0.0
0
LINE
8
0
6
CONTINUOUS
10
7.500430
20
7.542914
30
0.0
11
7.464003
21
7.516700
31
0.0
0
LINE
8
0
6
CONTINUOUS
10
6.317006
20
6.959113
30
0.0
11
6.257879
21
6.839784
31
0.0
0
LINE
8
0
6
CONTINUOUS
10
7.364318
20
7.655195
30
0.0
11
7.409190
21
7.647368
31
0.0
0
LINE
8
0
6
CONTINUOUS
10
7.364318
20
7.655195
30
0.0
11
7.273327
21
7.571703
31
0.0
0
LINE
8
0
6
CONTINUOUS
10
7.944972
20
8.050584
30
0.0
11
8.064118
21
8.151574
31
0.0
0
LINE
8
0
6
CONTINUOUS
10
8.460395
20
8.419129
30
0.0
11
8.551965
21
8.502035
31
0.0
0
LINE
8
0
6
CONTINUOUS
10
8.759897
20
8.637580
30
0.0
11
8.818924
21
8.699883
31
0.0
0
LINE
8
0
6
CONTINUOUS
10
5.875188
20
5.825403
30
0.0
11
5.846606
21
5.805555
31
0.0
0
LINE
8
0
6
CONTINUOUS
10
5.961554
20
5.900040
30
0.0
11
5.875188
21
5.825403
31
0.0
0
LINE
8
0
6
CONTINUOUS
10
5.846606
20
5.805555
30
0.0
11
5.788510
21
5.759161
31
0.0
0
LINE
8
0
6
CONTINUOUS
10
6.231048
20
6.158483
30
0.0
11
6.117543
21
6.061989
31
0.0
0
LINE
8
0
6
CONTINUOUS
10
6.088477
20
6.034179
30
0.0
11
6.063871
21
6.009458
31
0.0
0
LINE
8
0
6
CONTINUOUS
10
5.680268
20
5.753841
30
0.0
11
5.557134
21
5.670723
31
0.0
0
LINE
8
0
6
CONTINUOUS
10
5.512853
20
5.588826
30
0.0
11
5.390871
21
5.504115
31
0.0
0
LINE
8
0
6
CONTINUOUS
10
4.678383
20
4.977073
30
0.0
11
4.556766
21
4.891853
31
0.0
0
LINE
8
0
6
CONTINUOUS
10
4.150611
20
4.656568
30
0.0
11
4.021102
21
4.582312
31
0.0
0
LINE
8
0
6
CONTINUOUS
10
8.283049
20
8.077810
30
0.0
11
8.330035
21
8.130073
31
0.0
0
LINE
8
0
6
CONTINUOUS
10
8.240733
20
8.044019
30
0.0
11
8.233590
21
8.037190
31
0.0
0
LINE
8
0
6
CONTINUOUS
10
6.932979
20
7.138660
30
0.0
11
6.943261
21
7.151463
31
0.0
0
LINE
8
0
6
CONTINUOUS
10
7.062835
20
7.267802
30
0.0
11
6.943261
21
7.151463
31
0.0
0
LINE
8
0
6
CONTINUOUS
10
6.195783
20
6.647404
30
0.0
11
6.131216
21
6.552086
31
0.0
0
LINE
8
0
6
CONTINUOUS
10
5.379137
20
6.105995
30
0.0
11
5.209597
21
5.984250
31
0.0
0
LINE
8
0
6
CONTINUOUS
10
6.176567
20
6.484337
30
0.0
11
6.010752
21
6.373248
31
0.0
0
LINE
8
0
6
CONTINUOUS
10
6.010752
20
6.373248
30
0.0
11
5.900434
21
6.261886
31
0.0
0
LINE
8
0
6
CONTINUOUS
10
7.360692
20
7.253582
30
0.0
11
7.498079
21
7.403309
31
0.0
0
LINE
8
0
6
CONTINUOUS
10
7.901675
20
7.678753
30
0.0
11
7.752406
21
7.529784
31
0.0
0
LINE
8
0
6
CONTINUOUS
10
3.346610
20
4.469457
30
0.0
11
3.198471
21
4.365720
31
0.0
0
LINE
8
0
6
CONTINUOUS
10
5.209204
20
5.793473
30
0.0
11
5.135455
21
5.736202
31
0.0
0
LINE
8
0
6
CONTINUOUS
10
4.405565
20
5.413271
30
0.0
11
4.225329
21
5.306386
31
0.0
0
LINE
8
0
6
CONTINUOUS
10
1.828125
20
3.418590
30
0.0
11
1.755523
21
3.373228
31
0.0
0
LINE
8
0
6
CONTINUOUS
10
1.467892
20
3.381897
30
0.0
11
1.439522
21
3.350712
31
0.0
0
LINE
8
0
6
CONTINUOUS
10
1.439522
20
3.350712
30
0.0
11
1.403985
21
3.324454
31
0.0
0
LINE
8
0
6
CONTINUOUS
10
2.790464
20
4.424315
30
0.0
11
2.863858
21
4.399176
31
0.0
0
LINE
8
0
6
CONTINUOUS
10
5.477820
20
6.382812
30
0.0
11
5.311805
21
6.258630
31
0.0
0
LINE
8
0
6
CONTINUOUS
10
7.778703
20
7.730993
30
0.0
11
7.635641
21
7.589158
31
0.0
0
LINE
8
0
6
CONTINUOUS
10
6.480778
20
7.088871
30
0.0
11
6.325260
21
6.966105
31
0.0
0
LINE
8
0
6
CONTINUOUS
10
3.391166
20
4.230269
30
0.0
11
3.361637
21
4.207335
31
0.0
0
LINE
8
0
6
CONTINUOUS
10
3.361637
20
4.207335
30
0.0
11
3.321342
21
4.167509
31
0.0
0
LINE
8
0
6
CONTINUOUS
10
3.475758
20
4.293077
30
0.0
11
3.441655
21
4.269180
31
0.0
0
LINE
8
0
6
CONTINUOUS
10
3.441655
20
4.269180
30
0.0
11
3.391166
21
4.230269
31
0.0
0
LINE
8
0
6
CONTINUOUS
10
7.054355
20
6.810186
30
0.0
11
7.022275
21
6.782913
31
0.0
0
ENDSEC
0
EOF
