999
unknown String-ID: 20550
0
SECTION
2
HEADER
9
$ACADVER
1
AC1009
9
$DWGCODEPAGE
3
unknown String-ID: 20561
0
ENDSEC
0
SECTION
2
TABLES
0
TABLE
2
LAYER
70
1
0
LAYER
2
0
70
0
62
7
6
CONTINUOUS
0
ENDTAB
0
ENDSEC
0
SECTION
2
ENTITIES
0
LINE
8
0
6
CONTINUOUS
10
1.738559
20
-9.186356
30
0.0
11
-0.087017
21
-9.349018
31
0.0
0
LINE
8
0
6
CONTINUOUS
10
3.497323
20
-8.670666
30
0.0
11
1.738559
21
-9.186356
31
0.0
0
LINE
8
0
6
CONTINUOUS
10
5.121686
20
-7.821769
30
0.0
11
3.497323
21
-8.670666
31
0.0
0
LINE
8
0
6
CONTINUOUS
10
6.549226
20
-6.672282
30
0.0
11
5.121686
21
-7.821769
31
0.0
0
LINE
8
0
6
CONTINUOUS
10
7.725084
20
-5.266387
30
0.0
11
6.549226
21
-6.672282
31
0.0
0
LINE
8
0
6
CONTINUOUS
10
8.604069
20
-3.658107
30
0.0
11
7.725084
21
-5.266387
31
0.0
0
LINE
8
0
6
CONTINUOUS
10
9.152407
20
-1.909248
30
0.0
11
8.604069
21
-3.658107
31
0.0
0
LINE
8
0
6
CONTINUOUS
10
9.349022
20
-0.087017
30
0.0
11
9.152407
21
-1.909248
31
0.0
0
LINE
8
0
6
CONTINUOUS
10
9.186359
20
1.738555
30
0.0
11
9.349022
21
-0.087017
31
0.0
0
LINE
8
0
6
CONTINUOUS
10
8.670670
20
3.497318
30
0.0
11
9.186359
21
1.738555
31
0.0
0
LINE
8
0
6
CONTINUOUS
10
7.821772
20
5.121683
30
0.0
11
8.670670
21
3.497318
31
0.0
0
LINE
8
0
6
CONTINUOUS
10
6.672287
20
6.549222
30
0.0
11
7.821772
21
5.121683
31
0.0
0
LINE
8
0
6
CONTINUOUS
10
5.266389
20
7.725081
30
0.0
11
6.672287
21
6.549222
31
0.0
0
LINE
8
0
6
CONTINUOUS
10
3.658107
20
8.604067
30
0.0
11
5.266389
21
7.725081
31
0.0
0
LINE
8
0
6
CONTINUOUS
10
1.909246
20
9.152403
30
0.0
11
3.658107
21
8.604067
31
0.0
0
LINE
8
0
6
CONTINUOUS
10
0.087014
20
9.349018
30
0.0
11
1.909246
21
9.152403
31
0.0
0
LINE
8
0
6
CONTINUOUS
10
-1.738562
20
9.186356
30
0.0
11
0.087014
21
9.349018
31
0.0
0
LINE
8
0
6
CONTINUOUS
10
-3.497327
20
8.670662
30
0.0
11
-1.738562
21
9.186356
31
0.0
0
LINE
8
0
6
CONTINUOUS
10
-5.121690
20
7.821765
30
0.0
11
-3.497327
21
8.670662
31
0.0
0
LINE
8
0
6
CONTINUOUS
10
-6.549231
20
6.672278
30
0.0
11
-5.121690
21
7.821765
31
0.0
0
LINE
8
0
6
CONTINUOUS
10
-7.725086
20
5.266379
30
0.0
11
-6.549231
21
6.672278
31
0.0
0
LINE
8
0
6
CONTINUOUS
10
-8.604073
20
3.658100
30
0.0
11
-7.725086
21
5.266379
31
0.0
0
LINE
8
0
6
CONTINUOUS
10
-9.152409
20
1.909236
30
0.0
11
-8.604073
21
3.658100
31
0.0
0
LINE
8
0
6
CONTINUOUS
10
-9.349022
20
0.087005
30
0.0
11
-9.152409
21
1.909236
31
0.0
0
LINE
8
0
6
CONTINUOUS
10
-9.186357
20
-1.738570
30
0.0
11
-9.349022
21
0.087005
31
0.0
0
LINE
8
0
6
CONTINUOUS
10
-8.670664
20
-3.497329
30
0.0
11
-9.186357
21
-1.738570
31
0.0
0
LINE
8
0
6
CONTINUOUS
10
-7.821764
20
-5.121695
30
0.0
11
-8.670664
21
-3.497329
31
0.0
0
LINE
8
0
6
CONTINUOUS
10
-6.672278
20
-6.549229
30
0.0
11
-7.821764
21
-5.121695
31
0.0
0
LINE
8
0
6
CONTINUOUS
10
-5.266379
20
-7.725089
30
0.0
11
-6.672278
21
-6.549229
31
0.0
0
LINE
8
0
6
CONTINUOUS
10
-3.658096
20
-8.604071
30
0.0
11
-5.266379
21
-7.725089
31
0.0
0
LINE
8
0
6
CONTINUOUS
10
-1.909234
20
-9.152405
30
0.0
11
-3.658096
21
-8.604071
31
0.0
0
LINE
8
0
6
CONTINUOUS
10
-0.087017
20
-9.349018
30
0.0
11
-1.909234
21
-9.152405
31
0.0
0
LINE
8
0
6
CONTINUOUS
10
0.010495
20
1.127408
30
0.0
11
0.572800
21
0.971129
31
0.0
0
LINE
8
0
6
CONTINUOUS
10
0.572800
20
0.971129
30
0.0
11
0.981624
21
0.554605
31
0.0
0
LINE
8
0
6
CONTINUOUS
10
0.981624
20
0.554605
30
0.0
11
1.127423
21
-0.010501
31
0.0
0
LINE
8
0
6
CONTINUOUS
10
1.127423
20
-0.010501
30
0.0
11
0.971130
21
-0.572803
31
0.0
0
LINE
8
0
6
CONTINUOUS
10
0.971130
20
-0.572803
30
0.0
11
0.554625
21
-0.981645
31
0.0
0
LINE
8
0
6
CONTINUOUS
10
0.554625
20
-0.981645
30
0.0
11
-0.010491
21
-1.127434
31
0.0
0
LINE
8
0
6
CONTINUOUS
10
-0.010492
20
-1.127434
30
0.0
11
-0.572796
21
-0.971151
31
0.0
0
LINE
8
0
6
CONTINUOUS
10
-0.572796
20
-0.971151
30
0.0
11
-0.981620
21
-0.554627
31
0.0
0
LINE
8
0
6
CONTINUOUS
10
-0.981620
20
-0.554627
30
0.0
11
-1.127419
21
0.010486
31
0.0
0
LINE
8
0
6
CONTINUOUS
10
-1.127419
20
0.010486
30
0.0
11
-0.971127
21
0.572781
31
0.0
0
LINE
8
0
6
CONTINUOUS
10
-0.971127
20
0.572781
30
0.0
11
-0.554621
21
0.981622
31
0.0
0
LINE
8
0
6
CONTINUOUS
10
-0.554621
20
0.981622
30
0.0
11
0.010495
21
1.127408
31
0.0
0
LINE
8
0
6
CONTINUOUS
10
1.543783
20
-0.014372
30
0.0
11
1.329771
21
-0.784333
31
0.0
0
LINE
8
0
6
CONTINUOUS
10
-0.784330
20
-1.329794
30
0.0
11
-1.344133
21
-0.759446
31
0.0
0
LINE
8
0
6
CONTINUOUS
10
-0.014365
20
-1.543794
30
0.0
11
-0.784330
21
-1.329794
31
0.0
0
LINE
8
0
6
CONTINUOUS
10
0.759449
20
-1.344162
30
0.0
11
-0.014365
21
-1.543794
31
0.0
0
LINE
8
0
6
CONTINUOUS
10
1.329771
20
-0.784333
30
0.0
11
0.759449
21
-1.344162
31
0.0
0
LINE
8
0
6
CONTINUOUS
10
0.013414
20
1.440734
30
0.0
11
0.731990
21
1.241013
31
0.0
0
LINE
8
0
6
CONTINUOUS
10
0.731990
20
1.241013
30
0.0
11
1.254431
21
0.708738
31
0.0
0
LINE
8
0
6
CONTINUOUS
10
1.254431
20
0.708738
30
0.0
11
1.440749
21
-0.013417
31
0.0
0
LINE
8
0
6
CONTINUOUS
10
1.440749
20
-0.013417
30
0.0
11
1.241021
21
-0.731987
31
0.0
0
LINE
8
0
6
CONTINUOUS
10
1.241021
20
-0.731987
30
0.0
11
0.708763
21
-1.254453
31
0.0
0
LINE
8
0
6
CONTINUOUS
10
0.708763
20
-1.254453
30
0.0
11
-0.013405
21
-1.440760
31
0.0
0
LINE
8
0
6
CONTINUOUS
10
-0.013405
20
-1.440760
30
0.0
11
-0.731981
21
-1.241044
31
0.0
0
LINE
8
0
6
CONTINUOUS
10
-0.731981
20
-1.241044
30
0.0
11
-1.254421
21
-0.708761
31
0.0
0
LINE
8
0
6
CONTINUOUS
10
-1.254421
20
-0.708761
30
0.0
11
-1.440741
21
0.013402
31
0.0
0
LINE
8
0
6
CONTINUOUS
10
-1.440741
20
0.013402
30
0.0
11
-1.241013
21
0.731965
31
0.0
0
LINE
8
0
6
CONTINUOUS
10
-1.241013
20
0.731965
30
0.0
11
-0.708755
21
1.254423
31
0.0
0
LINE
8
0
6
CONTINUOUS
10
-0.708755
20
1.254423
30
0.0
11
0.013414
21
1.440734
31
0.0
0
ENDSEC
0
EOF
