999
unknown String-ID: 20550
0
SECTION
2
HEADER
9
$ACADVER
1
AC1009
9
$DWGCODEPAGE
3
unknown String-ID: 20561
0
ENDSEC
0
SECTION
2
TABLES
0
TABLE
2
LAYER
70
1
0
LAYER
2
0
70
0
62
7
6
CONTINUOUS
0
ENDTAB
0
ENDSEC
0
SECTION
2
ENTITIES
0
LINE
8
0
6
CONTINUOUS
10
-0.055356
20
0.069956
30
0.0
11
-0.069534
21
0.055884
31
0.0
0
LINE
8
0
6
CONTINUOUS
10
0.000338
20
0.089208
30
0.0
11
-0.019521
21
0.087046
31
0.0
0
LINE
8
0
6
CONTINUOUS
10
0.020180
20
0.086896
30
0.0
11
0.000338
21
0.089208
31
0.0
0
LINE
8
0
6
CONTINUOUS
10
0.039010
20
0.080227
30
0.0
11
0.020180
21
0.086896
31
0.0
0
LINE
8
0
6
CONTINUOUS
10
0.055884
20
0.069534
30
0.0
11
0.039010
21
0.080227
31
0.0
0
LINE
8
0
6
CONTINUOUS
10
0.069956
20
0.055356
30
0.0
11
0.055884
21
0.069534
31
0.0
0
LINE
8
0
6
CONTINUOUS
10
0.080520
20
0.038401
30
0.0
11
0.069956
21
0.055356
31
0.0
0
LINE
8
0
6
CONTINUOUS
10
0.087046
20
0.019521
30
0.0
11
0.080520
21
0.038401
31
0.0
0
LINE
8
0
6
CONTINUOUS
10
0.089208
20
-0.000338
30
0.0
11
0.087046
21
0.019521
31
0.0
0
LINE
8
0
6
CONTINUOUS
10
0.086896
20
-0.020180
30
0.0
11
0.089208
21
-0.000338
31
0.0
0
LINE
8
0
6
CONTINUOUS
10
0.080227
20
-0.039010
30
0.0
11
0.086896
21
-0.020180
31
0.0
0
LINE
8
0
6
CONTINUOUS
10
0.069534
20
-0.055884
30
0.0
11
0.080227
21
-0.039010
31
0.0
0
LINE
8
0
6
CONTINUOUS
10
0.055356
20
-0.069956
30
0.0
11
0.069534
21
-0.055884
31
0.0
0
LINE
8
0
6
CONTINUOUS
10
0.038401
20
-0.080520
30
0.0
11
0.055356
21
-0.069956
31
0.0
0
LINE
8
0
6
CONTINUOUS
10
0.019521
20
-0.087046
30
0.0
11
0.038401
21
-0.080520
31
0.0
0
LINE
8
0
6
CONTINUOUS
10
-0.000338
20
-0.089208
30
0.0
11
0.019521
21
-0.087046
31
0.0
0
LINE
8
0
6
CONTINUOUS
10
-0.020180
20
-0.086896
30
0.0
11
-0.000338
21
-0.089208
31
0.0
0
LINE
8
0
6
CONTINUOUS
10
-0.039010
20
-0.080227
30
0.0
11
-0.020180
21
-0.086896
31
0.0
0
LINE
8
0
6
CONTINUOUS
10
-0.055884
20
-0.069534
30
0.0
11
-0.039010
21
-0.080227
31
0.0
0
LINE
8
0
6
CONTINUOUS
10
-0.069956
20
-0.055356
30
0.0
11
-0.055884
21
-0.069534
31
0.0
0
LINE
8
0
6
CONTINUOUS
10
-0.080520
20
-0.038401
30
0.0
11
-0.069956
21
-0.055356
31
0.0
0
LINE
8
0
6
CONTINUOUS
10
-0.087046
20
-0.019521
30
0.0
11
-0.080520
21
-0.038401
31
0.0
0
LINE
8
0
6
CONTINUOUS
10
-0.089208
20
0.000338
30
0.0
11
-0.087046
21
-0.019521
31
0.0
0
LINE
8
0
6
CONTINUOUS
10
-0.086896
20
0.020180
30
0.0
11
-0.089208
21
0.000338
31
0.0
0
LINE
8
0
6
CONTINUOUS
10
-0.080227
20
0.039010
30
0.0
11
-0.086896
21
0.020180
31
0.0
0
LINE
8
0
6
CONTINUOUS
10
-0.069534
20
0.055884
30
0.0
11
-0.080227
21
0.039010
31
0.0
0
LINE
8
0
6
CONTINUOUS
10
-0.019521
20
0.087046
30
0.0
11
-0.038401
21
0.080520
31
0.0
0
LINE
8
0
6
CONTINUOUS
10
-0.038401
20
0.080520
30
0.0
11
-0.055356
21
0.069956
31
0.0
0
LINE
8
0
6
CONTINUOUS
10
-0.004933
20
0.010344
30
0.0
11
-0.007111
21
0.008987
31
0.0
0
LINE
8
0
6
CONTINUOUS
10
-0.002508
20
0.011182
30
0.0
11
-0.004933
21
0.010344
31
0.0
0
LINE
8
0
6
CONTINUOUS
10
0.000043
20
0.011460
30
0.0
11
-0.002508
21
0.011182
31
0.0
0
LINE
8
0
6
CONTINUOUS
10
0.002592
20
0.011163
30
0.0
11
0.000043
21
0.011460
31
0.0
0
LINE
8
0
6
CONTINUOUS
10
0.005011
20
0.010306
30
0.0
11
0.002592
21
0.011163
31
0.0
0
LINE
8
0
6
CONTINUOUS
10
0.007179
20
0.008932
30
0.0
11
0.005011
21
0.010306
31
0.0
0
LINE
8
0
6
CONTINUOUS
10
0.008986
20
0.007111
30
0.0
11
0.007179
21
0.008932
31
0.0
0
LINE
8
0
6
CONTINUOUS
10
0.010344
20
0.004933
30
0.0
11
0.008986
21
0.007111
31
0.0
0
LINE
8
0
6
CONTINUOUS
10
0.011182
20
0.002508
30
0.0
11
0.010344
21
0.004933
31
0.0
0
LINE
8
0
6
CONTINUOUS
10
0.011460
20
-0.000044
30
0.0
11
0.011182
21
0.002508
31
0.0
0
LINE
8
0
6
CONTINUOUS
10
0.011163
20
-0.002592
30
0.0
11
0.011460
21
-0.000044
31
0.0
0
LINE
8
0
6
CONTINUOUS
10
0.010306
20
-0.005011
30
0.0
11
0.011163
21
-0.002592
31
0.0
0
LINE
8
0
6
CONTINUOUS
10
0.008932
20
-0.007179
30
0.0
11
0.010306
21
-0.005011
31
0.0
0
LINE
8
0
6
CONTINUOUS
10
0.007111
20
-0.008987
30
0.0
11
0.008932
21
-0.007179
31
0.0
0
LINE
8
0
6
CONTINUOUS
10
0.004933
20
-0.010344
30
0.0
11
0.007111
21
-0.008987
31
0.0
0
LINE
8
0
6
CONTINUOUS
10
0.002508
20
-0.011182
30
0.0
11
0.004933
21
-0.010344
31
0.0
0
LINE
8
0
6
CONTINUOUS
10
-0.000043
20
-0.011460
30
0.0
11
0.002508
21
-0.011182
31
0.0
0
LINE
8
0
6
CONTINUOUS
10
-0.002592
20
-0.011163
30
0.0
11
-0.000043
21
-0.011460
31
0.0
0
LINE
8
0
6
CONTINUOUS
10
-0.005011
20
-0.010306
30
0.0
11
-0.002592
21
-0.011163
31
0.0
0
LINE
8
0
6
CONTINUOUS
10
-0.007179
20
-0.008932
30
0.0
11
-0.005011
21
-0.010306
31
0.0
0
LINE
8
0
6
CONTINUOUS
10
-0.008986
20
-0.007111
30
0.0
11
-0.007179
21
-0.008932
31
0.0
0
LINE
8
0
6
CONTINUOUS
10
-0.010344
20
-0.004933
30
0.0
11
-0.008986
21
-0.007111
31
0.0
0
LINE
8
0
6
CONTINUOUS
10
-0.011182
20
-0.002508
30
0.0
11
-0.010344
21
-0.004933
31
0.0
0
LINE
8
0
6
CONTINUOUS
10
-0.011460
20
0.000043
30
0.0
11
-0.011182
21
-0.002508
31
0.0
0
LINE
8
0
6
CONTINUOUS
10
-0.011163
20
0.002592
30
0.0
11
-0.011460
21
0.000043
31
0.0
0
LINE
8
0
6
CONTINUOUS
10
-0.010306
20
0.005011
30
0.0
11
-0.011163
21
0.002592
31
0.0
0
LINE
8
0
6
CONTINUOUS
10
-0.008932
20
0.007179
30
0.0
11
-0.010306
21
0.005011
31
0.0
0
LINE
8
0
6
CONTINUOUS
10
-0.007111
20
0.008987
30
0.0
11
-0.008932
21
0.007179
31
0.0
0
ENDSEC
0
EOF
