999
unknown String-ID: 20550
0
SECTION
2
HEADER
9
$ACADVER
1
AC1009
9
$DWGCODEPAGE
3
unknown String-ID: 20561
0
ENDSEC
0
SECTION
2
TABLES
0
TABLE
2
LAYER
70
1
0
LAYER
2
0
70
0
62
7
6
CONTINUOUS
0
ENDTAB
0
ENDSEC
0
SECTION
2
ENTITIES
0
LINE
8
0
6
CONTINUOUS
10
-0.088753
20
-0.008417
30
0.0
11
-0.089208
21
-0.015000
31
0.0
0
LINE
8
0
6
CONTINUOUS
10
0.089208
20
-0.015000
30
0.0
11
0.088753
21
-0.008417
31
0.0
0
LINE
8
0
6
CONTINUOUS
10
-0.055884
20
-0.015436
30
0.0
11
-0.039010
21
-0.015436
31
0.0
0
LINE
8
0
6
CONTINUOUS
10
-0.087955
20
-0.003603
30
0.0
11
-0.088753
21
-0.008417
31
0.0
0
LINE
8
0
6
CONTINUOUS
10
-0.085341
20
0.003785
30
0.0
11
-0.086829
21
0.000091
31
0.0
0
LINE
8
0
6
CONTINUOUS
10
-0.084137
20
0.005915
30
0.0
11
-0.084223
21
0.005763
31
0.0
0
LINE
8
0
6
CONTINUOUS
10
-0.083145
20
0.006938
30
0.0
11
-0.084137
21
0.005915
31
0.0
0
LINE
8
0
6
CONTINUOUS
10
-0.082235
20
0.007388
30
0.0
11
-0.083145
21
0.006938
31
0.0
0
LINE
8
0
6
CONTINUOUS
10
0.088753
20
-0.008417
30
0.0
11
0.087955
21
-0.003603
31
0.0
0
LINE
8
0
6
CONTINUOUS
10
0.086829
20
0.000091
30
0.0
11
0.085341
21
0.003785
31
0.0
0
LINE
8
0
6
CONTINUOUS
10
0.084223
20
0.005763
30
0.0
11
0.084137
21
0.005915
31
0.0
0
LINE
8
0
6
CONTINUOUS
10
0.084137
20
0.005915
30
0.0
11
0.083145
21
0.006938
31
0.0
0
LINE
8
0
6
CONTINUOUS
10
0.083145
20
0.006938
30
0.0
11
0.082235
21
0.007388
31
0.0
0
LINE
8
0
6
CONTINUOUS
10
-0.086829
20
0.000091
30
0.0
11
-0.087955
21
-0.003603
31
0.0
0
LINE
8
0
6
CONTINUOUS
10
0.087955
20
-0.003603
30
0.0
11
0.086829
21
0.000091
31
0.0
0
LINE
8
0
6
CONTINUOUS
10
0.019521
20
-0.015436
30
0.0
11
0.038401
21
-0.015436
31
0.0
0
LINE
8
0
6
CONTINUOUS
10
0.080227
20
-0.015436
30
0.0
11
0.086896
21
-0.015436
31
0.0
0
LINE
8
0
6
CONTINUOUS
10
-0.089208
20
-0.015436
30
0.0
11
-0.087046
21
-0.015436
31
0.0
0
LINE
8
0
6
CONTINUOUS
10
-0.089208
20
-0.015000
30
0.0
11
-0.089208
21
-0.015436
31
0.0
0
LINE
8
0
6
CONTINUOUS
10
-0.039010
20
-0.015436
30
0.0
11
-0.020180
21
-0.015436
31
0.0
0
LINE
8
0
6
CONTINUOUS
10
0.038401
20
-0.015436
30
0.0
11
0.055356
21
-0.015436
31
0.0
0
LINE
8
0
6
CONTINUOUS
10
0.089208
20
-0.015436
30
0.0
11
0.089208
21
-0.015000
31
0.0
0
LINE
8
0
6
CONTINUOUS
10
0.086896
20
-0.015436
30
0.0
11
0.089208
21
-0.015436
31
0.0
0
LINE
8
0
6
CONTINUOUS
10
-0.087046
20
-0.015436
30
0.0
11
-0.080520
21
-0.015436
31
0.0
0
LINE
8
0
6
CONTINUOUS
10
-0.080520
20
-0.015436
30
0.0
11
-0.069956
21
-0.015436
31
0.0
0
LINE
8
0
6
CONTINUOUS
10
-0.020180
20
-0.015436
30
0.0
11
-0.000338
21
-0.015436
31
0.0
0
LINE
8
0
6
CONTINUOUS
10
0.055356
20
-0.015436
30
0.0
11
0.069534
21
-0.015436
31
0.0
0
LINE
8
0
6
CONTINUOUS
10
-0.069956
20
-0.015436
30
0.0
11
-0.055884
21
-0.015436
31
0.0
0
LINE
8
0
6
CONTINUOUS
10
-0.000338
20
-0.015436
30
0.0
11
0.019521
21
-0.015436
31
0.0
0
LINE
8
0
6
CONTINUOUS
10
0.069534
20
-0.015436
30
0.0
11
0.080227
21
-0.015436
31
0.0
0
LINE
8
0
6
CONTINUOUS
10
-0.000309
20
-0.025465
30
0.0
11
0.017826
21
-0.025465
31
0.0
0
LINE
8
0
6
CONTINUOUS
10
-0.055884
20
-0.015828
30
0.0
11
-0.069956
21
-0.015828
31
0.0
0
LINE
8
0
6
CONTINUOUS
10
0.019521
20
-0.015828
30
0.0
11
-0.000338
21
-0.015828
31
0.0
0
LINE
8
0
6
CONTINUOUS
10
0.080227
20
-0.015828
30
0.0
11
0.069534
21
-0.015828
31
0.0
0
LINE
8
0
6
CONTINUOUS
10
-0.000338
20
-0.015828
30
0.0
11
-0.020180
21
-0.015828
31
0.0
0
LINE
8
0
6
CONTINUOUS
10
0.069534
20
-0.015828
30
0.0
11
0.055356
21
-0.015828
31
0.0
0
LINE
8
0
6
CONTINUOUS
10
-0.069956
20
-0.015828
30
0.0
11
-0.080520
21
-0.015828
31
0.0
0
LINE
8
0
6
CONTINUOUS
10
-0.020180
20
-0.015828
30
0.0
11
-0.039010
21
-0.015828
31
0.0
0
LINE
8
0
6
CONTINUOUS
10
0.055356
20
-0.015828
30
0.0
11
0.038401
21
-0.015828
31
0.0
0
LINE
8
0
6
CONTINUOUS
10
0.089208
20
-0.016290
30
0.0
11
0.089208
21
-0.015828
31
0.0
0
LINE
8
0
6
CONTINUOUS
10
0.089208
20
-0.015828
30
0.0
11
0.086896
21
-0.015828
31
0.0
0
LINE
8
0
6
CONTINUOUS
10
-0.080520
20
-0.015828
30
0.0
11
-0.087046
21
-0.015828
31
0.0
0
LINE
8
0
6
CONTINUOUS
10
-0.039010
20
-0.015828
30
0.0
11
-0.055884
21
-0.015828
31
0.0
0
LINE
8
0
6
CONTINUOUS
10
0.038401
20
-0.015828
30
0.0
11
0.019521
21
-0.015828
31
0.0
0
LINE
8
0
6
CONTINUOUS
10
0.086896
20
-0.015828
30
0.0
11
0.080227
21
-0.015828
31
0.0
0
LINE
8
0
6
CONTINUOUS
10
-0.089208
20
-0.015828
30
0.0
11
-0.089208
21
-0.016290
31
0.0
0
LINE
8
0
6
CONTINUOUS
10
-0.087046
20
-0.015828
30
0.0
11
-0.089208
21
-0.015828
31
0.0
0
LINE
8
0
6
CONTINUOUS
10
0.063497
20
-0.025465
30
0.0
11
0.073261
21
-0.025465
31
0.0
0
LINE
8
0
6
CONTINUOUS
10
-0.018428
20
-0.025465
30
0.0
11
-0.000309
21
-0.025465
31
0.0
0
LINE
8
0
6
CONTINUOUS
10
0.050550
20
-0.025465
30
0.0
11
0.063497
21
-0.025465
31
0.0
0
LINE
8
0
6
CONTINUOUS
10
-0.073529
20
-0.025465
30
0.0
11
-0.063882
21
-0.025465
31
0.0
0
LINE
8
0
6
CONTINUOUS
10
-0.035623
20
-0.025465
30
0.0
11
-0.018428
21
-0.025465
31
0.0
0
LINE
8
0
6
CONTINUOUS
10
0.035067
20
-0.025465
30
0.0
11
0.050550
21
-0.025465
31
0.0
0
LINE
8
0
6
CONTINUOUS
10
0.081462
20
-0.025465
30
0.0
11
0.084056
21
-0.023991
31
0.0
0
LINE
8
0
6
CONTINUOUS
10
0.079351
20
-0.025465
30
0.0
11
0.081462
21
-0.025465
31
0.0
0
LINE
8
0
6
CONTINUOUS
10
-0.079489
20
-0.025465
30
0.0
11
-0.073529
21
-0.025465
31
0.0
0
LINE
8
0
6
CONTINUOUS
10
-0.051032
20
-0.025465
30
0.0
11
-0.035623
21
-0.025465
31
0.0
0
LINE
8
0
6
CONTINUOUS
10
0.017826
20
-0.025465
30
0.0
11
0.035067
21
-0.025465
31
0.0
0
LINE
8
0
6
CONTINUOUS
10
0.073261
20
-0.025465
30
0.0
11
0.079351
21
-0.025465
31
0.0
0
LINE
8
0
6
CONTINUOUS
10
-0.081462
20
-0.025465
30
0.0
11
-0.079489
21
-0.025465
31
0.0
0
LINE
8
0
6
CONTINUOUS
10
-0.084056
20
-0.023991
30
0.0
11
-0.081462
21
-0.025465
31
0.0
0
LINE
8
0
6
CONTINUOUS
10
0.088921
20
-0.017939
30
0.0
11
0.089208
21
-0.016290
31
0.0
0
LINE
8
0
6
CONTINUOUS
10
0.088375
20
-0.019592
30
0.0
11
0.088921
21
-0.017939
31
0.0
0
LINE
8
0
6
CONTINUOUS
10
0.086416
20
-0.022233
30
0.0
11
0.087543
21
-0.021012
31
0.0
0
LINE
8
0
6
CONTINUOUS
10
0.084056
20
-0.023991
30
0.0
11
0.086416
21
-0.022233
31
0.0
0
LINE
8
0
6
CONTINUOUS
10
-0.089208
20
-0.016290
30
0.0
11
-0.088921
21
-0.017939
31
0.0
0
LINE
8
0
6
CONTINUOUS
10
-0.088921
20
-0.017939
30
0.0
11
-0.088375
21
-0.019592
31
0.0
0
LINE
8
0
6
CONTINUOUS
10
-0.087543
20
-0.021012
30
0.0
11
-0.086416
21
-0.022233
31
0.0
0
LINE
8
0
6
CONTINUOUS
10
-0.086416
20
-0.022233
30
0.0
11
-0.084056
21
-0.023991
31
0.0
0
LINE
8
0
6
CONTINUOUS
10
0.087543
20
-0.021012
30
0.0
11
0.088375
21
-0.019592
31
0.0
0
LINE
8
0
6
CONTINUOUS
10
-0.088375
20
-0.019592
30
0.0
11
-0.087543
21
-0.021012
31
0.0
0
LINE
8
0
6
CONTINUOUS
10
-0.081843
20
0.007418
30
0.0
11
-0.082235
21
0.007388
31
0.0
0
LINE
8
0
6
CONTINUOUS
10
0.082235
20
0.007388
30
0.0
11
0.081843
21
0.007418
31
0.0
0
LINE
8
0
6
CONTINUOUS
10
-0.008170
20
0.015454
30
0.0
11
-0.008271
21
0.015331
31
0.0
0
LINE
8
0
6
CONTINUOUS
10
0.008271
20
0.015331
30
0.0
11
0.008170
21
0.015454
31
0.0
0
LINE
8
0
6
CONTINUOUS
10
-0.005011
20
0.032598
30
0.0
11
-0.007179
21
0.032598
31
0.0
0
LINE
8
0
6
CONTINUOUS
10
-0.011460
20
0.019710
30
0.0
11
-0.011305
21
0.019510
31
0.0
0
LINE
8
0
6
CONTINUOUS
10
0.011305
20
0.019510
30
0.0
11
0.011460
21
0.019710
31
0.0
0
LINE
8
0
6
CONTINUOUS
10
0.004933
20
0.032598
30
0.0
11
0.002508
21
0.032598
31
0.0
0
LINE
8
0
6
CONTINUOUS
10
0.011163
20
0.032598
30
0.0
11
0.010306
21
0.032598
31
0.0
0
LINE
8
0
6
CONTINUOUS
10
-0.011460
20
0.032598
30
0.0
11
-0.011460
21
0.032228
31
0.0
0
LINE
8
0
6
CONTINUOUS
10
-0.011182
20
0.032598
30
0.0
11
-0.011460
21
0.032598
31
0.0
0
LINE
8
0
6
CONTINUOUS
10
-0.007179
20
0.032598
30
0.0
11
-0.008987
21
0.032598
31
0.0
0
LINE
8
0
6
CONTINUOUS
10
0.002508
20
0.032598
30
0.0
11
-0.000043
21
0.032598
31
0.0
0
LINE
8
0
6
CONTINUOUS
10
0.010306
20
0.032598
30
0.0
11
0.008932
21
0.032598
31
0.0
0
LINE
8
0
6
CONTINUOUS
10
-0.000043
20
0.032598
30
0.0
11
-0.002592
21
0.032598
31
0.0
0
LINE
8
0
6
CONTINUOUS
10
0.008932
20
0.032598
30
0.0
11
0.007111
21
0.032598
31
0.0
0
LINE
8
0
6
CONTINUOUS
10
-0.008987
20
0.032598
30
0.0
11
-0.010344
21
0.032598
31
0.0
0
LINE
8
0
6
CONTINUOUS
10
-0.002592
20
0.032598
30
0.0
11
-0.005011
21
0.032598
31
0.0
0
LINE
8
0
6
CONTINUOUS
10
0.007111
20
0.032598
30
0.0
11
0.004933
21
0.032598
31
0.0
0
LINE
8
0
6
CONTINUOUS
10
0.011460
20
0.032598
30
0.0
11
0.011163
21
0.032598
31
0.0
0
LINE
8
0
6
CONTINUOUS
10
0.011460
20
0.032228
30
0.0
11
0.011460
21
0.032598
31
0.0
0
LINE
8
0
6
CONTINUOUS
10
-0.010344
20
0.032598
30
0.0
11
-0.011182
21
0.032598
31
0.0
0
LINE
8
0
6
CONTINUOUS
10
-0.011460
20
0.019921
30
0.0
11
-0.011460
21
0.019710
31
0.0
0
LINE
8
0
6
CONTINUOUS
10
0.011460
20
0.019710
30
0.0
11
0.011460
21
0.019921
31
0.0
0
LINE
8
0
6
CONTINUOUS
10
-0.010290
20
0.012859
30
0.0
11
-0.011013
21
0.012804
31
0.0
0
LINE
8
0
6
CONTINUOUS
10
0.011013
20
0.012804
30
0.0
11
0.010290
21
0.012859
31
0.0
0
LINE
8
0
6
CONTINUOUS
10
-0.011013
20
0.012804
30
0.0
11
-0.081843
21
0.007418
31
0.0
0
LINE
8
0
6
CONTINUOUS
10
0.081843
20
0.007418
30
0.0
11
0.011013
21
0.012804
31
0.0
0
LINE
8
0
6
CONTINUOUS
10
-0.084223
20
0.005763
30
0.0
11
-0.085341
21
0.003785
31
0.0
0
LINE
8
0
6
CONTINUOUS
10
0.085341
20
0.003785
30
0.0
11
0.084223
21
0.005763
31
0.0
0
LINE
8
0
6
CONTINUOUS
10
-0.011460
20
0.032228
30
0.0
11
-0.011460
21
0.019921
31
0.0
0
LINE
8
0
6
CONTINUOUS
10
0.011460
20
0.019921
30
0.0
11
0.011460
21
0.032228
31
0.0
0
LINE
8
0
6
CONTINUOUS
10
-0.011305
20
0.019510
30
0.0
11
-0.008281
21
0.015598
31
0.0
0
LINE
8
0
6
CONTINUOUS
10
0.008282
20
0.015599
30
0.0
11
0.011305
21
0.019510
31
0.0
0
LINE
8
0
6
CONTINUOUS
10
-0.010180
20
0.012994
30
0.0
11
-0.010290
21
0.012859
31
0.0
0
LINE
8
0
6
CONTINUOUS
10
0.010290
20
0.012859
30
0.0
11
0.010180
21
0.012994
31
0.0
0
LINE
8
0
6
CONTINUOUS
10
-0.008271
20
0.015331
30
0.0
11
-0.010180
21
0.012994
31
0.0
0
LINE
8
0
6
CONTINUOUS
10
0.010180
20
0.012994
30
0.0
11
0.008271
21
0.015331
31
0.0
0
LINE
8
0
6
CONTINUOUS
10
-0.008281
20
0.015598
30
0.0
11
-0.008170
21
0.015454
31
0.0
0
LINE
8
0
6
CONTINUOUS
10
0.008170
20
0.015454
30
0.0
11
0.008282
21
0.015599
31
0.0
0
LINE
8
0
6
CONTINUOUS
10
-0.063882
20
-0.025465
30
0.0
11
-0.051039
21
-0.025465
31
0.0
0
LINE
8
0
6
CONTINUOUS
10
-0.069332
20
-0.015828
30
0.0
11
-0.055386
21
-0.015828
31
0.0
0
LINE
8
0
6
CONTINUOUS
10
-0.055386
20
-0.015828
30
0.0
11
-0.038662
21
-0.015828
31
0.0
0
LINE
8
0
6
CONTINUOUS
10
-0.038662
20
-0.015828
30
0.0
11
-0.020000
21
-0.015828
31
0.0
0
LINE
8
0
6
CONTINUOUS
10
-0.020000
20
-0.015828
30
0.0
11
-0.000335
21
-0.015828
31
0.0
0
LINE
8
0
6
CONTINUOUS
10
-0.000335
20
-0.015828
30
0.0
11
0.019347
21
-0.015828
31
0.0
0
LINE
8
0
6
CONTINUOUS
10
0.019347
20
-0.015828
30
0.0
11
0.038058
21
-0.015828
31
0.0
0
LINE
8
0
6
CONTINUOUS
10
0.038058
20
-0.015828
30
0.0
11
0.054861
21
-0.015828
31
0.0
0
LINE
8
0
6
CONTINUOUS
10
0.054861
20
-0.015828
30
0.0
11
0.068914
21
-0.015828
31
0.0
0
LINE
8
0
6
CONTINUOUS
10
0.068914
20
-0.015828
30
0.0
11
0.079510
21
-0.015828
31
0.0
0
LINE
8
0
6
CONTINUOUS
10
0.079510
20
-0.015828
30
0.0
11
0.086120
21
-0.015828
31
0.0
0
LINE
8
0
6
CONTINUOUS
10
0.088411
20
-0.015828
30
0.0
11
0.088411
21
-0.015436
31
0.0
0
LINE
8
0
6
CONTINUOUS
10
0.086120
20
-0.015828
30
0.0
11
0.088411
21
-0.015828
31
0.0
0
LINE
8
0
6
CONTINUOUS
10
-0.088411
20
-0.015828
30
0.0
11
-0.086269
21
-0.015828
31
0.0
0
LINE
8
0
6
CONTINUOUS
10
-0.088411
20
-0.015436
30
0.0
11
-0.088411
21
-0.015828
31
0.0
0
LINE
8
0
6
CONTINUOUS
10
-0.086269
20
-0.015828
30
0.0
11
-0.079801
21
-0.015828
31
0.0
0
LINE
8
0
6
CONTINUOUS
10
-0.079801
20
-0.015828
30
0.0
11
-0.069332
21
-0.015828
31
0.0
0
LINE
8
0
6
CONTINUOUS
10
-0.059894
20
-0.029858
30
0.0
11
-0.057982
21
-0.029845
31
0.0
0
LINE
8
0
6
CONTINUOUS
10
-0.057982
20
-0.029845
30
0.0
11
-0.056608
21
-0.029848
31
0.0
0
LINE
8
0
6
CONTINUOUS
10
-0.057982
20
-0.029845
30
0.0
11
-0.059894
21
-0.029858
31
0.0
0
LINE
8
0
6
CONTINUOUS
10
-0.056608
20
-0.029848
30
0.0
11
-0.057982
21
-0.029845
31
0.0
0
LINE
8
0
6
CONTINUOUS
10
-0.058141
20
-0.029880
30
0.0
11
-0.056608
21
-0.029869
31
0.0
0
LINE
8
0
6
CONTINUOUS
10
-0.059974
20
-0.029875
30
0.0
11
-0.058141
21
-0.029880
31
0.0
0
LINE
8
0
6
CONTINUOUS
10
-0.048055
20
-0.030658
30
0.0
11
-0.047975
21
-0.030641
31
0.0
0
LINE
8
0
6
CONTINUOUS
10
-0.049967
20
-0.030671
30
0.0
11
-0.048055
21
-0.030658
31
0.0
0
LINE
8
0
6
CONTINUOUS
10
-0.051799
20
-0.030667
30
0.0
11
-0.049967
21
-0.030671
31
0.0
0
LINE
8
0
6
CONTINUOUS
10
-0.041885
20
-0.031382
30
0.0
11
-0.040421
21
-0.031372
31
0.0
0
LINE
8
0
6
CONTINUOUS
10
-0.035206
20
-0.032064
30
0.0
11
-0.035126
21
-0.032046
31
0.0
0
LINE
8
0
6
CONTINUOUS
10
-0.035126
20
-0.032046
30
0.0
11
-0.035206
21
-0.032064
31
0.0
0
LINE
8
0
6
CONTINUOUS
10
-0.031461
20
-0.032056
30
0.0
11
-0.031382
21
-0.032038
31
0.0
0
LINE
8
0
6
CONTINUOUS
10
-0.033373
20
-0.032069
30
0.0
11
-0.031461
21
-0.032056
31
0.0
0
LINE
8
0
6
CONTINUOUS
10
-0.035206
20
-0.032064
30
0.0
11
-0.033373
21
-0.032069
31
0.0
0
LINE
8
0
6
CONTINUOUS
10
-0.024648
20
-0.032034
30
0.0
11
-0.023792
21
-0.032029
31
0.0
0
LINE
8
0
6
CONTINUOUS
10
-0.017984
20
-0.031998
30
0.0
11
-0.017983
21
-0.032323
31
0.0
0
LINE
8
0
6
CONTINUOUS
10
-0.015991
20
-0.032292
30
0.0
11
-0.014159
21
-0.032297
31
0.0
0
LINE
8
0
6
CONTINUOUS
10
-0.014159
20
-0.032297
30
0.0
11
-0.015991
21
-0.032292
31
0.0
0
LINE
8
0
6
CONTINUOUS
10
-0.014238
20
-0.032315
30
0.0
11
-0.014159
21
-0.032297
31
0.0
0
LINE
8
0
6
CONTINUOUS
10
-0.016150
20
-0.032328
30
0.0
11
-0.014238
21
-0.032315
31
0.0
0
LINE
8
0
6
CONTINUOUS
10
-0.017983
20
-0.032323
30
0.0
11
-0.016150
21
-0.032328
31
0.0
0
LINE
8
0
6
CONTINUOUS
10
-0.009606
20
-0.032592
30
0.0
11
-0.009526
21
-0.032574
31
0.0
0
LINE
8
0
6
CONTINUOUS
10
-0.009607
20
-0.032287
30
0.0
11
-0.009606
21
-0.032592
31
0.0
0
LINE
8
0
6
CONTINUOUS
10
-0.009526
20
-0.032574
30
0.0
11
-0.007614
21
-0.032561
31
0.0
0
LINE
8
0
6
CONTINUOUS
10
-0.007614
20
-0.032561
30
0.0
11
-0.006488
21
-0.032564
31
0.0
0
LINE
8
0
6
CONTINUOUS
10
-0.009526
20
-0.032574
30
0.0
11
-0.009606
21
-0.032592
31
0.0
0
LINE
8
0
6
CONTINUOUS
10
-0.007614
20
-0.032561
30
0.0
11
-0.009526
21
-0.032574
31
0.0
0
LINE
8
0
6
CONTINUOUS
10
-0.006488
20
-0.032564
30
0.0
11
-0.007614
21
-0.032561
31
0.0
0
LINE
8
0
6
CONTINUOUS
10
-0.007773
20
-0.032597
30
0.0
11
-0.006488
21
-0.032588
31
0.0
0
LINE
8
0
6
CONTINUOUS
10
-0.009606
20
-0.032592
30
0.0
11
-0.007773
21
-0.032597
31
0.0
0
LINE
8
0
6
CONTINUOUS
10
-0.013832
20
-0.032036
30
0.0
11
-0.012417
21
-0.032027
31
0.0
0
LINE
8
0
6
CONTINUOUS
10
-0.012417
20
-0.032027
30
0.0
11
-0.013805
21
-0.032036
31
0.0
0
LINE
8
0
6
CONTINUOUS
10
-0.013805
20
-0.032054
30
0.0
11
-0.012417
21
-0.032058
31
0.0
0
LINE
8
0
6
CONTINUOUS
10
-0.013197
20
-0.032027
30
0.0
11
-0.013117
21
-0.032009
31
0.0
0
LINE
8
0
6
CONTINUOUS
10
-0.013117
20
-0.032009
30
0.0
11
-0.013197
21
-0.032027
31
0.0
0
LINE
8
0
6
CONTINUOUS
10
-0.013197
20
-0.032027
30
0.0
11
-0.012417
21
-0.032028
31
0.0
0
LINE
8
0
6
CONTINUOUS
10
-0.012416
20
-0.032316
30
0.0
11
-0.012336
21
-0.032298
31
0.0
0
LINE
8
0
6
CONTINUOUS
10
-0.012417
20
-0.032001
30
0.0
11
-0.012416
21
-0.032316
31
0.0
0
LINE
8
0
6
CONTINUOUS
10
-0.012336
20
-0.032298
30
0.0
11
-0.011282
21
-0.032291
31
0.0
0
LINE
8
0
6
CONTINUOUS
10
-0.012336
20
-0.032298
30
0.0
11
-0.012416
21
-0.032316
31
0.0
0
LINE
8
0
6
CONTINUOUS
10
-0.011282
20
-0.032291
30
0.0
11
-0.012336
21
-0.032298
31
0.0
0
LINE
8
0
6
CONTINUOUS
10
-0.010584
20
-0.032321
30
0.0
11
-0.009607
21
-0.032314
31
0.0
0
LINE
8
0
6
CONTINUOUS
10
-0.012416
20
-0.032316
30
0.0
11
-0.011282
21
-0.032319
31
0.0
0
LINE
8
0
6
CONTINUOUS
10
-0.064554
20
-0.028921
30
0.0
11
-0.064475
21
-0.028903
31
0.0
0
LINE
8
0
6
CONTINUOUS
10
-0.064475
20
-0.028903
30
0.0
11
-0.062563
21
-0.028890
31
0.0
0
LINE
8
0
6
CONTINUOUS
10
-0.062563
20
-0.028890
30
0.0
11
-0.062383
21
-0.028891
31
0.0
0
LINE
8
0
6
CONTINUOUS
10
-0.064475
20
-0.028903
30
0.0
11
-0.064554
21
-0.028921
31
0.0
0
LINE
8
0
6
CONTINUOUS
10
-0.062563
20
-0.028890
30
0.0
11
-0.064475
21
-0.028903
31
0.0
0
LINE
8
0
6
CONTINUOUS
10
-0.062383
20
-0.028891
30
0.0
11
-0.062563
21
-0.028890
31
0.0
0
LINE
8
0
6
CONTINUOUS
10
-0.062722
20
-0.028926
30
0.0
11
-0.062383
21
-0.028923
31
0.0
0
LINE
8
0
6
CONTINUOUS
10
-0.064554
20
-0.028921
30
0.0
11
-0.062722
21
-0.028926
31
0.0
0
LINE
8
0
6
CONTINUOUS
10
-0.056053
20
-0.029886
30
0.0
11
-0.054141
21
-0.029873
31
0.0
0
LINE
8
0
6
CONTINUOUS
10
-0.054141
20
-0.029873
30
0.0
11
-0.053705
21
-0.029874
31
0.0
0
LINE
8
0
6
CONTINUOUS
10
-0.054141
20
-0.029873
30
0.0
11
-0.056053
21
-0.029886
31
0.0
0
LINE
8
0
6
CONTINUOUS
10
-0.053705
20
-0.029874
30
0.0
11
-0.054141
21
-0.029873
31
0.0
0
LINE
8
0
6
CONTINUOUS
10
-0.054301
20
-0.029909
30
0.0
11
-0.053705
21
-0.029904
31
0.0
0
LINE
8
0
6
CONTINUOUS
10
-0.056133
20
-0.029904
30
0.0
11
-0.054301
21
-0.029909
31
0.0
0
LINE
8
0
6
CONTINUOUS
10
-0.047803
20
-0.030665
30
0.0
11
-0.047723
21
-0.030648
31
0.0
0
LINE
8
0
6
CONTINUOUS
10
-0.047723
20
-0.030648
30
0.0
11
-0.045811
21
-0.030635
31
0.0
0
LINE
8
0
6
CONTINUOUS
10
-0.045811
20
-0.030635
30
0.0
11
-0.045701
21
-0.030635
31
0.0
0
LINE
8
0
6
CONTINUOUS
10
-0.047723
20
-0.030648
30
0.0
11
-0.047803
21
-0.030665
31
0.0
0
LINE
8
0
6
CONTINUOUS
10
-0.045811
20
-0.030635
30
0.0
11
-0.047723
21
-0.030648
31
0.0
0
LINE
8
0
6
CONTINUOUS
10
-0.045701
20
-0.030635
30
0.0
11
-0.045811
21
-0.030635
31
0.0
0
LINE
8
0
6
CONTINUOUS
10
-0.045970
20
-0.030670
30
0.0
11
-0.045385
21
-0.030666
31
0.0
0
LINE
8
0
6
CONTINUOUS
10
-0.047803
20
-0.030665
30
0.0
11
-0.045970
21
-0.030670
31
0.0
0
LINE
8
0
6
CONTINUOUS
10
-0.037572
20
-0.031385
30
0.0
11
-0.036686
21
-0.031379
31
0.0
0
LINE
8
0
6
CONTINUOUS
10
-0.039404
20
-0.031381
30
0.0
11
-0.037572
21
-0.031385
31
0.0
0
LINE
8
0
6
CONTINUOUS
10
-0.030389
20
-0.032021
30
0.0
11
-0.029275
21
-0.032013
31
0.0
0
LINE
8
0
6
CONTINUOUS
10
-0.029275
20
-0.032013
30
0.0
11
-0.030389
21
-0.032021
31
0.0
0
LINE
8
0
6
CONTINUOUS
10
-0.030910
20
-0.032041
30
0.0
11
-0.029275
21
-0.032045
31
0.0
0
LINE
8
0
6
CONTINUOUS
10
-0.019580
20
-0.032061
30
0.0
11
-0.019501
21
-0.032043
31
0.0
0
LINE
8
0
6
CONTINUOUS
10
-0.019627
20
-0.032061
30
0.0
11
-0.019580
21
-0.032061
31
0.0
0
LINE
8
0
6
CONTINUOUS
10
0.001720
20
-0.032597
30
0.0
11
0.001724
21
-0.032061
31
0.0
0
LINE
8
0
6
CONTINUOUS
10
0.001345
20
-0.032584
30
0.0
11
0.001720
21
-0.032597
31
0.0
0
LINE
8
0
6
CONTINUOUS
10
-0.000687
20
-0.032566
30
0.0
11
0.001345
21
-0.032584
31
0.0
0
LINE
8
0
6
CONTINUOUS
10
-0.002345
20
-0.032561
30
0.0
11
-0.000687
21
-0.032566
31
0.0
0
LINE
8
0
6
CONTINUOUS
10
-0.001970
20
-0.032574
30
0.0
11
0.000063
21
-0.032592
31
0.0
0
LINE
8
0
6
CONTINUOUS
10
-0.000687
20
-0.032566
30
0.0
11
-0.002345
21
-0.032561
31
0.0
0
LINE
8
0
6
CONTINUOUS
10
0.001345
20
-0.032584
30
0.0
11
-0.000687
21
-0.032566
31
0.0
0
LINE
8
0
6
CONTINUOUS
10
0.001720
20
-0.032597
30
0.0
11
0.001345
21
-0.032584
31
0.0
0
LINE
8
0
6
CONTINUOUS
10
0.000063
20
-0.032592
30
0.0
11
0.001720
21
-0.032597
31
0.0
0
LINE
8
0
6
CONTINUOUS
10
-0.040047
20
-0.028901
30
0.0
11
-0.039514
21
-0.028897
31
0.0
0
LINE
8
0
6
CONTINUOUS
10
-0.040065
20
-0.026740
30
0.0
11
-0.040047
21
-0.028901
31
0.0
0
LINE
8
0
6
CONTINUOUS
10
-0.039514
20
-0.028897
30
0.0
11
-0.037431
21
-0.028879
31
0.0
0
LINE
8
0
6
CONTINUOUS
10
-0.035882
20
-0.028866
30
0.0
11
-0.035899
21
-0.026908
31
0.0
0
LINE
8
0
6
CONTINUOUS
10
-0.037431
20
-0.028879
30
0.0
11
-0.035882
21
-0.028866
31
0.0
0
LINE
8
0
6
CONTINUOUS
10
-0.037431
20
-0.028879
30
0.0
11
-0.039514
21
-0.028897
31
0.0
0
LINE
8
0
6
CONTINUOUS
10
-0.035882
20
-0.028866
30
0.0
11
-0.037431
21
-0.028879
31
0.0
0
LINE
8
0
6
CONTINUOUS
10
-0.038022
20
-0.028884
30
0.0
11
-0.036707
21
-0.028873
31
0.0
0
LINE
8
0
6
CONTINUOUS
10
-0.039518
20
-0.028897
30
0.0
11
-0.038498
21
-0.028888
31
0.0
0
LINE
8
0
6
CONTINUOUS
10
-0.039514
20
-0.028897
30
0.0
11
-0.040047
21
-0.028901
31
0.0
0
LINE
8
0
6
CONTINUOUS
10
-0.035414
20
-0.029869
30
0.0
11
-0.034881
21
-0.029864
31
0.0
0
LINE
8
0
6
CONTINUOUS
10
-0.035432
20
-0.027734
30
0.0
11
-0.035414
21
-0.029869
31
0.0
0
LINE
8
0
6
CONTINUOUS
10
-0.034881
20
-0.029864
30
0.0
11
-0.032798
21
-0.029847
31
0.0
0
LINE
8
0
6
CONTINUOUS
10
-0.031249
20
-0.029834
30
0.0
11
-0.031266
21
-0.027849
31
0.0
0
LINE
8
0
6
CONTINUOUS
10
-0.032798
20
-0.029847
30
0.0
11
-0.031249
21
-0.029834
31
0.0
0
LINE
8
0
6
CONTINUOUS
10
-0.032798
20
-0.029847
30
0.0
11
-0.034881
21
-0.029864
31
0.0
0
LINE
8
0
6
CONTINUOUS
10
-0.031249
20
-0.029834
30
0.0
11
-0.032798
21
-0.029847
31
0.0
0
LINE
8
0
6
CONTINUOUS
10
-0.032903
20
-0.029848
30
0.0
11
-0.032534
21
-0.029845
31
0.0
0
LINE
8
0
6
CONTINUOUS
10
-0.034903
20
-0.029865
30
0.0
11
-0.033865
21
-0.029856
31
0.0
0
LINE
8
0
6
CONTINUOUS
10
-0.034881
20
-0.029864
30
0.0
11
-0.035414
21
-0.029869
31
0.0
0
LINE
8
0
6
CONTINUOUS
10
-0.030529
20
-0.030660
30
0.0
11
-0.029996
21
-0.030656
31
0.0
0
LINE
8
0
6
CONTINUOUS
10
-0.030547
20
-0.028526
30
0.0
11
-0.030529
21
-0.030660
31
0.0
0
LINE
8
0
6
CONTINUOUS
10
-0.029996
20
-0.030656
30
0.0
11
-0.027914
21
-0.030638
31
0.0
0
LINE
8
0
6
CONTINUOUS
10
-0.026365
20
-0.030625
30
0.0
11
-0.026382
21
-0.028641
31
0.0
0
LINE
8
0
6
CONTINUOUS
10
-0.027914
20
-0.030638
30
0.0
11
-0.026365
21
-0.030625
31
0.0
0
LINE
8
0
6
CONTINUOUS
10
-0.027914
20
-0.030638
30
0.0
11
-0.029958
21
-0.030655
31
0.0
0
LINE
8
0
6
CONTINUOUS
10
-0.026365
20
-0.030625
30
0.0
11
-0.027914
21
-0.030638
31
0.0
0
LINE
8
0
6
CONTINUOUS
10
-0.029958
20
-0.030656
30
0.0
11
-0.029077
21
-0.030648
31
0.0
0
LINE
8
0
6
CONTINUOUS
10
-0.029996
20
-0.030656
30
0.0
11
-0.030529
21
-0.030660
31
0.0
0
LINE
8
0
6
CONTINUOUS
10
-0.025916
20
-0.031374
30
0.0
11
-0.025383
21
-0.031369
31
0.0
0
LINE
8
0
6
CONTINUOUS
10
-0.025934
20
-0.029248
30
0.0
11
-0.025916
21
-0.031374
31
0.0
0
LINE
8
0
6
CONTINUOUS
10
-0.025383
20
-0.031369
30
0.0
11
-0.023326
21
-0.031352
31
0.0
0
LINE
8
0
6
CONTINUOUS
10
-0.021752
20
-0.031339
30
0.0
11
-0.021769
21
-0.029345
31
0.0
0
LINE
8
0
6
CONTINUOUS
10
-0.023301
20
-0.031352
30
0.0
11
-0.021752
21
-0.031339
31
0.0
0
LINE
8
0
6
CONTINUOUS
10
-0.023301
20
-0.031352
30
0.0
11
-0.025383
21
-0.031369
31
0.0
0
LINE
8
0
6
CONTINUOUS
10
-0.021752
20
-0.031339
30
0.0
11
-0.023301
21
-0.031352
31
0.0
0
LINE
8
0
6
CONTINUOUS
10
-0.023326
20
-0.031352
30
0.0
11
-0.022658
21
-0.031346
31
0.0
0
LINE
8
0
6
CONTINUOUS
10
-0.025116
20
-0.031367
30
0.0
11
-0.024367
21
-0.031361
31
0.0
0
LINE
8
0
6
CONTINUOUS
10
-0.025383
20
-0.031369
30
0.0
11
-0.025916
21
-0.031374
31
0.0
0
LINE
8
0
6
CONTINUOUS
10
-0.021183
20
-0.032063
30
0.0
11
-0.020649
21
-0.032059
31
0.0
0
LINE
8
0
6
CONTINUOUS
10
-0.021201
20
-0.029937
30
0.0
11
-0.021183
21
-0.032063
31
0.0
0
LINE
8
0
6
CONTINUOUS
10
-0.020649
20
-0.032059
30
0.0
11
-0.018567
21
-0.032041
31
0.0
0
LINE
8
0
6
CONTINUOUS
10
-0.017018
20
-0.032028
30
0.0
11
-0.017029
21
-0.030787
31
0.0
0
LINE
8
0
6
CONTINUOUS
10
-0.018567
20
-0.032041
30
0.0
11
-0.017018
21
-0.032028
31
0.0
0
LINE
8
0
6
CONTINUOUS
10
-0.018567
20
-0.032041
30
0.0
11
-0.020649
21
-0.032059
31
0.0
0
LINE
8
0
6
CONTINUOUS
10
-0.017018
20
-0.032028
30
0.0
11
-0.018567
21
-0.032041
31
0.0
0
LINE
8
0
6
CONTINUOUS
10
-0.021183
20
-0.032063
30
0.0
11
-0.019634
21
-0.032050
31
0.0
0
LINE
8
0
6
CONTINUOUS
10
-0.020649
20
-0.032059
30
0.0
11
-0.021183
21
-0.032063
31
0.0
0
LINE
8
0
6
CONTINUOUS
10
-0.016127
20
-0.032033
30
0.0
11
-0.015593
21
-0.032028
31
0.0
0
LINE
8
0
6
CONTINUOUS
10
-0.016137
20
-0.030816
30
0.0
11
-0.016127
21
-0.032033
31
0.0
0
LINE
8
0
6
CONTINUOUS
10
-0.015593
20
-0.032028
30
0.0
11
-0.013511
21
-0.032010
31
0.0
0
LINE
8
0
6
CONTINUOUS
10
-0.011962
20
-0.031997
30
0.0
11
-0.011975
21
-0.030521
31
0.0
0
LINE
8
0
6
CONTINUOUS
10
-0.013511
20
-0.032010
30
0.0
11
-0.011962
21
-0.031997
31
0.0
0
LINE
8
0
6
CONTINUOUS
10
-0.013511
20
-0.032010
30
0.0
11
-0.015593
21
-0.032028
31
0.0
0
LINE
8
0
6
CONTINUOUS
10
-0.011962
20
-0.031997
30
0.0
11
-0.013511
21
-0.032010
31
0.0
0
LINE
8
0
6
CONTINUOUS
10
-0.013806
20
-0.032013
30
0.0
11
-0.013197
21
-0.032008
31
0.0
0
LINE
8
0
6
CONTINUOUS
10
-0.016127
20
-0.032033
30
0.0
11
-0.014578
21
-0.032020
31
0.0
0
LINE
8
0
6
CONTINUOUS
10
-0.015593
20
-0.032028
30
0.0
11
-0.016127
21
-0.032033
31
0.0
0
LINE
8
0
6
CONTINUOUS
10
-0.011282
20
-0.032327
30
0.0
11
-0.010749
21
-0.032322
31
0.0
0
LINE
8
0
6
CONTINUOUS
10
-0.010749
20
-0.032322
30
0.0
11
-0.008667
21
-0.032304
31
0.0
0
LINE
8
0
6
CONTINUOUS
10
-0.007118
20
-0.032291
30
0.0
11
-0.007130
21
-0.030815
31
0.0
0
LINE
8
0
6
CONTINUOUS
10
-0.008667
20
-0.032304
30
0.0
11
-0.007118
21
-0.032291
31
0.0
0
LINE
8
0
6
CONTINUOUS
10
-0.008667
20
-0.032304
30
0.0
11
-0.010749
21
-0.032322
31
0.0
0
LINE
8
0
6
CONTINUOUS
10
-0.007118
20
-0.032291
30
0.0
11
-0.008667
21
-0.032304
31
0.0
0
LINE
8
0
6
CONTINUOUS
10
-0.009607
20
-0.032312
30
0.0
11
-0.007651
21
-0.032296
31
0.0
0
LINE
8
0
6
CONTINUOUS
10
-0.011282
20
-0.032327
30
0.0
11
-0.009733
21
-0.032314
31
0.0
0
LINE
8
0
6
CONTINUOUS
10
-0.010749
20
-0.032322
30
0.0
11
-0.011282
21
-0.032327
31
0.0
0
LINE
8
0
6
CONTINUOUS
10
-0.006488
20
-0.032596
30
0.0
11
-0.005955
21
-0.032592
31
0.0
0
LINE
8
0
6
CONTINUOUS
10
-0.005955
20
-0.032592
30
0.0
11
-0.003873
21
-0.032574
31
0.0
0
LINE
8
0
6
CONTINUOUS
10
-0.003873
20
-0.032574
30
0.0
11
-0.002345
21
-0.032561
31
0.0
0
LINE
8
0
6
CONTINUOUS
10
-0.003873
20
-0.032574
30
0.0
11
-0.005955
21
-0.032592
31
0.0
0
LINE
8
0
6
CONTINUOUS
10
-0.002324
20
-0.032561
30
0.0
11
-0.003873
21
-0.032574
31
0.0
0
LINE
8
0
6
CONTINUOUS
10
-0.006488
20
-0.032596
30
0.0
11
-0.004939
21
-0.032583
31
0.0
0
LINE
8
0
6
CONTINUOUS
10
-0.005955
20
-0.032592
30
0.0
11
-0.006488
21
-0.032596
31
0.0
0
LINE
8
0
6
CONTINUOUS
10
-0.062394
20
-0.027635
30
0.0
11
-0.062375
21
-0.029848
31
0.0
0
LINE
8
0
6
CONTINUOUS
10
-0.053698
20
-0.030671
30
0.0
11
-0.053165
21
-0.030666
31
0.0
0
LINE
8
0
6
CONTINUOUS
10
-0.053705
20
-0.029865
30
0.0
11
-0.053698
21
-0.030671
31
0.0
0
LINE
8
0
6
CONTINUOUS
10
-0.053165
20
-0.030666
30
0.0
11
-0.051083
21
-0.030649
31
0.0
0
LINE
8
0
6
CONTINUOUS
10
-0.051083
20
-0.030649
30
0.0
11
-0.053165
21
-0.030666
31
0.0
0
LINE
8
0
6
CONTINUOUS
10
-0.053165
20
-0.030666
30
0.0
11
-0.053698
21
-0.030671
31
0.0
0
LINE
8
0
6
CONTINUOUS
10
-0.045379
20
-0.031395
30
0.0
11
-0.044846
21
-0.031390
31
0.0
0
LINE
8
0
6
CONTINUOUS
10
-0.045386
20
-0.030636
30
0.0
11
-0.045379
21
-0.031395
31
0.0
0
LINE
8
0
6
CONTINUOUS
10
-0.044846
20
-0.031390
30
0.0
11
-0.044183
21
-0.031384
31
0.0
0
LINE
8
0
6
CONTINUOUS
10
-0.044183
20
-0.031384
30
0.0
11
-0.044846
21
-0.031390
31
0.0
0
LINE
8
0
6
CONTINUOUS
10
-0.045379
20
-0.031395
30
0.0
11
-0.044183
21
-0.031385
31
0.0
0
LINE
8
0
6
CONTINUOUS
10
-0.044846
20
-0.031390
30
0.0
11
-0.045379
21
-0.031395
31
0.0
0
LINE
8
0
6
CONTINUOUS
10
-0.036680
20
-0.032064
30
0.0
11
-0.036147
21
-0.032059
31
0.0
0
LINE
8
0
6
CONTINUOUS
10
-0.036147
20
-0.032059
30
0.0
11
-0.034553
21
-0.032046
31
0.0
0
LINE
8
0
6
CONTINUOUS
10
-0.034553
20
-0.032046
30
0.0
11
-0.036147
21
-0.032059
31
0.0
0
LINE
8
0
6
CONTINUOUS
10
-0.036680
20
-0.032064
30
0.0
11
-0.035206
21
-0.032051
31
0.0
0
LINE
8
0
6
CONTINUOUS
10
-0.036147
20
-0.032059
30
0.0
11
-0.036680
21
-0.032064
31
0.0
0
LINE
8
0
6
CONTINUOUS
10
-0.025111
20
-0.032007
30
0.0
11
-0.024868
21
-0.032005
31
0.0
0
LINE
8
0
6
CONTINUOUS
10
-0.024868
20
-0.032005
30
0.0
11
-0.023792
21
-0.031996
31
0.0
0
LINE
8
0
6
CONTINUOUS
10
-0.024868
20
-0.032005
30
0.0
11
-0.025111
21
-0.032007
31
0.0
0
LINE
8
0
6
CONTINUOUS
10
-0.023792
20
-0.031996
30
0.0
11
-0.024868
21
-0.032005
31
0.0
0
LINE
8
0
6
CONTINUOUS
10
-0.017967
20
-0.032317
30
0.0
11
-0.017434
21
-0.032313
31
0.0
0
LINE
8
0
6
CONTINUOUS
10
-0.017434
20
-0.032313
30
0.0
11
-0.015352
21
-0.032295
31
0.0
0
LINE
8
0
6
CONTINUOUS
10
-0.015352
20
-0.032295
30
0.0
11
-0.013803
21
-0.032282
31
0.0
0
LINE
8
0
6
CONTINUOUS
10
-0.015352
20
-0.032295
30
0.0
11
-0.017434
21
-0.032313
31
0.0
0
LINE
8
0
6
CONTINUOUS
10
-0.013803
20
-0.032282
30
0.0
11
-0.015352
21
-0.032295
31
0.0
0
LINE
8
0
6
CONTINUOUS
10
-0.017967
20
-0.032317
30
0.0
11
-0.016418
21
-0.032304
31
0.0
0
LINE
8
0
6
CONTINUOUS
10
-0.017434
20
-0.032313
30
0.0
11
-0.017967
21
-0.032317
31
0.0
0
LINE
8
0
6
CONTINUOUS
10
-0.048731
20
-0.028897
30
0.0
11
-0.048198
21
-0.028892
31
0.0
0
LINE
8
0
6
CONTINUOUS
10
-0.048750
20
-0.026676
30
0.0
11
-0.048731
21
-0.028893
31
0.0
0
LINE
8
0
6
CONTINUOUS
10
-0.048198
20
-0.028892
30
0.0
11
-0.046116
21
-0.028874
31
0.0
0
LINE
8
0
6
CONTINUOUS
10
-0.044567
20
-0.028861
30
0.0
11
-0.044583
21
-0.026964
31
0.0
0
LINE
8
0
6
CONTINUOUS
10
-0.046116
20
-0.028874
30
0.0
11
-0.044567
21
-0.028861
31
0.0
0
LINE
8
0
6
CONTINUOUS
10
-0.046116
20
-0.028874
30
0.0
11
-0.048198
21
-0.028892
31
0.0
0
LINE
8
0
6
CONTINUOUS
10
-0.044567
20
-0.028861
30
0.0
11
-0.046116
21
-0.028874
31
0.0
0
LINE
8
0
6
CONTINUOUS
10
-0.046476
20
-0.028878
30
0.0
11
-0.045716
21
-0.028871
31
0.0
0
LINE
8
0
6
CONTINUOUS
10
-0.047980
20
-0.028890
30
0.0
11
-0.047182
21
-0.028884
31
0.0
0
LINE
8
0
6
CONTINUOUS
10
-0.048198
20
-0.028892
30
0.0
11
-0.048731
21
-0.028897
31
0.0
0
LINE
8
0
6
CONTINUOUS
10
-0.043675
20
-0.029876
30
0.0
11
-0.043142
21
-0.029872
31
0.0
0
LINE
8
0
6
CONTINUOUS
10
-0.043693
20
-0.027700
30
0.0
11
-0.043675
21
-0.029876
31
0.0
0
LINE
8
0
6
CONTINUOUS
10
-0.043142
20
-0.029872
30
0.0
11
-0.041059
21
-0.029854
31
0.0
0
LINE
8
0
6
CONTINUOUS
10
-0.039511
20
-0.029841
30
0.0
11
-0.039512
21
-0.029619
31
0.0
0
LINE
8
0
6
CONTINUOUS
10
-0.041059
20
-0.029854
30
0.0
11
-0.039511
21
-0.029841
31
0.0
0
LINE
8
0
6
CONTINUOUS
10
-0.041059
20
-0.029854
30
0.0
11
-0.043142
21
-0.029872
31
0.0
0
LINE
8
0
6
CONTINUOUS
10
-0.039511
20
-0.029841
30
0.0
11
-0.041059
21
-0.029854
31
0.0
0
LINE
8
0
6
CONTINUOUS
10
-0.041228
20
-0.029856
30
0.0
11
-0.040434
21
-0.029849
31
0.0
0
LINE
8
0
6
CONTINUOUS
10
-0.043675
20
-0.029876
30
0.0
11
-0.042126
21
-0.029863
31
0.0
0
LINE
8
0
6
CONTINUOUS
10
-0.043142
20
-0.029872
30
0.0
11
-0.043675
21
-0.029876
31
0.0
0
LINE
8
0
6
CONTINUOUS
10
-0.039061
20
-0.030654
30
0.0
11
-0.038528
21
-0.030650
31
0.0
0
LINE
8
0
6
CONTINUOUS
10
-0.039080
20
-0.028478
30
0.0
11
-0.039061
21
-0.030654
31
0.0
0
LINE
8
0
6
CONTINUOUS
10
-0.038528
20
-0.030650
30
0.0
11
-0.036446
21
-0.030632
31
0.0
0
LINE
8
0
6
CONTINUOUS
10
-0.034897
20
-0.030619
30
0.0
11
-0.034903
21
-0.029978
31
0.0
0
LINE
8
0
6
CONTINUOUS
10
-0.036446
20
-0.030632
30
0.0
11
-0.034897
21
-0.030619
31
0.0
0
LINE
8
0
6
CONTINUOUS
10
-0.036446
20
-0.030632
30
0.0
11
-0.038528
21
-0.030650
31
0.0
0
LINE
8
0
6
CONTINUOUS
10
-0.034897
20
-0.030619
30
0.0
11
-0.036446
21
-0.030632
31
0.0
0
LINE
8
0
6
CONTINUOUS
10
-0.038017
20
-0.030645
30
0.0
11
-0.037512
21
-0.030641
31
0.0
0
LINE
8
0
6
CONTINUOUS
10
-0.038528
20
-0.030650
30
0.0
11
-0.039061
21
-0.030654
31
0.0
0
LINE
8
0
6
CONTINUOUS
10
-0.034116
20
-0.031386
30
0.0
11
-0.033583
21
-0.031381
31
0.0
0
LINE
8
0
6
CONTINUOUS
10
-0.034127
20
-0.030038
30
0.0
11
-0.034116
21
-0.031386
31
0.0
0
LINE
8
0
6
CONTINUOUS
10
-0.033583
20
-0.031381
30
0.0
11
-0.031501
21
-0.031363
31
0.0
0
LINE
8
0
6
CONTINUOUS
10
-0.029952
20
-0.031350
30
0.0
11
-0.029960
21
-0.030358
31
0.0
0
LINE
8
0
6
CONTINUOUS
10
-0.031501
20
-0.031363
30
0.0
11
-0.029952
21
-0.031350
31
0.0
0
LINE
8
0
6
CONTINUOUS
10
-0.031501
20
-0.031363
30
0.0
11
-0.033583
21
-0.031381
31
0.0
0
LINE
8
0
6
CONTINUOUS
10
-0.029952
20
-0.031350
30
0.0
11
-0.031501
21
-0.031363
31
0.0
0
LINE
8
0
6
CONTINUOUS
10
-0.031384
20
-0.031363
30
0.0
11
-0.030912
21
-0.031359
31
0.0
0
LINE
8
0
6
CONTINUOUS
10
-0.034116
20
-0.031386
30
0.0
11
-0.032567
21
-0.031373
31
0.0
0
LINE
8
0
6
CONTINUOUS
10
-0.033583
20
-0.031381
30
0.0
11
-0.034116
21
-0.031386
31
0.0
0
LINE
8
0
6
CONTINUOUS
10
-0.029275
20
-0.032061
30
0.0
11
-0.028742
21
-0.032057
31
0.0
0
LINE
8
0
6
CONTINUOUS
10
-0.029289
20
-0.030380
30
0.0
11
-0.029275
21
-0.032061
31
0.0
0
LINE
8
0
6
CONTINUOUS
10
-0.028742
20
-0.032057
30
0.0
11
-0.026660
21
-0.032039
31
0.0
0
LINE
8
0
6
CONTINUOUS
10
-0.026660
20
-0.032039
30
0.0
11
-0.025111
21
-0.032026
31
0.0
0
LINE
8
0
6
CONTINUOUS
10
-0.026660
20
-0.032039
30
0.0
11
-0.028742
21
-0.032057
31
0.0
0
LINE
8
0
6
CONTINUOUS
10
-0.025111
20
-0.032026
30
0.0
11
-0.026660
21
-0.032039
31
0.0
0
LINE
8
0
6
CONTINUOUS
10
-0.029275
20
-0.032061
30
0.0
11
-0.027726
21
-0.032048
31
0.0
0
LINE
8
0
6
CONTINUOUS
10
-0.028742
20
-0.032057
30
0.0
11
-0.029275
21
-0.032061
31
0.0
0
LINE
8
0
6
CONTINUOUS
10
-0.023787
20
-0.032570
30
0.0
11
-0.023254
21
-0.032566
31
0.0
0
LINE
8
0
6
CONTINUOUS
10
-0.023804
20
-0.030562
30
0.0
11
-0.023787
21
-0.032570
31
0.0
0
LINE
8
0
6
CONTINUOUS
10
-0.023254
20
-0.032566
30
0.0
11
-0.021172
21
-0.032548
31
0.0
0
LINE
8
0
6
CONTINUOUS
10
-0.021172
20
-0.032548
30
0.0
11
-0.019623
21
-0.032535
31
0.0
0
LINE
8
0
6
CONTINUOUS
10
-0.021172
20
-0.032548
30
0.0
11
-0.023254
21
-0.032566
31
0.0
0
LINE
8
0
6
CONTINUOUS
10
-0.019623
20
-0.032535
30
0.0
11
-0.021172
21
-0.032548
31
0.0
0
LINE
8
0
6
CONTINUOUS
10
-0.023787
20
-0.032570
30
0.0
11
-0.022238
21
-0.032557
31
0.0
0
LINE
8
0
6
CONTINUOUS
10
-0.023254
20
-0.032566
30
0.0
11
-0.023787
21
-0.032570
31
0.0
0
LINE
8
0
6
CONTINUOUS
10
-0.056066
20
-0.028938
30
0.0
11
-0.055532
21
-0.028933
31
0.0
0
LINE
8
0
6
CONTINUOUS
10
-0.056085
20
-0.026669
30
0.0
11
-0.056066
21
-0.028938
31
0.0
0
LINE
8
0
6
CONTINUOUS
10
-0.055532
20
-0.028933
30
0.0
11
-0.053450
21
-0.028916
31
0.0
0
LINE
8
0
6
CONTINUOUS
10
-0.051901
20
-0.028903
30
0.0
11
-0.051917
21
-0.027006
31
0.0
0
LINE
8
0
6
CONTINUOUS
10
-0.053450
20
-0.028916
30
0.0
11
-0.051901
21
-0.028903
31
0.0
0
LINE
8
0
6
CONTINUOUS
10
-0.053450
20
-0.028916
30
0.0
11
-0.055532
21
-0.028933
31
0.0
0
LINE
8
0
6
CONTINUOUS
10
-0.051901
20
-0.028903
30
0.0
11
-0.053450
21
-0.028916
31
0.0
0
LINE
8
0
6
CONTINUOUS
10
-0.056066
20
-0.028938
30
0.0
11
-0.054517
21
-0.028925
31
0.0
0
LINE
8
0
6
CONTINUOUS
10
-0.055532
20
-0.028933
30
0.0
11
-0.056066
21
-0.028938
31
0.0
0
LINE
8
0
6
CONTINUOUS
10
-0.051002
20
-0.029867
30
0.0
11
-0.050469
21
-0.029862
31
0.0
0
LINE
8
0
6
CONTINUOUS
10
-0.051021
20
-0.027654
30
0.0
11
-0.051002
21
-0.029867
31
0.0
0
LINE
8
0
6
CONTINUOUS
10
-0.050469
20
-0.029862
30
0.0
11
-0.048387
21
-0.029844
31
0.0
0
LINE
8
0
6
CONTINUOUS
10
-0.046838
20
-0.029831
30
0.0
11
-0.046845
21
-0.029048
31
0.0
0
LINE
8
0
6
CONTINUOUS
10
-0.048387
20
-0.029844
30
0.0
11
-0.046838
21
-0.029831
31
0.0
0
LINE
8
0
6
CONTINUOUS
10
-0.048387
20
-0.029844
30
0.0
11
-0.050469
21
-0.029862
31
0.0
0
LINE
8
0
6
CONTINUOUS
10
-0.046838
20
-0.029831
30
0.0
11
-0.048387
21
-0.029844
31
0.0
0
LINE
8
0
6
CONTINUOUS
10
-0.050632
20
-0.029863
30
0.0
11
-0.049540
21
-0.029854
31
0.0
0
LINE
8
0
6
CONTINUOUS
10
-0.050469
20
-0.029862
30
0.0
11
-0.051002
21
-0.029867
31
0.0
0
LINE
8
0
6
CONTINUOUS
10
-0.045701
20
-0.030658
30
0.0
11
-0.045168
21
-0.030653
31
0.0
0
LINE
8
0
6
CONTINUOUS
10
-0.045714
20
-0.029137
30
0.0
11
-0.045701
21
-0.030658
31
0.0
0
LINE
8
0
6
CONTINUOUS
10
-0.045168
20
-0.030653
30
0.0
11
-0.043086
21
-0.030636
31
0.0
0
LINE
8
0
6
CONTINUOUS
10
-0.041537
20
-0.030623
30
0.0
11
-0.041547
21
-0.029461
31
0.0
0
LINE
8
0
6
CONTINUOUS
10
-0.043086
20
-0.030636
30
0.0
11
-0.041537
21
-0.030623
31
0.0
0
LINE
8
0
6
CONTINUOUS
10
-0.043086
20
-0.030636
30
0.0
11
-0.045168
21
-0.030653
31
0.0
0
LINE
8
0
6
CONTINUOUS
10
-0.041537
20
-0.030623
30
0.0
11
-0.043086
21
-0.030636
31
0.0
0
LINE
8
0
6
CONTINUOUS
10
-0.043719
20
-0.030641
30
0.0
11
-0.042070
21
-0.030627
31
0.0
0
LINE
8
0
6
CONTINUOUS
10
-0.045386
20
-0.030655
30
0.0
11
-0.044189
21
-0.030645
31
0.0
0
LINE
8
0
6
CONTINUOUS
10
-0.045168
20
-0.030653
30
0.0
11
-0.045701
21
-0.030658
31
0.0
0
LINE
8
0
6
CONTINUOUS
10
-0.040421
20
-0.031385
30
0.0
11
-0.039888
21
-0.031380
31
0.0
0
LINE
8
0
6
CONTINUOUS
10
-0.040436
20
-0.029547
30
0.0
11
-0.040421
21
-0.031385
31
0.0
0
LINE
8
0
6
CONTINUOUS
10
-0.039888
20
-0.031380
30
0.0
11
-0.037806
21
-0.031362
31
0.0
0
LINE
8
0
6
CONTINUOUS
10
-0.037806
20
-0.031362
30
0.0
11
-0.036257
21
-0.031349
31
0.0
0
LINE
8
0
6
CONTINUOUS
10
-0.037806
20
-0.031362
30
0.0
11
-0.039888
21
-0.031380
31
0.0
0
LINE
8
0
6
CONTINUOUS
10
-0.036257
20
-0.031349
30
0.0
11
-0.037806
21
-0.031362
31
0.0
0
LINE
8
0
6
CONTINUOUS
10
-0.039404
20
-0.031376
30
0.0
11
-0.038872
21
-0.031372
31
0.0
0
LINE
8
0
6
CONTINUOUS
10
-0.039888
20
-0.031380
30
0.0
11
-0.040421
21
-0.031385
31
0.0
0
LINE
8
0
6
CONTINUOUS
10
-0.034553
20
-0.032058
30
0.0
11
-0.034020
21
-0.032054
31
0.0
0
LINE
8
0
6
CONTINUOUS
10
-0.034572
20
-0.029842
30
0.0
11
-0.034553
21
-0.032058
31
0.0
0
LINE
8
0
6
CONTINUOUS
10
-0.034020
20
-0.032054
30
0.0
11
-0.031938
21
-0.032036
31
0.0
0
LINE
8
0
6
CONTINUOUS
10
-0.031938
20
-0.032036
30
0.0
11
-0.030389
21
-0.032023
31
0.0
0
LINE
8
0
6
CONTINUOUS
10
-0.031938
20
-0.032036
30
0.0
11
-0.034020
21
-0.032054
31
0.0
0
LINE
8
0
6
CONTINUOUS
10
-0.030389
20
-0.032023
30
0.0
11
-0.031938
21
-0.032036
31
0.0
0
LINE
8
0
6
CONTINUOUS
10
-0.034553
20
-0.032058
30
0.0
11
-0.033004
21
-0.032045
31
0.0
0
LINE
8
0
6
CONTINUOUS
10
-0.034020
20
-0.032054
30
0.0
11
-0.034553
21
-0.032058
31
0.0
0
LINE
8
0
6
CONTINUOUS
10
-0.061979
20
-0.028914
30
0.0
11
-0.061446
21
-0.028909
31
0.0
0
LINE
8
0
6
CONTINUOUS
10
-0.061998
20
-0.026640
30
0.0
11
-0.061979
21
-0.028914
31
0.0
0
LINE
8
0
6
CONTINUOUS
10
-0.061446
20
-0.028909
30
0.0
11
-0.059363
21
-0.028892
31
0.0
0
LINE
8
0
6
CONTINUOUS
10
-0.057814
20
-0.028879
30
0.0
11
-0.057830
21
-0.027035
31
0.0
0
LINE
8
0
6
CONTINUOUS
10
-0.059363
20
-0.028892
30
0.0
11
-0.057814
21
-0.028879
31
0.0
0
LINE
8
0
6
CONTINUOUS
10
-0.059363
20
-0.028892
30
0.0
11
-0.061446
21
-0.028909
31
0.0
0
LINE
8
0
6
CONTINUOUS
10
-0.057814
20
-0.028879
30
0.0
11
-0.059363
21
-0.028892
31
0.0
0
LINE
8
0
6
CONTINUOUS
10
-0.059976
20
-0.028897
30
0.0
11
-0.058348
21
-0.028883
31
0.0
0
LINE
8
0
6
CONTINUOUS
10
-0.061979
20
-0.028914
30
0.0
11
-0.060430
21
-0.028901
31
0.0
0
LINE
8
0
6
CONTINUOUS
10
-0.061446
20
-0.028909
30
0.0
11
-0.061979
21
-0.028914
31
0.0
0
LINE
8
0
6
CONTINUOUS
10
-0.056608
20
-0.029890
30
0.0
11
-0.056075
21
-0.029885
31
0.0
0
LINE
8
0
6
CONTINUOUS
10
-0.056627
20
-0.027649
30
0.0
11
-0.056608
21
-0.029890
31
0.0
0
LINE
8
0
6
CONTINUOUS
10
-0.056075
20
-0.029885
30
0.0
11
-0.053993
21
-0.029867
31
0.0
0
LINE
8
0
6
CONTINUOUS
10
-0.052444
20
-0.029854
30
0.0
11
-0.052455
21
-0.028550
31
0.0
0
LINE
8
0
6
CONTINUOUS
10
-0.053993
20
-0.029867
30
0.0
11
-0.052444
21
-0.029854
31
0.0
0
LINE
8
0
6
CONTINUOUS
10
-0.053993
20
-0.029867
30
0.0
11
-0.056075
21
-0.029885
31
0.0
0
LINE
8
0
6
CONTINUOUS
10
-0.052444
20
-0.029854
30
0.0
11
-0.053993
21
-0.029867
31
0.0
0
LINE
8
0
6
CONTINUOUS
10
-0.056133
20
-0.029886
30
0.0
11
-0.055059
21
-0.029877
31
0.0
0
LINE
8
0
6
CONTINUOUS
10
-0.056075
20
-0.029885
30
0.0
11
-0.056608
21
-0.029890
31
0.0
0
LINE
8
0
6
CONTINUOUS
10
-0.050626
20
-0.030654
30
0.0
11
-0.050093
21
-0.030649
31
0.0
0
LINE
8
0
6
CONTINUOUS
10
-0.050093
20
-0.030649
30
0.0
11
-0.048011
21
-0.030631
31
0.0
0
LINE
8
0
6
CONTINUOUS
10
-0.046462
20
-0.030618
30
0.0
11
-0.046477
21
-0.028741
31
0.0
0
LINE
8
0
6
CONTINUOUS
10
-0.048011
20
-0.030631
30
0.0
11
-0.046462
21
-0.030618
31
0.0
0
LINE
8
0
6
CONTINUOUS
10
-0.048011
20
-0.030631
30
0.0
11
-0.050093
21
-0.030649
31
0.0
0
LINE
8
0
6
CONTINUOUS
10
-0.046462
20
-0.030618
30
0.0
11
-0.047975
21
-0.030631
31
0.0
0
LINE
8
0
6
CONTINUOUS
10
-0.047975
20
-0.030631
30
0.0
11
-0.047803
21
-0.030630
31
0.0
0
LINE
8
0
6
CONTINUOUS
10
-0.050626
20
-0.030654
30
0.0
11
-0.049077
21
-0.030641
31
0.0
0
LINE
8
0
6
CONTINUOUS
10
-0.050093
20
-0.030649
30
0.0
11
-0.050626
21
-0.030654
31
0.0
0
LINE
8
0
6
CONTINUOUS
10
-0.044183
20
-0.031398
30
0.0
11
-0.043650
21
-0.031394
31
0.0
0
LINE
8
0
6
CONTINUOUS
10
-0.043650
20
-0.031394
30
0.0
11
-0.041568
21
-0.031376
31
0.0
0
LINE
8
0
6
CONTINUOUS
10
-0.041568
20
-0.031376
30
0.0
11
-0.040421
21
-0.031366
31
0.0
0
LINE
8
0
6
CONTINUOUS
10
-0.041568
20
-0.031376
30
0.0
11
-0.043650
21
-0.031394
31
0.0
0
LINE
8
0
6
CONTINUOUS
10
-0.040421
20
-0.031366
30
0.0
11
-0.041568
21
-0.031376
31
0.0
0
LINE
8
0
6
CONTINUOUS
10
-0.044183
20
-0.031398
30
0.0
11
-0.042634
21
-0.031385
31
0.0
0
LINE
8
0
6
CONTINUOUS
10
-0.043650
20
-0.031394
30
0.0
11
-0.044183
21
-0.031398
31
0.0
0
LINE
8
0
6
CONTINUOUS
10
-0.066815
20
-0.028869
30
0.0
11
-0.066282
21
-0.028865
31
0.0
0
LINE
8
0
6
CONTINUOUS
10
-0.066834
20
-0.026552
30
0.0
11
-0.066815
21
-0.028869
31
0.0
0
LINE
8
0
6
CONTINUOUS
10
-0.066282
20
-0.028865
30
0.0
11
-0.064199
21
-0.028847
31
0.0
0
LINE
8
0
6
CONTINUOUS
10
-0.062650
20
-0.028834
30
0.0
11
-0.062666
21
-0.027034
31
0.0
0
LINE
8
0
6
CONTINUOUS
10
-0.064199
20
-0.028847
30
0.0
11
-0.062650
21
-0.028834
31
0.0
0
LINE
8
0
6
CONTINUOUS
10
-0.064199
20
-0.028847
30
0.0
11
-0.066282
21
-0.028865
31
0.0
0
LINE
8
0
6
CONTINUOUS
10
-0.062650
20
-0.028834
30
0.0
11
-0.064199
21
-0.028847
31
0.0
0
LINE
8
0
6
CONTINUOUS
10
-0.066815
20
-0.028869
30
0.0
11
-0.065266
21
-0.028856
31
0.0
0
LINE
8
0
6
CONTINUOUS
10
-0.066282
20
-0.028865
30
0.0
11
-0.066815
21
-0.028869
31
0.0
0
LINE
8
0
6
CONTINUOUS
10
-0.060421
20
-0.029862
30
0.0
11
-0.059888
21
-0.029858
31
0.0
0
LINE
8
0
6
CONTINUOUS
10
-0.059888
20
-0.029858
30
0.0
11
-0.057806
21
-0.029840
31
0.0
0
LINE
8
0
6
CONTINUOUS
10
-0.057806
20
-0.029840
30
0.0
11
-0.056609
21
-0.029830
31
0.0
0
LINE
8
0
6
CONTINUOUS
10
-0.057806
20
-0.029840
30
0.0
11
-0.059888
21
-0.029858
31
0.0
0
LINE
8
0
6
CONTINUOUS
10
-0.056609
20
-0.029830
30
0.0
11
-0.057806
21
-0.029840
31
0.0
0
LINE
8
0
6
CONTINUOUS
10
-0.059974
20
-0.029858
30
0.0
11
-0.058872
21
-0.029849
31
0.0
0
LINE
8
0
6
CONTINUOUS
10
-0.059888
20
-0.029858
30
0.0
11
-0.060421
21
-0.029862
31
0.0
0
LINE
8
0
6
CONTINUOUS
10
-0.053276
20
-0.030663
30
0.0
11
-0.052743
21
-0.030658
31
0.0
0
LINE
8
0
6
CONTINUOUS
10
-0.052743
20
-0.030658
30
0.0
11
-0.050661
21
-0.030640
31
0.0
0
LINE
8
0
6
CONTINUOUS
10
-0.050661
20
-0.030640
30
0.0
11
-0.052743
21
-0.030658
31
0.0
0
LINE
8
0
6
CONTINUOUS
10
-0.053276
20
-0.030663
30
0.0
11
-0.051799
21
-0.030650
31
0.0
0
LINE
8
0
6
CONTINUOUS
10
-0.052743
20
-0.030658
30
0.0
11
-0.053276
21
-0.030663
31
0.0
0
LINE
8
0
6
CONTINUOUS
10
-0.069814
20
-0.028902
30
0.0
11
-0.069281
21
-0.028897
31
0.0
0
LINE
8
0
6
CONTINUOUS
10
-0.069834
20
-0.026554
30
0.0
11
-0.069814
21
-0.028902
31
0.0
0
LINE
8
0
6
CONTINUOUS
10
-0.069281
20
-0.028897
30
0.0
11
-0.067199
21
-0.028880
31
0.0
0
LINE
8
0
6
CONTINUOUS
10
-0.067199
20
-0.028880
30
0.0
11
-0.069281
21
-0.028897
31
0.0
0
LINE
8
0
6
CONTINUOUS
10
-0.069814
20
-0.028902
30
0.0
11
-0.068265
21
-0.028889
31
0.0
0
LINE
8
0
6
CONTINUOUS
10
-0.069281
20
-0.028897
30
0.0
11
-0.069814
21
-0.028902
31
0.0
0
LINE
8
0
6
CONTINUOUS
10
-0.062169
20
-0.029867
30
0.0
11
-0.061636
21
-0.029863
31
0.0
0
LINE
8
0
6
CONTINUOUS
10
-0.062189
20
-0.027604
30
0.0
11
-0.062169
21
-0.029867
31
0.0
0
LINE
8
0
6
CONTINUOUS
10
-0.061636
20
-0.029863
30
0.0
11
-0.060421
21
-0.029852
31
0.0
0
LINE
8
0
6
CONTINUOUS
10
-0.060421
20
-0.029852
30
0.0
11
-0.061636
21
-0.029863
31
0.0
0
LINE
8
0
6
CONTINUOUS
10
-0.062169
20
-0.029867
30
0.0
11
-0.060620
21
-0.029854
31
0.0
0
LINE
8
0
6
CONTINUOUS
10
-0.061636
20
-0.029863
30
0.0
11
-0.062169
21
-0.029867
31
0.0
0
LINE
8
0
6
CONTINUOUS
10
-0.070963
20
-0.028908
30
0.0
11
-0.070430
21
-0.028904
31
0.0
0
LINE
8
0
6
CONTINUOUS
10
-0.070983
20
-0.026560
30
0.0
11
-0.070963
21
-0.028908
31
0.0
0
LINE
8
0
6
CONTINUOUS
10
-0.070430
20
-0.028904
30
0.0
11
-0.068348
21
-0.028886
31
0.0
0
LINE
8
0
6
CONTINUOUS
10
-0.068348
20
-0.028886
30
0.0
11
-0.070430
21
-0.028904
31
0.0
0
LINE
8
0
6
CONTINUOUS
10
-0.070963
20
-0.028908
30
0.0
11
-0.069814
21
-0.028899
31
0.0
0
LINE
8
0
6
CONTINUOUS
10
-0.070430
20
-0.028904
30
0.0
11
-0.070963
21
-0.028908
31
0.0
0
LINE
8
0
6
CONTINUOUS
10
0.041698
20
-0.028955
30
0.0
11
0.043828
21
-0.028951
31
0.0
0
LINE
8
0
6
CONTINUOUS
10
0.040742
20
-0.028942
30
0.0
11
0.041698
21
-0.028955
31
0.0
0
LINE
8
0
6
CONTINUOUS
10
0.040737
20
-0.027055
30
0.0
11
0.040742
21
-0.028942
31
0.0
0
LINE
8
0
6
CONTINUOUS
10
0.045059
20
-0.028933
30
0.0
11
0.045053
21
-0.026659
31
0.0
0
LINE
8
0
6
CONTINUOUS
10
0.043857
20
-0.028951
30
0.0
11
0.045059
21
-0.028933
31
0.0
0
LINE
8
0
6
CONTINUOUS
10
0.036288
20
-0.029902
30
0.0
11
0.038437
21
-0.029898
31
0.0
0
LINE
8
0
6
CONTINUOUS
10
0.035331
20
-0.029889
30
0.0
11
0.036288
21
-0.029902
31
0.0
0
LINE
8
0
6
CONTINUOUS
10
0.035326
20
-0.027943
30
0.0
11
0.035331
21
-0.029889
31
0.0
0
LINE
8
0
6
CONTINUOUS
10
0.039648
20
-0.029880
30
0.0
11
0.039643
21
-0.027675
31
0.0
0
LINE
8
0
6
CONTINUOUS
10
0.038447
20
-0.029898
30
0.0
11
0.039648
21
-0.029880
31
0.0
0
LINE
8
0
6
CONTINUOUS
10
0.031128
20
-0.030687
30
0.0
11
0.033286
21
-0.030683
31
0.0
0
LINE
8
0
6
CONTINUOUS
10
0.030171
20
-0.030674
30
0.0
11
0.031128
21
-0.030687
31
0.0
0
LINE
8
0
6
CONTINUOUS
10
0.030170
20
-0.030347
30
0.0
11
0.030171
21
-0.030674
31
0.0
0
LINE
8
0
6
CONTINUOUS
10
0.034488
20
-0.030665
30
0.0
11
0.034482
21
-0.028460
31
0.0
0
LINE
8
0
6
CONTINUOUS
10
0.033286
20
-0.030683
30
0.0
11
0.034488
21
-0.030665
31
0.0
0
LINE
8
0
6
CONTINUOUS
10
0.025893
20
-0.031393
30
0.0
11
0.028052
21
-0.031388
31
0.0
0
LINE
8
0
6
CONTINUOUS
10
0.024936
20
-0.031380
30
0.0
11
0.025893
21
-0.031393
31
0.0
0
LINE
8
0
6
CONTINUOUS
10
0.024934
20
-0.030525
30
0.0
11
0.024936
21
-0.031380
31
0.0
0
LINE
8
0
6
CONTINUOUS
10
0.029253
20
-0.031371
30
0.0
11
0.029251
21
-0.030382
31
0.0
0
LINE
8
0
6
CONTINUOUS
10
0.028052
20
-0.031388
30
0.0
11
0.029253
21
-0.031371
31
0.0
0
LINE
8
0
6
CONTINUOUS
10
0.020303
20
-0.032079
30
0.0
11
0.022462
21
-0.032075
31
0.0
0
LINE
8
0
6
CONTINUOUS
10
0.019347
20
-0.032066
30
0.0
11
0.020303
21
-0.032079
31
0.0
0
LINE
8
0
6
CONTINUOUS
10
0.023664
20
-0.032057
30
0.0
11
0.023660
21
-0.030567
31
0.0
0
LINE
8
0
6
CONTINUOUS
10
0.022462
20
-0.032075
30
0.0
11
0.023664
21
-0.032057
31
0.0
0
LINE
8
0
6
CONTINUOUS
10
0.014698
20
-0.032038
30
0.0
11
0.016857
21
-0.032033
31
0.0
0
LINE
8
0
6
CONTINUOUS
10
0.016857
20
-0.032033
30
0.0
11
0.018059
21
-0.032015
31
0.0
0
LINE
8
0
6
CONTINUOUS
10
0.009191
20
-0.032330
30
0.0
11
0.011349
21
-0.032325
31
0.0
0
LINE
8
0
6
CONTINUOUS
10
0.008234
20
-0.032317
30
0.0
11
0.009191
21
-0.032330
31
0.0
0
LINE
8
0
6
CONTINUOUS
10
0.011349
20
-0.032325
30
0.0
11
0.012551
21
-0.032308
31
0.0
0
LINE
8
0
6
CONTINUOUS
10
0.003773
20
-0.032598
30
0.0
11
0.005931
21
-0.032593
31
0.0
0
LINE
8
0
6
CONTINUOUS
10
0.002816
20
-0.032585
30
0.0
11
0.003773
21
-0.032598
31
0.0
0
LINE
8
0
6
CONTINUOUS
10
0.005931
20
-0.032593
30
0.0
11
0.007133
21
-0.032575
31
0.0
0
LINE
8
0
6
CONTINUOUS
10
-0.029844
20
-0.028933
30
0.0
11
-0.027685
21
-0.028928
31
0.0
0
LINE
8
0
6
CONTINUOUS
10
-0.030800
20
-0.028920
30
0.0
11
-0.029844
21
-0.028933
31
0.0
0
LINE
8
0
6
CONTINUOUS
10
-0.030806
20
-0.026766
30
0.0
11
-0.030800
21
-0.028920
31
0.0
0
LINE
8
0
6
CONTINUOUS
10
-0.026483
20
-0.028911
30
0.0
11
-0.026488
21
-0.026936
31
0.0
0
LINE
8
0
6
CONTINUOUS
10
-0.027685
20
-0.028928
30
0.0
11
-0.026483
21
-0.028911
31
0.0
0
LINE
8
0
6
CONTINUOUS
10
-0.024994
20
-0.029857
30
0.0
11
-0.022836
21
-0.029853
31
0.0
0
LINE
8
0
6
CONTINUOUS
10
-0.025951
20
-0.029844
30
0.0
11
-0.024994
21
-0.029857
31
0.0
0
LINE
8
0
6
CONTINUOUS
10
-0.025957
20
-0.027726
30
0.0
11
-0.025951
21
-0.029844
31
0.0
0
LINE
8
0
6
CONTINUOUS
10
-0.021634
20
-0.029835
30
0.0
11
-0.021639
21
-0.027835
31
0.0
0
LINE
8
0
6
CONTINUOUS
10
-0.022836
20
-0.029853
30
0.0
11
-0.021634
21
-0.029835
31
0.0
0
LINE
8
0
6
CONTINUOUS
10
-0.020170
20
-0.030667
30
0.0
11
-0.018012
21
-0.030662
31
0.0
0
LINE
8
0
6
CONTINUOUS
10
-0.021127
20
-0.030654
30
0.0
11
-0.020170
21
-0.030667
31
0.0
0
LINE
8
0
6
CONTINUOUS
10
-0.021133
20
-0.028535
30
0.0
11
-0.021127
21
-0.030651
31
0.0
0
LINE
8
0
6
CONTINUOUS
10
-0.016810
20
-0.030644
30
0.0
11
-0.016815
21
-0.028644
31
0.0
0
LINE
8
0
6
CONTINUOUS
10
-0.018012
20
-0.030662
30
0.0
11
-0.016810
21
-0.030644
31
0.0
0
LINE
8
0
6
CONTINUOUS
10
-0.015329
20
-0.031378
30
0.0
11
-0.013198
21
-0.031374
31
0.0
0
LINE
8
0
6
CONTINUOUS
10
-0.016286
20
-0.031365
30
0.0
11
-0.015329
21
-0.031378
31
0.0
0
LINE
8
0
6
CONTINUOUS
10
-0.016292
20
-0.029256
30
0.0
11
-0.016286
21
-0.031365
31
0.0
0
LINE
8
0
6
CONTINUOUS
10
-0.011969
20
-0.031356
30
0.0
11
-0.011974
21
-0.029348
31
0.0
0
LINE
8
0
6
CONTINUOUS
10
-0.013171
20
-0.031374
30
0.0
11
-0.011969
21
-0.031356
31
0.0
0
LINE
8
0
6
CONTINUOUS
10
-0.010506
20
-0.032064
30
0.0
11
-0.008348
21
-0.032060
31
0.0
0
LINE
8
0
6
CONTINUOUS
10
-0.011463
20
-0.032051
30
0.0
11
-0.010506
21
-0.032064
31
0.0
0
LINE
8
0
6
CONTINUOUS
10
-0.011469
20
-0.029941
30
0.0
11
-0.011463
21
-0.032051
31
0.0
0
LINE
8
0
6
CONTINUOUS
10
-0.007146
20
-0.032042
30
0.0
11
-0.007148
21
-0.031089
31
0.0
0
LINE
8
0
6
CONTINUOUS
10
-0.008348
20
-0.032060
30
0.0
11
-0.007146
21
-0.032042
31
0.0
0
LINE
8
0
6
CONTINUOUS
10
-0.005561
20
-0.032028
30
0.0
11
-0.003402
21
-0.032023
31
0.0
0
LINE
8
0
6
CONTINUOUS
10
-0.006517
20
-0.032015
30
0.0
11
-0.005561
21
-0.032028
31
0.0
0
LINE
8
0
6
CONTINUOUS
10
-0.006522
20
-0.030487
30
0.0
11
-0.006517
21
-0.032015
31
0.0
0
LINE
8
0
6
CONTINUOUS
10
-0.003402
20
-0.032023
30
0.0
11
-0.002200
21
-0.032006
31
0.0
0
LINE
8
0
6
CONTINUOUS
10
-0.000485
20
-0.032318
30
0.0
11
0.001674
21
-0.032314
31
0.0
0
LINE
8
0
6
CONTINUOUS
10
-0.001441
20
-0.032305
30
0.0
11
-0.000485
21
-0.032318
31
0.0
0
LINE
8
0
6
CONTINUOUS
10
-0.001445
20
-0.030789
30
0.0
11
-0.001441
21
-0.032305
31
0.0
0
LINE
8
0
6
CONTINUOUS
10
0.001674
20
-0.032314
30
0.0
11
0.002876
21
-0.032296
31
0.0
0
LINE
8
0
6
CONTINUOUS
10
0.032668
20
-0.028896
30
0.0
11
0.034827
21
-0.028891
31
0.0
0
LINE
8
0
6
CONTINUOUS
10
0.031712
20
-0.028883
30
0.0
11
0.032668
21
-0.028896
31
0.0
0
LINE
8
0
6
CONTINUOUS
10
0.031707
20
-0.026990
30
0.0
11
0.031712
21
-0.028883
31
0.0
0
LINE
8
0
6
CONTINUOUS
10
0.036029
20
-0.028874
30
0.0
11
0.036023
21
-0.026648
31
0.0
0
LINE
8
0
6
CONTINUOUS
10
0.034827
20
-0.028891
30
0.0
11
0.036029
21
-0.028874
31
0.0
0
LINE
8
0
6
CONTINUOUS
10
0.027367
20
-0.029886
30
0.0
11
0.029526
21
-0.029881
31
0.0
0
LINE
8
0
6
CONTINUOUS
10
0.026411
20
-0.029873
30
0.0
11
0.027367
21
-0.029886
31
0.0
0
LINE
8
0
6
CONTINUOUS
10
0.026405
20
-0.027925
30
0.0
11
0.026411
21
-0.029873
31
0.0
0
LINE
8
0
6
CONTINUOUS
10
0.030728
20
-0.029863
30
0.0
11
0.030722
21
-0.027691
31
0.0
0
LINE
8
0
6
CONTINUOUS
10
0.029526
20
-0.029881
30
0.0
11
0.030728
21
-0.029863
31
0.0
0
LINE
8
0
6
CONTINUOUS
10
0.021885
20
-0.030676
30
0.0
11
0.024043
21
-0.030672
31
0.0
0
LINE
8
0
6
CONTINUOUS
10
0.020928
20
-0.030663
30
0.0
11
0.021885
21
-0.030676
31
0.0
0
LINE
8
0
6
CONTINUOUS
10
0.020923
20
-0.028695
30
0.0
11
0.020928
21
-0.030657
31
0.0
0
LINE
8
0
6
CONTINUOUS
10
0.025245
20
-0.030654
30
0.0
11
0.025239
21
-0.028482
31
0.0
0
LINE
8
0
6
CONTINUOUS
10
0.024043
20
-0.030672
30
0.0
11
0.025245
21
-0.030654
31
0.0
0
LINE
8
0
6
CONTINUOUS
10
0.016538
20
-0.031396
30
0.0
11
0.018697
21
-0.031391
31
0.0
0
LINE
8
0
6
CONTINUOUS
10
0.015582
20
-0.031383
30
0.0
11
0.016538
21
-0.031396
31
0.0
0
LINE
8
0
6
CONTINUOUS
10
0.015576
20
-0.029384
30
0.0
11
0.015582
21
-0.031383
31
0.0
0
LINE
8
0
6
CONTINUOUS
10
0.019899
20
-0.031373
30
0.0
11
0.019893
21
-0.029237
31
0.0
0
LINE
8
0
6
CONTINUOUS
10
0.018697
20
-0.031391
30
0.0
11
0.019899
21
-0.031373
31
0.0
0
LINE
8
0
6
CONTINUOUS
10
0.011032
20
-0.032046
30
0.0
11
0.013191
21
-0.032042
31
0.0
0
LINE
8
0
6
CONTINUOUS
10
0.010075
20
-0.032033
30
0.0
11
0.011032
21
-0.032046
31
0.0
0
LINE
8
0
6
CONTINUOUS
10
0.010070
20
-0.030035
30
0.0
11
0.010075
21
-0.032033
31
0.0
0
LINE
8
0
6
CONTINUOUS
10
0.014393
20
-0.032024
30
0.0
11
0.014390
21
-0.030874
31
0.0
0
LINE
8
0
6
CONTINUOUS
10
0.013191
20
-0.032042
30
0.0
11
0.014393
21
-0.032024
31
0.0
0
LINE
8
0
6
CONTINUOUS
10
0.005206
20
-0.032028
30
0.0
11
0.007364
21
-0.032023
31
0.0
0
LINE
8
0
6
CONTINUOUS
10
0.004249
20
-0.032015
30
0.0
11
0.005206
21
-0.032028
31
0.0
0
LINE
8
0
6
CONTINUOUS
10
0.004245
20
-0.030514
30
0.0
11
0.004249
21
-0.032015
31
0.0
0
LINE
8
0
6
CONTINUOUS
10
0.008566
20
-0.032006
30
0.0
11
0.008564
21
-0.031049
31
0.0
0
LINE
8
0
6
CONTINUOUS
10
0.007364
20
-0.032023
30
0.0
11
0.008566
21
-0.032006
31
0.0
0
LINE
8
0
6
CONTINUOUS
10
0.022958
20
-0.028885
30
0.0
11
0.025117
21
-0.028880
31
0.0
0
LINE
8
0
6
CONTINUOUS
10
0.022002
20
-0.028872
30
0.0
11
0.022958
21
-0.028885
31
0.0
0
LINE
8
0
6
CONTINUOUS
10
0.021996
20
-0.026922
30
0.0
11
0.022002
21
-0.028872
31
0.0
0
LINE
8
0
6
CONTINUOUS
10
0.026319
20
-0.028863
30
0.0
11
0.026313
21
-0.026694
31
0.0
0
LINE
8
0
6
CONTINUOUS
10
0.025117
20
-0.028880
30
0.0
11
0.026319
21
-0.028863
31
0.0
0
LINE
8
0
6
CONTINUOUS
10
0.017467
20
-0.029853
30
0.0
11
0.019625
21
-0.029849
31
0.0
0
LINE
8
0
6
CONTINUOUS
10
0.016510
20
-0.029840
30
0.0
11
0.017467
21
-0.029853
31
0.0
0
LINE
8
0
6
CONTINUOUS
10
0.016505
20
-0.027854
30
0.0
11
0.016510
21
-0.029840
31
0.0
0
LINE
8
0
6
CONTINUOUS
10
0.020827
20
-0.029831
30
0.0
11
0.020822
21
-0.027699
31
0.0
0
LINE
8
0
6
CONTINUOUS
10
0.019625
20
-0.029849
30
0.0
11
0.020827
21
-0.029831
31
0.0
0
LINE
8
0
6
CONTINUOUS
10
0.011843
20
-0.030672
30
0.0
11
0.014001
21
-0.030668
31
0.0
0
LINE
8
0
6
CONTINUOUS
10
0.010886
20
-0.030659
30
0.0
11
0.011843
21
-0.030672
31
0.0
0
LINE
8
0
6
CONTINUOUS
10
0.010881
20
-0.028667
30
0.0
11
0.010886
21
-0.030659
31
0.0
0
LINE
8
0
6
CONTINUOUS
10
0.015203
20
-0.030650
30
0.0
11
0.015198
21
-0.028518
31
0.0
0
LINE
8
0
6
CONTINUOUS
10
0.014001
20
-0.030668
30
0.0
11
0.015203
21
-0.030650
31
0.0
0
LINE
8
0
6
CONTINUOUS
10
0.006159
20
-0.031382
30
0.0
11
0.008318
21
-0.031378
31
0.0
0
LINE
8
0
6
CONTINUOUS
10
0.005203
20
-0.031369
30
0.0
11
0.006159
21
-0.031382
31
0.0
0
LINE
8
0
6
CONTINUOUS
10
0.005197
20
-0.029335
30
0.0
11
0.005203
21
-0.031369
31
0.0
0
LINE
8
0
6
CONTINUOUS
10
0.009520
20
-0.031360
30
0.0
11
0.009514
21
-0.029276
31
0.0
0
LINE
8
0
6
CONTINUOUS
10
0.008318
20
-0.031378
30
0.0
11
0.009520
21
-0.031360
31
0.0
0
LINE
8
0
6
CONTINUOUS
10
0.000206
20
-0.032064
30
0.0
11
0.002364
21
-0.032059
31
0.0
0
LINE
8
0
6
CONTINUOUS
10
-0.000751
20
-0.032051
30
0.0
11
0.000206
21
-0.032064
31
0.0
0
LINE
8
0
6
CONTINUOUS
10
-0.000756
20
-0.030005
30
0.0
11
-0.000751
21
-0.032051
31
0.0
0
LINE
8
0
6
CONTINUOUS
10
0.003566
20
-0.032042
30
0.0
11
0.003561
21
-0.029958
31
0.0
0
LINE
8
0
6
CONTINUOUS
10
0.002364
20
-0.032059
30
0.0
11
0.003566
21
-0.032042
31
0.0
0
LINE
8
0
6
CONTINUOUS
10
0.012495
20
-0.028945
30
0.0
11
0.014654
21
-0.028940
31
0.0
0
LINE
8
0
6
CONTINUOUS
10
0.011539
20
-0.028932
30
0.0
11
0.012495
21
-0.028945
31
0.0
0
LINE
8
0
6
CONTINUOUS
10
0.011533
20
-0.026919
30
0.0
11
0.011539
21
-0.028932
31
0.0
0
LINE
8
0
6
CONTINUOUS
10
0.015856
20
-0.028923
30
0.0
11
0.015850
21
-0.026797
31
0.0
0
LINE
8
0
6
CONTINUOUS
10
0.014654
20
-0.028940
30
0.0
11
0.015856
21
-0.028923
31
0.0
0
LINE
8
0
6
CONTINUOUS
10
0.006726
20
-0.029857
30
0.0
11
0.008885
21
-0.029852
31
0.0
0
LINE
8
0
6
CONTINUOUS
10
0.005769
20
-0.029843
30
0.0
11
0.006726
21
-0.029857
31
0.0
0
LINE
8
0
6
CONTINUOUS
10
0.005764
20
-0.027814
30
0.0
11
0.005769
21
-0.029843
31
0.0
0
LINE
8
0
6
CONTINUOUS
10
0.010087
20
-0.029834
30
0.0
11
0.010081
21
-0.027745
31
0.0
0
LINE
8
0
6
CONTINUOUS
10
0.008885
20
-0.029852
30
0.0
11
0.010087
21
-0.029834
31
0.0
0
LINE
8
0
6
CONTINUOUS
10
0.001080
20
-0.030662
30
0.0
11
0.003239
21
-0.030657
31
0.0
0
LINE
8
0
6
CONTINUOUS
10
0.000123
20
-0.030649
30
0.0
11
0.001080
21
-0.030662
31
0.0
0
LINE
8
0
6
CONTINUOUS
10
0.000118
20
-0.028620
30
0.0
11
0.000123
21
-0.030649
31
0.0
0
LINE
8
0
6
CONTINUOUS
10
0.004440
20
-0.030640
30
0.0
11
0.004435
21
-0.028550
31
0.0
0
LINE
8
0
6
CONTINUOUS
10
0.003239
20
-0.030657
30
0.0
11
0.004440
21
-0.030640
31
0.0
0
LINE
8
0
6
CONTINUOUS
10
-0.004739
20
-0.031383
30
0.0
11
-0.002581
21
-0.031379
31
0.0
0
LINE
8
0
6
CONTINUOUS
10
-0.005696
20
-0.031370
30
0.0
11
-0.004739
21
-0.031383
31
0.0
0
LINE
8
0
6
CONTINUOUS
10
-0.005701
20
-0.029298
30
0.0
11
-0.005696
21
-0.031370
31
0.0
0
LINE
8
0
6
CONTINUOUS
10
-0.001379
20
-0.031361
30
0.0
11
-0.001384
21
-0.029315
31
0.0
0
LINE
8
0
6
CONTINUOUS
10
-0.002581
20
-0.031379
30
0.0
11
-0.001379
21
-0.031361
31
0.0
0
LINE
8
0
6
CONTINUOUS
10
0.001777
20
-0.028887
30
0.0
11
0.003936
21
-0.028882
31
0.0
0
LINE
8
0
6
CONTINUOUS
10
0.000820
20
-0.028874
30
0.0
11
0.001777
21
-0.028887
31
0.0
0
LINE
8
0
6
CONTINUOUS
10
0.000815
20
-0.026861
30
0.0
11
0.000820
21
-0.028874
31
0.0
0
LINE
8
0
6
CONTINUOUS
10
0.005138
20
-0.028864
30
0.0
11
0.005132
21
-0.026759
31
0.0
0
LINE
8
0
6
CONTINUOUS
10
0.003936
20
-0.028882
30
0.0
11
0.005138
21
-0.028864
31
0.0
0
LINE
8
0
6
CONTINUOUS
10
-0.004042
20
-0.029863
30
0.0
11
-0.001883
21
-0.029859
31
0.0
0
LINE
8
0
6
CONTINUOUS
10
-0.004998
20
-0.029850
30
0.0
11
-0.004042
21
-0.029863
31
0.0
0
LINE
8
0
6
CONTINUOUS
10
-0.005004
20
-0.027777
30
0.0
11
-0.004998
21
-0.029850
31
0.0
0
LINE
8
0
6
CONTINUOUS
10
-0.000681
20
-0.029841
30
0.0
11
-0.000687
21
-0.027797
31
0.0
0
LINE
8
0
6
CONTINUOUS
10
-0.001883
20
-0.029859
30
0.0
11
-0.000681
21
-0.029841
31
0.0
0
LINE
8
0
6
CONTINUOUS
10
-0.009744
20
-0.030665
30
0.0
11
-0.007585
21
-0.030660
31
0.0
0
LINE
8
0
6
CONTINUOUS
10
-0.010701
20
-0.030652
30
0.0
11
-0.009744
21
-0.030665
31
0.0
0
LINE
8
0
6
CONTINUOUS
10
-0.010706
20
-0.028578
30
0.0
11
-0.010701
21
-0.030652
31
0.0
0
LINE
8
0
6
CONTINUOUS
10
-0.006384
20
-0.030643
30
0.0
11
-0.006389
21
-0.028598
31
0.0
0
LINE
8
0
6
CONTINUOUS
10
-0.007585
20
-0.030660
30
0.0
11
-0.006384
21
-0.030643
31
0.0
0
LINE
8
0
6
CONTINUOUS
10
-0.008907
20
-0.028860
30
0.0
11
-0.006749
21
-0.028856
31
0.0
0
LINE
8
0
6
CONTINUOUS
10
-0.009864
20
-0.028847
30
0.0
11
-0.008907
21
-0.028860
31
0.0
0
LINE
8
0
6
CONTINUOUS
10
-0.009869
20
-0.026769
30
0.0
11
-0.009864
21
-0.028847
31
0.0
0
LINE
8
0
6
CONTINUOUS
10
-0.005547
20
-0.028838
30
0.0
11
-0.005552
21
-0.026799
31
0.0
0
LINE
8
0
6
CONTINUOUS
10
-0.006749
20
-0.028856
30
0.0
11
-0.005547
21
-0.028838
31
0.0
0
LINE
8
0
6
CONTINUOUS
10
-0.014772
20
-0.029900
30
0.0
11
-0.012614
21
-0.029896
31
0.0
0
LINE
8
0
6
CONTINUOUS
10
-0.015729
20
-0.029887
30
0.0
11
-0.014772
21
-0.029900
31
0.0
0
LINE
8
0
6
CONTINUOUS
10
-0.015735
20
-0.027771
30
0.0
11
-0.015729
21
-0.029887
31
0.0
0
LINE
8
0
6
CONTINUOUS
10
-0.011412
20
-0.029878
30
0.0
11
-0.011417
21
-0.027834
31
0.0
0
LINE
8
0
6
CONTINUOUS
10
-0.012614
20
-0.029896
30
0.0
11
-0.011412
21
-0.029878
31
0.0
0
LINE
8
0
6
CONTINUOUS
10
-0.019720
20
-0.028910
30
0.0
11
-0.017561
21
-0.028905
31
0.0
0
LINE
8
0
6
CONTINUOUS
10
-0.020677
20
-0.028897
30
0.0
11
-0.019720
21
-0.028910
31
0.0
0
LINE
8
0
6
CONTINUOUS
10
-0.020682
20
-0.026754
30
0.0
11
-0.020677
21
-0.028897
31
0.0
0
LINE
8
0
6
CONTINUOUS
10
-0.016360
20
-0.028888
30
0.0
11
-0.016365
21
-0.026913
31
0.0
0
LINE
8
0
6
CONTINUOUS
10
-0.017561
20
-0.028905
30
0.0
11
-0.016360
21
-0.028888
31
0.0
0
LINE
8
0
6
CONTINUOUS
10
0.052946
20
-0.028903
30
0.0
11
0.052962
21
-0.026657
31
0.0
0
LINE
8
0
6
CONTINUOUS
10
0.052148
20
-0.028907
30
0.0
11
0.052946
21
-0.028903
31
0.0
0
LINE
8
0
6
CONTINUOUS
10
0.050008
20
-0.028894
30
0.0
11
0.052136
21
-0.028907
31
0.0
0
LINE
8
0
6
CONTINUOUS
10
0.048666
20
-0.028877
30
0.0
11
0.050008
21
-0.028894
31
0.0
0
LINE
8
0
6
CONTINUOUS
10
0.048679
20
-0.027005
30
0.0
11
0.048666
21
-0.028877
31
0.0
0
LINE
8
0
6
CONTINUOUS
10
0.047793
20
-0.029856
30
0.0
11
0.047808
21
-0.027665
31
0.0
0
LINE
8
0
6
CONTINUOUS
10
0.046995
20
-0.029861
30
0.0
11
0.047793
21
-0.029856
31
0.0
0
LINE
8
0
6
CONTINUOUS
10
0.044854
20
-0.029848
30
0.0
11
0.046995
21
-0.029861
31
0.0
0
LINE
8
0
6
CONTINUOUS
10
0.043512
20
-0.029830
30
0.0
11
0.044854
21
-0.029848
31
0.0
0
LINE
8
0
6
CONTINUOUS
10
0.043516
20
-0.029308
30
0.0
11
0.043512
21
-0.029830
31
0.0
0
LINE
8
0
6
CONTINUOUS
10
0.042087
20
-0.030684
30
0.0
11
0.042096
21
-0.029418
31
0.0
0
LINE
8
0
6
CONTINUOUS
10
0.041289
20
-0.030688
30
0.0
11
0.042087
21
-0.030684
31
0.0
0
LINE
8
0
6
CONTINUOUS
10
0.039148
20
-0.030675
30
0.0
11
0.041289
21
-0.030688
31
0.0
0
LINE
8
0
6
CONTINUOUS
10
0.037806
20
-0.030658
30
0.0
11
0.039148
21
-0.030675
31
0.0
0
LINE
8
0
6
CONTINUOUS
10
0.037813
20
-0.029752
30
0.0
11
0.037806
21
-0.030658
31
0.0
0
LINE
8
0
6
CONTINUOUS
10
0.036749
20
-0.031385
30
0.0
11
0.036760
21
-0.029834
31
0.0
0
LINE
8
0
6
CONTINUOUS
10
0.035951
20
-0.031389
30
0.0
11
0.036749
21
-0.031385
31
0.0
0
LINE
8
0
6
CONTINUOUS
10
0.033811
20
-0.031376
30
0.0
11
0.035951
21
-0.031389
31
0.0
0
LINE
8
0
6
CONTINUOUS
10
0.032469
20
-0.031359
30
0.0
11
0.033811
21
-0.031376
31
0.0
0
LINE
8
0
6
CONTINUOUS
10
0.032477
20
-0.030167
30
0.0
11
0.032469
21
-0.031359
31
0.0
0
LINE
8
0
6
CONTINUOUS
10
0.031020
20
-0.032054
30
0.0
11
0.031032
21
-0.030279
31
0.0
0
LINE
8
0
6
CONTINUOUS
10
0.030222
20
-0.032058
30
0.0
11
0.031020
21
-0.032054
31
0.0
0
LINE
8
0
6
CONTINUOUS
10
0.028082
20
-0.032045
30
0.0
11
0.030222
21
-0.032058
31
0.0
0
LINE
8
0
6
CONTINUOUS
10
0.026740
20
-0.032028
30
0.0
11
0.028082
21
-0.032045
31
0.0
0
LINE
8
0
6
CONTINUOUS
10
0.024869
20
-0.032025
30
0.0
11
0.024879
21
-0.030526
31
0.0
0
LINE
8
0
6
CONTINUOUS
10
0.024070
20
-0.032030
30
0.0
11
0.024869
21
-0.032025
31
0.0
0
LINE
8
0
6
CONTINUOUS
10
0.023664
20
-0.032027
30
0.0
11
0.024070
21
-0.032030
31
0.0
0
LINE
8
0
6
CONTINUOUS
10
0.018479
20
-0.032314
30
0.0
11
0.018490
21
-0.030738
31
0.0
0
LINE
8
0
6
CONTINUOUS
10
0.017680
20
-0.032319
30
0.0
11
0.018479
21
-0.032314
31
0.0
0
LINE
8
0
6
CONTINUOUS
10
0.015540
20
-0.032306
30
0.0
11
0.017680
21
-0.032319
31
0.0
0
LINE
8
0
6
CONTINUOUS
10
0.014198
20
-0.032288
30
0.0
11
0.015540
21
-0.032306
31
0.0
0
LINE
8
0
6
CONTINUOUS
10
0.068919
20
-0.028926
30
0.0
11
0.069718
21
-0.028922
31
0.0
0
LINE
8
0
6
CONTINUOUS
10
0.066779
20
-0.028913
30
0.0
11
0.068919
21
-0.028926
31
0.0
0
LINE
8
0
6
CONTINUOUS
10
0.065437
20
-0.028896
30
0.0
11
0.066779
21
-0.028913
31
0.0
0
LINE
8
0
6
CONTINUOUS
10
0.060589
20
-0.029889
30
0.0
11
0.061387
21
-0.029885
31
0.0
0
LINE
8
0
6
CONTINUOUS
10
0.058449
20
-0.029876
30
0.0
11
0.060589
21
-0.029889
31
0.0
0
LINE
8
0
6
CONTINUOUS
10
0.057107
20
-0.029858
30
0.0
11
0.058449
21
-0.029876
31
0.0
0
LINE
8
0
6
CONTINUOUS
10
0.045141
20
-0.031378
30
0.0
11
0.045146
21
-0.030662
31
0.0
0
LINE
8
0
6
CONTINUOUS
10
0.042202
20
-0.031369
30
0.0
11
0.044342
21
-0.031382
31
0.0
0
LINE
8
0
6
CONTINUOUS
10
0.036899
20
-0.032046
30
0.0
11
0.036914
21
-0.029901
31
0.0
0
LINE
8
0
6
CONTINUOUS
10
0.036101
20
-0.032051
30
0.0
11
0.036899
21
-0.032046
31
0.0
0
LINE
8
0
6
CONTINUOUS
10
0.035502
20
-0.032047
30
0.0
11
0.036101
21
-0.032051
31
0.0
0
LINE
8
0
6
CONTINUOUS
10
0.024874
20
-0.032013
30
0.0
11
0.026740
21
-0.032025
31
0.0
0
LINE
8
0
6
CONTINUOUS
10
0.071066
20
-0.028896
30
0.0
11
0.071082
21
-0.026585
31
0.0
0
LINE
8
0
6
CONTINUOUS
10
0.070268
20
-0.028901
30
0.0
11
0.071066
21
-0.028896
31
0.0
0
LINE
8
0
6
CONTINUOUS
10
0.062611
20
-0.029880
30
0.0
11
0.062618
21
-0.028883
31
0.0
0
LINE
8
0
6
CONTINUOUS
10
0.061813
20
-0.029885
30
0.0
11
0.062611
21
-0.029880
31
0.0
0
LINE
8
0
6
CONTINUOUS
10
0.059673
20
-0.029872
30
0.0
11
0.061813
21
-0.029885
31
0.0
0
LINE
8
0
6
CONTINUOUS
10
0.053038
20
-0.030666
30
0.0
11
0.053837
21
-0.030661
31
0.0
0
LINE
8
0
6
CONTINUOUS
10
0.044248
20
-0.031377
30
0.0
11
0.045046
21
-0.031372
31
0.0
0
LINE
8
0
6
CONTINUOUS
10
0.042108
20
-0.031364
30
0.0
11
0.044248
21
-0.031377
31
0.0
0
LINE
8
0
6
CONTINUOUS
10
0.034703
20
-0.032064
30
0.0
11
0.035502
21
-0.032059
31
0.0
0
LINE
8
0
6
CONTINUOUS
10
0.032563
20
-0.032051
30
0.0
11
0.034703
21
-0.032064
31
0.0
0
LINE
8
0
6
CONTINUOUS
10
0.031221
20
-0.032033
30
0.0
11
0.032563
21
-0.032051
31
0.0
0
LINE
8
0
6
CONTINUOUS
10
0.031233
20
-0.030264
30
0.0
11
0.031221
21
-0.032033
31
0.0
0
LINE
8
0
6
CONTINUOUS
10
0.070528
20
-0.028901
30
0.0
11
0.070544
21
-0.026546
31
0.0
0
LINE
8
0
6
CONTINUOUS
10
0.069729
20
-0.028906
30
0.0
11
0.070528
21
-0.028901
31
0.0
0
LINE
8
0
6
CONTINUOUS
10
0.067589
20
-0.028893
30
0.0
11
0.069718
21
-0.028906
31
0.0
0
LINE
8
0
6
CONTINUOUS
10
0.060795
20
-0.029867
30
0.0
11
0.061594
21
-0.029862
31
0.0
0
LINE
8
0
6
CONTINUOUS
10
0.058655
20
-0.029854
30
0.0
11
0.060795
21
-0.029867
31
0.0
0
LINE
8
0
6
CONTINUOUS
10
0.051326
20
-0.030664
30
0.0
11
0.052124
21
-0.030660
31
0.0
0
LINE
8
0
6
CONTINUOUS
10
0.049185
20
-0.030651
30
0.0
11
0.051326
21
-0.030664
31
0.0
0
LINE
8
0
6
CONTINUOUS
10
0.047843
20
-0.030634
30
0.0
11
0.049185
21
-0.030651
31
0.0
0
LINE
8
0
6
CONTINUOUS
10
0.042087
20
-0.031382
30
0.0
11
0.042102
21
-0.029159
31
0.0
0
LINE
8
0
6
CONTINUOUS
10
0.041288
20
-0.031386
30
0.0
11
0.042087
21
-0.031382
31
0.0
0
LINE
8
0
6
CONTINUOUS
10
0.039148
20
-0.031373
30
0.0
11
0.041288
21
-0.031386
31
0.0
0
LINE
8
0
6
CONTINUOUS
10
0.037806
20
-0.031356
30
0.0
11
0.039148
21
-0.031373
31
0.0
0
LINE
8
0
6
CONTINUOUS
10
0.037817
20
-0.029751
30
0.0
11
0.037806
21
-0.031356
31
0.0
0
LINE
8
0
6
CONTINUOUS
10
0.068754
20
-0.028885
30
0.0
11
0.068770
21
-0.026554
31
0.0
0
LINE
8
0
6
CONTINUOUS
10
0.067955
20
-0.028890
30
0.0
11
0.068754
21
-0.028885
31
0.0
0
LINE
8
0
6
CONTINUOUS
10
0.065815
20
-0.028877
30
0.0
11
0.067955
21
-0.028890
31
0.0
0
LINE
8
0
6
CONTINUOUS
10
0.058766
20
-0.029847
30
0.0
11
0.058778
21
-0.027968
31
0.0
0
LINE
8
0
6
CONTINUOUS
10
0.057967
20
-0.029851
30
0.0
11
0.058766
21
-0.029847
31
0.0
0
LINE
8
0
6
CONTINUOUS
10
0.055827
20
-0.029838
30
0.0
11
0.057967
21
-0.029851
31
0.0
0
LINE
8
0
6
CONTINUOUS
10
0.054485
20
-0.029821
30
0.0
11
0.055827
21
-0.029838
31
0.0
0
LINE
8
0
6
CONTINUOUS
10
0.054498
20
-0.027952
30
0.0
11
0.054485
21
-0.029821
31
0.0
0
LINE
8
0
6
CONTINUOUS
10
0.048097
20
-0.030672
30
0.0
11
0.048113
21
-0.028448
31
0.0
0
LINE
8
0
6
CONTINUOUS
10
0.047299
20
-0.030677
30
0.0
11
0.048097
21
-0.030672
31
0.0
0
LINE
8
0
6
CONTINUOUS
10
0.045159
20
-0.030664
30
0.0
11
0.047299
21
-0.030677
31
0.0
0
LINE
8
0
6
CONTINUOUS
10
0.043817
20
-0.030646
30
0.0
11
0.045159
21
-0.030664
31
0.0
0
LINE
8
0
6
CONTINUOUS
10
0.043826
20
-0.029283
30
0.0
11
0.043817
21
-0.030646
31
0.0
0
LINE
8
0
6
CONTINUOUS
10
0.065163
20
-0.028889
30
0.0
11
0.065179
21
-0.026558
31
0.0
0
LINE
8
0
6
CONTINUOUS
10
0.064364
20
-0.028893
30
0.0
11
0.065163
21
-0.028889
31
0.0
0
LINE
8
0
6
CONTINUOUS
10
0.062224
20
-0.028880
30
0.0
11
0.064364
21
-0.028893
31
0.0
0
LINE
8
0
6
CONTINUOUS
10
0.060882
20
-0.028863
30
0.0
11
0.062224
21
-0.028880
31
0.0
0
LINE
8
0
6
CONTINUOUS
10
0.060894
20
-0.027076
30
0.0
11
0.060882
21
-0.028863
31
0.0
0
LINE
8
0
6
CONTINUOUS
10
0.053895
20
-0.029863
30
0.0
11
0.053910
21
-0.027639
31
0.0
0
LINE
8
0
6
CONTINUOUS
10
0.053096
20
-0.029868
30
0.0
11
0.053895
21
-0.029863
31
0.0
0
LINE
8
0
6
CONTINUOUS
10
0.050956
20
-0.029855
30
0.0
11
0.053096
21
-0.029868
31
0.0
0
LINE
8
0
6
CONTINUOUS
10
0.049614
20
-0.029837
30
0.0
11
0.050956
21
-0.029855
31
0.0
0
LINE
8
0
6
CONTINUOUS
10
0.049621
20
-0.028811
30
0.0
11
0.049614
21
-0.029837
31
0.0
0
LINE
8
0
6
CONTINUOUS
10
0.059641
20
-0.028885
30
0.0
11
0.059657
21
-0.026591
31
0.0
0
LINE
8
0
6
CONTINUOUS
10
0.058843
20
-0.028890
30
0.0
11
0.059641
21
-0.028885
31
0.0
0
LINE
8
0
6
CONTINUOUS
10
0.056703
20
-0.028877
30
0.0
11
0.058843
21
-0.028890
31
0.0
0
LINE
8
0
6
CONTINUOUS
10
0.055361
20
-0.028859
30
0.0
11
0.056703
21
-0.028877
31
0.0
0
LINE
8
0
6
CONTINUOUS
10
0.055373
20
-0.027036
30
0.0
11
0.055361
21
-0.028859
31
0.0
0
LINE
8
0
6
CONTINUOUS
10
0.055686
20
-0.029856
30
0.0
11
0.057827
21
-0.029869
31
0.0
0
LINE
8
0
6
CONTINUOUS
10
0.054344
20
-0.029839
30
0.0
11
0.055686
21
-0.029856
31
0.0
0
LINE
8
0
6
CONTINUOUS
10
0.054354
20
-0.028375
30
0.0
11
0.054344
21
-0.029839
31
0.0
0
LINE
8
0
6
CONTINUOUS
10
0.033724
20
-0.032064
30
0.0
11
0.034522
21
-0.032059
31
0.0
0
LINE
8
0
6
CONTINUOUS
10
0.025206
20
-0.032033
30
0.0
11
0.026004
21
-0.032028
31
0.0
0
LINE
8
0
6
CONTINUOUS
10
0.025139
20
-0.032032
30
0.0
11
0.025206
21
-0.032033
31
0.0
0
LINE
8
0
6
CONTINUOUS
10
0.016960
20
-0.032327
30
0.0
11
0.017759
21
-0.032322
31
0.0
0
LINE
8
0
6
CONTINUOUS
10
0.014820
20
-0.032314
30
0.0
11
0.016960
21
-0.032327
31
0.0
0
LINE
8
0
6
CONTINUOUS
10
0.013478
20
-0.032296
30
0.0
11
0.014820
21
-0.032314
31
0.0
0
LINE
8
0
6
CONTINUOUS
10
0.009618
20
-0.032592
30
0.0
11
0.009620
21
-0.032329
31
0.0
0
LINE
8
0
6
CONTINUOUS
10
0.008820
20
-0.032596
30
0.0
11
0.009618
21
-0.032592
31
0.0
0
LINE
8
0
6
CONTINUOUS
10
0.006680
20
-0.032583
30
0.0
11
0.008820
21
-0.032596
31
0.0
0
LINE
8
0
6
CONTINUOUS
10
0.054049
20
-0.029847
30
0.0
11
0.054059
21
-0.028403
31
0.0
0
LINE
8
0
6
CONTINUOUS
10
0.037562
20
-0.031383
30
0.0
11
0.037572
21
-0.029899
31
0.0
0
LINE
8
0
6
CONTINUOUS
10
0.037192
20
-0.031370
30
0.0
11
0.037562
21
-0.031383
31
0.0
0
LINE
8
0
6
CONTINUOUS
10
0.036904
20
-0.031367
30
0.0
11
0.037192
21
-0.031370
31
0.0
0
LINE
8
0
6
CONTINUOUS
10
0.037192
20
-0.031370
30
0.0
11
0.036904
21
-0.031367
31
0.0
0
LINE
8
0
6
CONTINUOUS
10
0.037562
20
-0.031383
30
0.0
11
0.037192
21
-0.031370
31
0.0
0
LINE
8
0
6
CONTINUOUS
10
0.036904
20
-0.031381
30
0.0
11
0.037562
21
-0.031383
31
0.0
0
LINE
8
0
6
CONTINUOUS
10
0.028830
20
-0.032062
30
0.0
11
0.029200
21
-0.032075
31
0.0
0
LINE
8
0
6
CONTINUOUS
10
0.026799
20
-0.032044
30
0.0
11
0.028830
21
-0.032062
31
0.0
0
LINE
8
0
6
CONTINUOUS
10
0.025139
20
-0.032040
30
0.0
11
0.026799
21
-0.032044
31
0.0
0
LINE
8
0
6
CONTINUOUS
10
0.025509
20
-0.032053
30
0.0
11
0.027539
21
-0.032070
31
0.0
0
LINE
8
0
6
CONTINUOUS
10
0.026799
20
-0.032044
30
0.0
11
0.025139
21
-0.032040
31
0.0
0
LINE
8
0
6
CONTINUOUS
10
0.028830
20
-0.032062
30
0.0
11
0.026799
21
-0.032044
31
0.0
0
LINE
8
0
6
CONTINUOUS
10
0.029200
20
-0.032075
30
0.0
11
0.028830
21
-0.032062
31
0.0
0
LINE
8
0
6
CONTINUOUS
10
0.027539
20
-0.032070
30
0.0
11
0.029200
21
-0.032075
31
0.0
0
LINE
8
0
6
CONTINUOUS
10
0.018481
20
-0.032000
30
0.0
11
0.019346
21
-0.032007
31
0.0
0
LINE
8
0
6
CONTINUOUS
10
0.018481
20
-0.032019
30
0.0
11
0.018793
21
-0.032022
31
0.0
0
LINE
8
0
6
CONTINUOUS
10
0.019346
20
-0.032007
30
0.0
11
0.018481
21
-0.032000
31
0.0
0
LINE
8
0
6
CONTINUOUS
10
0.018793
20
-0.032022
30
0.0
11
0.019346
21
-0.032024
31
0.0
0
LINE
8
0
6
CONTINUOUS
10
0.018879
20
-0.032028
30
0.0
11
0.019346
21
-0.032032
31
0.0
0
LINE
8
0
6
CONTINUOUS
10
0.018481
20
-0.032027
30
0.0
11
0.018879
21
-0.032028
31
0.0
0
LINE
8
0
6
CONTINUOUS
10
0.018481
20
-0.032044
30
0.0
11
0.019346
21
-0.032052
31
0.0
0
LINE
8
0
6
CONTINUOUS
10
0.018879
20
-0.032028
30
0.0
11
0.018481
21
-0.032027
31
0.0
0
LINE
8
0
6
CONTINUOUS
10
0.019346
20
-0.032032
30
0.0
11
0.018879
21
-0.032028
31
0.0
0
LINE
8
0
6
CONTINUOUS
10
0.037567
20
-0.030637
30
0.0
11
0.037807
21
-0.030639
31
0.0
0
LINE
8
0
6
CONTINUOUS
10
0.037811
20
-0.030639
30
0.0
11
0.037567
21
-0.030637
31
0.0
0
LINE
8
0
6
CONTINUOUS
10
0.037567
20
-0.030655
30
0.0
11
0.037806
21
-0.030656
31
0.0
0
LINE
8
0
6
CONTINUOUS
10
0.054055
20
-0.028919
30
0.0
11
0.054351
21
-0.028921
31
0.0
0
LINE
8
0
6
CONTINUOUS
10
0.054055
20
-0.028938
30
0.0
11
0.054351
21
-0.028941
31
0.0
0
LINE
8
0
6
CONTINUOUS
10
0.054351
20
-0.028921
30
0.0
11
0.054055
21
-0.028919
31
0.0
0
LINE
8
0
6
CONTINUOUS
10
-0.068244
20
-0.028916
30
0.0
11
-0.068164
21
-0.028899
31
0.0
0
LINE
8
0
6
CONTINUOUS
10
-0.068164
20
-0.028899
30
0.0
11
-0.066252
21
-0.028886
31
0.0
0
LINE
8
0
6
CONTINUOUS
10
-0.064420
20
-0.028890
30
0.0
11
-0.064420
21
-0.028849
31
0.0
0
LINE
8
0
6
CONTINUOUS
10
-0.066252
20
-0.028886
30
0.0
11
-0.064420
21
-0.028890
31
0.0
0
LINE
8
0
6
CONTINUOUS
10
-0.068164
20
-0.028899
30
0.0
11
-0.068244
21
-0.028916
31
0.0
0
LINE
8
0
6
CONTINUOUS
10
-0.066252
20
-0.028886
30
0.0
11
-0.068164
21
-0.028899
31
0.0
0
LINE
8
0
6
CONTINUOUS
10
-0.064420
20
-0.028890
30
0.0
11
-0.066252
21
-0.028886
31
0.0
0
LINE
8
0
6
CONTINUOUS
10
-0.064500
20
-0.028908
30
0.0
11
-0.064420
21
-0.028890
31
0.0
0
LINE
8
0
6
CONTINUOUS
10
-0.066411
20
-0.028921
30
0.0
11
-0.064500
21
-0.028908
31
0.0
0
LINE
8
0
6
CONTINUOUS
10
-0.068244
20
-0.028916
30
0.0
11
-0.066411
21
-0.028921
31
0.0
0
LINE
8
0
6
CONTINUOUS
10
-0.079410
20
-0.025465
30
0.0
11
-0.070983
21
-0.026599
31
0.0
0
LINE
8
0
6
CONTINUOUS
10
0.070543
20
-0.026658
30
0.0
11
0.079410
21
-0.025465
31
0.0
0
LINE
8
0
6
CONTINUOUS
10
-0.062661
20
-0.027610
30
0.0
11
-0.062188
21
-0.027654
31
0.0
0
LINE
8
0
6
CONTINUOUS
10
0.053904
20
-0.028417
30
0.0
11
0.054495
21
-0.028362
31
0.0
0
LINE
8
0
6
CONTINUOUS
10
-0.046475
20
-0.029077
30
0.0
11
-0.045714
21
-0.029137
31
0.0
0
LINE
8
0
6
CONTINUOUS
10
-0.011992
20
-0.030953
30
0.0
11
-0.011466
21
-0.030968
31
0.0
0
LINE
8
0
6
CONTINUOUS
10
-0.007148
20
-0.031089
30
0.0
11
-0.006520
21
-0.031107
31
0.0
0
LINE
8
0
6
CONTINUOUS
10
0.058859
20
-0.026537
30
0.0
11
0.059657
21
-0.026591
31
0.0
0
LINE
8
0
6
CONTINUOUS
10
0.053112
20
-0.027602
30
0.0
11
0.053910
21
-0.027639
31
0.0
0
LINE
8
0
6
CONTINUOUS
10
0.061961
20
-0.026879
30
0.0
11
0.060894
21
-0.027076
31
0.0
0
LINE
8
0
6
CONTINUOUS
10
0.062579
20
-0.026787
30
0.0
11
0.062238
21
-0.026822
31
0.0
0
LINE
8
0
6
CONTINUOUS
10
0.064380
20
-0.026569
30
0.0
11
0.065179
21
-0.026558
31
0.0
0
LINE
8
0
6
CONTINUOUS
10
0.067971
20
-0.026565
30
0.0
11
0.068770
21
-0.026554
31
0.0
0
LINE
8
0
6
CONTINUOUS
10
0.069745
20
-0.026622
30
0.0
11
0.070544
21
-0.026546
31
0.0
0
LINE
8
0
6
CONTINUOUS
10
0.040740
20
-0.028443
30
0.0
11
0.039645
21
-0.028504
31
0.0
0
LINE
8
0
6
CONTINUOUS
10
0.052164
20
-0.026540
30
0.0
11
0.050023
21
-0.026714
31
0.0
0
LINE
8
0
6
CONTINUOUS
10
0.052164
20
-0.026540
30
0.0
11
0.052962
21
-0.026657
31
0.0
0
LINE
8
0
6
CONTINUOUS
10
-0.019726
20
-0.026550
30
0.0
11
-0.020682
21
-0.026754
31
0.0
0
LINE
8
0
6
CONTINUOUS
10
-0.017567
20
-0.026629
30
0.0
11
-0.019726
21
-0.026550
31
0.0
0
LINE
8
0
6
CONTINUOUS
10
-0.014778
20
-0.027631
30
0.0
11
-0.015735
21
-0.027771
31
0.0
0
LINE
8
0
6
CONTINUOUS
10
-0.012620
20
-0.027655
30
0.0
11
-0.014082
21
-0.027648
31
0.0
0
LINE
8
0
6
CONTINUOUS
10
-0.006755
20
-0.026538
30
0.0
11
-0.008913
21
-0.026523
31
0.0
0
LINE
8
0
6
CONTINUOUS
10
-0.001889
20
-0.027618
30
0.0
11
-0.004048
21
-0.027608
31
0.0
0
LINE
8
0
6
CONTINUOUS
10
0.003929
20
-0.026535
30
0.0
11
0.005132
21
-0.026759
31
0.0
0
LINE
8
0
6
CONTINUOUS
10
0.003929
20
-0.026535
30
0.0
11
0.001771
21
-0.026585
31
0.0
0
LINE
8
0
6
CONTINUOUS
10
0.008879
20
-0.027591
30
0.0
11
0.006720
21
-0.027626
31
0.0
0
LINE
8
0
6
CONTINUOUS
10
0.015334
20
-0.026721
30
0.0
11
0.015850
21
-0.026797
31
0.0
0
LINE
8
0
6
CONTINUOUS
10
0.014648
20
-0.026593
30
0.0
11
0.012489
21
-0.026644
31
0.0
0
LINE
8
0
6
CONTINUOUS
10
-0.000136
20
-0.029913
30
0.0
11
-0.000756
21
-0.030005
31
0.0
0
LINE
8
0
6
CONTINUOUS
10
0.011485
20
-0.028547
30
0.0
11
0.010881
21
-0.028667
31
0.0
0
LINE
8
0
6
CONTINUOUS
10
0.025111
20
-0.026517
30
0.0
11
0.022952
21
-0.026631
31
0.0
0
LINE
8
0
6
CONTINUOUS
10
0.029520
20
-0.027609
30
0.0
11
0.030722
21
-0.027691
31
0.0
0
LINE
8
0
6
CONTINUOUS
10
0.034821
20
-0.026527
30
0.0
11
0.036023
21
-0.026648
31
0.0
0
LINE
8
0
6
CONTINUOUS
10
-0.000489
20
-0.030728
30
0.0
11
-0.001445
21
-0.030789
31
0.0
0
LINE
8
0
6
CONTINUOUS
10
-0.006061
20
-0.030463
30
0.0
11
-0.006522
21
-0.030487
31
0.0
0
LINE
8
0
6
CONTINUOUS
10
-0.010512
20
-0.029823
30
0.0
11
-0.011469
21
-0.029941
31
0.0
0
LINE
8
0
6
CONTINUOUS
10
-0.022842
20
-0.027641
30
0.0
11
-0.025001
21
-0.027586
31
0.0
0
LINE
8
0
6
CONTINUOUS
10
-0.030602
20
-0.026734
30
0.0
11
-0.030806
21
-0.026766
31
0.0
0
LINE
8
0
6
CONTINUOUS
10
-0.027691
20
-0.026652
30
0.0
11
-0.029850
21
-0.026572
31
0.0
0
LINE
8
0
6
CONTINUOUS
10
0.003848
20
-0.031039
30
0.0
11
0.003769
21
-0.031040
31
0.0
0
LINE
8
0
6
CONTINUOUS
10
0.004246
20
-0.031032
30
0.0
11
0.003848
21
-0.031039
31
0.0
0
LINE
8
0
6
CONTINUOUS
10
0.010072
20
-0.030751
30
0.0
11
0.009518
21
-0.030762
31
0.0
0
LINE
8
0
6
CONTINUOUS
10
0.015579
20
-0.030459
30
0.0
11
0.015203
21
-0.030466
31
0.0
0
LINE
8
0
6
CONTINUOUS
10
0.020926
20
-0.029904
30
0.0
11
0.020297
21
-0.029933
31
0.0
0
LINE
8
0
6
CONTINUOUS
10
0.026409
20
-0.029226
30
0.0
11
0.025887
21
-0.029249
31
0.0
0
LINE
8
0
6
CONTINUOUS
10
0.031711
20
-0.028501
30
0.0
11
0.031122
21
-0.028533
31
0.0
0
LINE
8
0
6
CONTINUOUS
10
0.038667
20
-0.027642
30
0.0
11
0.039643
21
-0.027675
31
0.0
0
LINE
8
0
6
CONTINUOUS
10
0.038441
20
-0.027627
30
0.0
11
0.036282
21
-0.027744
31
0.0
0
LINE
8
0
6
CONTINUOUS
10
0.043851
20
-0.026593
30
0.0
11
0.044004
21
-0.026608
31
0.0
0
LINE
8
0
6
CONTINUOUS
10
0.044004
20
-0.026608
30
0.0
11
0.045053
21
-0.026659
31
0.0
0
LINE
8
0
6
CONTINUOUS
10
0.043851
20
-0.026593
30
0.0
11
0.041693
21
-0.026764
31
0.0
0
LINE
8
0
6
CONTINUOUS
10
-0.070450
20
-0.026601
30
0.0
11
-0.070983
21
-0.026560
31
0.0
0
LINE
8
0
6
CONTINUOUS
10
-0.067216
20
-0.026839
30
0.0
11
-0.069104
21
-0.026621
31
0.0
0
LINE
8
0
6
CONTINUOUS
10
-0.069300
20
-0.026595
30
0.0
11
-0.069834
21
-0.026554
31
0.0
0
LINE
8
0
6
CONTINUOUS
10
-0.066301
20
-0.026528
30
0.0
11
-0.066834
21
-0.026552
31
0.0
0
LINE
8
0
6
CONTINUOUS
10
-0.056283
20
-0.027638
30
0.0
11
-0.056627
21
-0.027649
31
0.0
0
LINE
8
0
6
CONTINUOUS
10
-0.059382
20
-0.026749
30
0.0
11
-0.061465
21
-0.026551
31
0.0
0
LINE
8
0
6
CONTINUOUS
10
-0.061465
20
-0.026551
30
0.0
11
-0.061998
21
-0.026640
31
0.0
0
LINE
8
0
6
CONTINUOUS
10
-0.043686
20
-0.028482
30
0.0
11
-0.044570
21
-0.028425
31
0.0
0
LINE
8
0
6
CONTINUOUS
10
-0.050488
20
-0.027594
30
0.0
11
-0.051021
21
-0.027654
31
0.0
0
LINE
8
0
6
CONTINUOUS
10
-0.053469
20
-0.026712
30
0.0
11
-0.055535
21
-0.026569
31
0.0
0
LINE
8
0
6
CONTINUOUS
10
-0.055662
20
-0.026599
30
0.0
11
-0.056085
21
-0.026669
31
0.0
0
LINE
8
0
6
CONTINUOUS
10
-0.046134
20
-0.026671
30
0.0
11
-0.048218
21
-0.026527
31
0.0
0
LINE
8
0
6
CONTINUOUS
10
-0.048218
20
-0.026527
30
0.0
11
-0.048750
21
-0.026676
31
0.0
0
LINE
8
0
6
CONTINUOUS
10
-0.016276
20
-0.030753
30
0.0
11
-0.017448
21
-0.030720
31
0.0
0
LINE
8
0
6
CONTINUOUS
10
-0.034571
20
-0.029974
30
0.0
11
-0.034903
21
-0.029949
31
0.0
0
LINE
8
0
6
CONTINUOUS
10
-0.032817
20
-0.027654
30
0.0
11
-0.034900
21
-0.027596
31
0.0
0
LINE
8
0
6
CONTINUOUS
10
-0.037451
20
-0.026623
30
0.0
11
-0.039533
21
-0.026539
31
0.0
0
ENDSEC
0
EOF
