999
unknown String-ID: 20550
0
SECTION
2
HEADER
9
$ACADVER
1
AC1009
9
$DWGCODEPAGE
3
unknown String-ID: 20561
0
ENDSEC
0
SECTION
2
TABLES
0
TABLE
2
LAYER
70
1
0
LAYER
2
0
70
0
62
7
6
CONTINUOUS
0
ENDTAB
0
ENDSEC
0
SECTION
2
ENTITIES
0
LINE
8
0
6
CONTINUOUS
10
0.089208
20
-0.015000
30
0.0
11
0.088753
21
-0.008417
31
0.0
0
LINE
8
0
6
CONTINUOUS
10
-0.088753
20
-0.008417
30
0.0
11
-0.089208
21
-0.015000
31
0.0
0
LINE
8
0
6
CONTINUOUS
10
0.088753
20
-0.008417
30
0.0
11
0.087955
21
-0.003603
31
0.0
0
LINE
8
0
6
CONTINUOUS
10
0.086829
20
0.000091
30
0.0
11
0.085341
21
0.003785
31
0.0
0
LINE
8
0
6
CONTINUOUS
10
0.084223
20
0.005763
30
0.0
11
0.084137
21
0.005915
31
0.0
0
LINE
8
0
6
CONTINUOUS
10
0.084137
20
0.005915
30
0.0
11
0.083145
21
0.006938
31
0.0
0
LINE
8
0
6
CONTINUOUS
10
0.083145
20
0.006938
30
0.0
11
0.082235
21
0.007388
31
0.0
0
LINE
8
0
6
CONTINUOUS
10
-0.087955
20
-0.003603
30
0.0
11
-0.088753
21
-0.008417
31
0.0
0
LINE
8
0
6
CONTINUOUS
10
-0.085341
20
0.003785
30
0.0
11
-0.086829
21
0.000091
31
0.0
0
LINE
8
0
6
CONTINUOUS
10
-0.084137
20
0.005915
30
0.0
11
-0.084223
21
0.005763
31
0.0
0
LINE
8
0
6
CONTINUOUS
10
-0.083145
20
0.006938
30
0.0
11
-0.084137
21
0.005915
31
0.0
0
LINE
8
0
6
CONTINUOUS
10
-0.082235
20
0.007388
30
0.0
11
-0.083145
21
0.006938
31
0.0
0
LINE
8
0
6
CONTINUOUS
10
0.087955
20
-0.003603
30
0.0
11
0.086829
21
0.000091
31
0.0
0
LINE
8
0
6
CONTINUOUS
10
-0.086829
20
0.000091
30
0.0
11
-0.087955
21
-0.003603
31
0.0
0
LINE
8
0
6
CONTINUOUS
10
-0.087046
20
-0.015436
30
0.0
11
-0.080520
21
-0.015436
31
0.0
0
LINE
8
0
6
CONTINUOUS
10
-0.039010
20
-0.015436
30
0.0
11
-0.020180
21
-0.015436
31
0.0
0
LINE
8
0
6
CONTINUOUS
10
0.038401
20
-0.015436
30
0.0
11
0.055356
21
-0.015436
31
0.0
0
LINE
8
0
6
CONTINUOUS
10
0.089208
20
-0.015436
30
0.0
11
0.089208
21
-0.015000
31
0.0
0
LINE
8
0
6
CONTINUOUS
10
0.086896
20
-0.015436
30
0.0
11
0.089208
21
-0.015436
31
0.0
0
LINE
8
0
6
CONTINUOUS
10
-0.080520
20
-0.015436
30
0.0
11
-0.069956
21
-0.015436
31
0.0
0
LINE
8
0
6
CONTINUOUS
10
-0.020180
20
-0.015436
30
0.0
11
-0.000338
21
-0.015436
31
0.0
0
LINE
8
0
6
CONTINUOUS
10
0.055356
20
-0.015436
30
0.0
11
0.069534
21
-0.015436
31
0.0
0
LINE
8
0
6
CONTINUOUS
10
-0.069956
20
-0.015436
30
0.0
11
-0.055884
21
-0.015436
31
0.0
0
LINE
8
0
6
CONTINUOUS
10
-0.000338
20
-0.015436
30
0.0
11
0.019521
21
-0.015436
31
0.0
0
LINE
8
0
6
CONTINUOUS
10
0.069534
20
-0.015436
30
0.0
11
0.080227
21
-0.015436
31
0.0
0
LINE
8
0
6
CONTINUOUS
10
-0.089208
20
-0.015436
30
0.0
11
-0.087046
21
-0.015436
31
0.0
0
LINE
8
0
6
CONTINUOUS
10
-0.089208
20
-0.015000
30
0.0
11
-0.089208
21
-0.015436
31
0.0
0
LINE
8
0
6
CONTINUOUS
10
-0.055884
20
-0.015436
30
0.0
11
-0.039010
21
-0.015436
31
0.0
0
LINE
8
0
6
CONTINUOUS
10
0.080227
20
-0.015436
30
0.0
11
0.086896
21
-0.015436
31
0.0
0
LINE
8
0
6
CONTINUOUS
10
0.019521
20
-0.015436
30
0.0
11
0.038401
21
-0.015436
31
0.0
0
LINE
8
0
6
CONTINUOUS
10
-0.081462
20
-0.025465
30
0.0
11
-0.079489
21
-0.025465
31
0.0
0
LINE
8
0
6
CONTINUOUS
10
-0.084056
20
-0.023991
30
0.0
11
-0.081462
21
-0.025465
31
0.0
0
LINE
8
0
6
CONTINUOUS
10
-0.089208
20
-0.015828
30
0.0
11
-0.089208
21
-0.016290
31
0.0
0
LINE
8
0
6
CONTINUOUS
10
-0.087046
20
-0.015828
30
0.0
11
-0.089208
21
-0.015828
31
0.0
0
LINE
8
0
6
CONTINUOUS
10
-0.039010
20
-0.015828
30
0.0
11
-0.055884
21
-0.015828
31
0.0
0
LINE
8
0
6
CONTINUOUS
10
0.086896
20
-0.015828
30
0.0
11
0.080227
21
-0.015828
31
0.0
0
LINE
8
0
6
CONTINUOUS
10
0.038401
20
-0.015828
30
0.0
11
0.019521
21
-0.015828
31
0.0
0
LINE
8
0
6
CONTINUOUS
10
-0.055884
20
-0.015828
30
0.0
11
-0.069956
21
-0.015828
31
0.0
0
LINE
8
0
6
CONTINUOUS
10
0.019521
20
-0.015828
30
0.0
11
-0.000338
21
-0.015828
31
0.0
0
LINE
8
0
6
CONTINUOUS
10
0.080227
20
-0.015828
30
0.0
11
0.069534
21
-0.015828
31
0.0
0
LINE
8
0
6
CONTINUOUS
10
-0.069956
20
-0.015828
30
0.0
11
-0.080520
21
-0.015828
31
0.0
0
LINE
8
0
6
CONTINUOUS
10
-0.000338
20
-0.015828
30
0.0
11
-0.020180
21
-0.015828
31
0.0
0
LINE
8
0
6
CONTINUOUS
10
0.069534
20
-0.015828
30
0.0
11
0.055356
21
-0.015828
31
0.0
0
LINE
8
0
6
CONTINUOUS
10
-0.080520
20
-0.015828
30
0.0
11
-0.087046
21
-0.015828
31
0.0
0
LINE
8
0
6
CONTINUOUS
10
-0.020180
20
-0.015828
30
0.0
11
-0.039010
21
-0.015828
31
0.0
0
LINE
8
0
6
CONTINUOUS
10
0.055356
20
-0.015828
30
0.0
11
0.038401
21
-0.015828
31
0.0
0
LINE
8
0
6
CONTINUOUS
10
0.089208
20
-0.016290
30
0.0
11
0.089208
21
-0.015828
31
0.0
0
LINE
8
0
6
CONTINUOUS
10
0.089208
20
-0.015828
30
0.0
11
0.086896
21
-0.015828
31
0.0
0
LINE
8
0
6
CONTINUOUS
10
-0.051032
20
-0.025465
30
0.0
11
-0.035623
21
-0.025465
31
0.0
0
LINE
8
0
6
CONTINUOUS
10
0.017826
20
-0.025465
30
0.0
11
0.035067
21
-0.025465
31
0.0
0
LINE
8
0
6
CONTINUOUS
10
0.073261
20
-0.025465
30
0.0
11
0.079351
21
-0.025465
31
0.0
0
LINE
8
0
6
CONTINUOUS
10
-0.063882
20
-0.025465
30
0.0
11
-0.051032
21
-0.025465
31
0.0
0
LINE
8
0
6
CONTINUOUS
10
-0.000309
20
-0.025465
30
0.0
11
0.017826
21
-0.025465
31
0.0
0
LINE
8
0
6
CONTINUOUS
10
0.063497
20
-0.025465
30
0.0
11
0.073261
21
-0.025465
31
0.0
0
LINE
8
0
6
CONTINUOUS
10
-0.073529
20
-0.025465
30
0.0
11
-0.063882
21
-0.025465
31
0.0
0
LINE
8
0
6
CONTINUOUS
10
-0.018428
20
-0.025465
30
0.0
11
-0.000309
21
-0.025465
31
0.0
0
LINE
8
0
6
CONTINUOUS
10
0.050550
20
-0.025465
30
0.0
11
0.063497
21
-0.025465
31
0.0
0
LINE
8
0
6
CONTINUOUS
10
-0.079489
20
-0.025465
30
0.0
11
-0.073529
21
-0.025465
31
0.0
0
LINE
8
0
6
CONTINUOUS
10
-0.035623
20
-0.025465
30
0.0
11
-0.018428
21
-0.025465
31
0.0
0
LINE
8
0
6
CONTINUOUS
10
0.035067
20
-0.025465
30
0.0
11
0.050550
21
-0.025465
31
0.0
0
LINE
8
0
6
CONTINUOUS
10
0.081462
20
-0.025465
30
0.0
11
0.084056
21
-0.023991
31
0.0
0
LINE
8
0
6
CONTINUOUS
10
0.079351
20
-0.025465
30
0.0
11
0.081462
21
-0.025465
31
0.0
0
LINE
8
0
6
CONTINUOUS
10
-0.089208
20
-0.016290
30
0.0
11
-0.088921
21
-0.017939
31
0.0
0
LINE
8
0
6
CONTINUOUS
10
-0.088921
20
-0.017939
30
0.0
11
-0.088375
21
-0.019592
31
0.0
0
LINE
8
0
6
CONTINUOUS
10
-0.087543
20
-0.021012
30
0.0
11
-0.086416
21
-0.022233
31
0.0
0
LINE
8
0
6
CONTINUOUS
10
-0.086416
20
-0.022233
30
0.0
11
-0.084056
21
-0.023991
31
0.0
0
LINE
8
0
6
CONTINUOUS
10
0.088921
20
-0.017939
30
0.0
11
0.089208
21
-0.016290
31
0.0
0
LINE
8
0
6
CONTINUOUS
10
0.088375
20
-0.019592
30
0.0
11
0.088921
21
-0.017939
31
0.0
0
LINE
8
0
6
CONTINUOUS
10
0.086416
20
-0.022233
30
0.0
11
0.087543
21
-0.021012
31
0.0
0
LINE
8
0
6
CONTINUOUS
10
0.084056
20
-0.023991
30
0.0
11
0.086416
21
-0.022233
31
0.0
0
LINE
8
0
6
CONTINUOUS
10
-0.088375
20
-0.019592
30
0.0
11
-0.087543
21
-0.021012
31
0.0
0
LINE
8
0
6
CONTINUOUS
10
0.087543
20
-0.021012
30
0.0
11
0.088375
21
-0.019592
31
0.0
0
LINE
8
0
6
CONTINUOUS
10
0.082235
20
0.007388
30
0.0
11
0.081843
21
0.007418
31
0.0
0
LINE
8
0
6
CONTINUOUS
10
-0.081843
20
0.007418
30
0.0
11
-0.082235
21
0.007388
31
0.0
0
LINE
8
0
6
CONTINUOUS
10
0.008271
20
0.015331
30
0.0
11
0.008170
21
0.015454
31
0.0
0
LINE
8
0
6
CONTINUOUS
10
-0.008170
20
0.015454
30
0.0
11
-0.008271
21
0.015331
31
0.0
0
LINE
8
0
6
CONTINUOUS
10
0.011305
20
0.019510
30
0.0
11
0.011460
21
0.019710
31
0.0
0
LINE
8
0
6
CONTINUOUS
10
-0.011460
20
0.019710
30
0.0
11
-0.011305
21
0.019510
31
0.0
0
LINE
8
0
6
CONTINUOUS
10
-0.010344
20
0.032598
30
0.0
11
-0.011182
21
0.032598
31
0.0
0
LINE
8
0
6
CONTINUOUS
10
-0.002592
20
0.032598
30
0.0
11
-0.005011
21
0.032598
31
0.0
0
LINE
8
0
6
CONTINUOUS
10
0.011460
20
0.032598
30
0.0
11
0.011163
21
0.032598
31
0.0
0
LINE
8
0
6
CONTINUOUS
10
0.011460
20
0.032228
30
0.0
11
0.011460
21
0.032598
31
0.0
0
LINE
8
0
6
CONTINUOUS
10
0.007111
20
0.032598
30
0.0
11
0.004933
21
0.032598
31
0.0
0
LINE
8
0
6
CONTINUOUS
10
-0.011460
20
0.032598
30
0.0
11
-0.011460
21
0.032228
31
0.0
0
LINE
8
0
6
CONTINUOUS
10
-0.011182
20
0.032598
30
0.0
11
-0.011460
21
0.032598
31
0.0
0
LINE
8
0
6
CONTINUOUS
10
-0.005011
20
0.032598
30
0.0
11
-0.007179
21
0.032598
31
0.0
0
LINE
8
0
6
CONTINUOUS
10
0.004933
20
0.032598
30
0.0
11
0.002508
21
0.032598
31
0.0
0
LINE
8
0
6
CONTINUOUS
10
0.011163
20
0.032598
30
0.0
11
0.010306
21
0.032598
31
0.0
0
LINE
8
0
6
CONTINUOUS
10
-0.007179
20
0.032598
30
0.0
11
-0.008986
21
0.032598
31
0.0
0
LINE
8
0
6
CONTINUOUS
10
0.002508
20
0.032598
30
0.0
11
-0.000043
21
0.032598
31
0.0
0
LINE
8
0
6
CONTINUOUS
10
0.010306
20
0.032598
30
0.0
11
0.008932
21
0.032598
31
0.0
0
LINE
8
0
6
CONTINUOUS
10
-0.008986
20
0.032598
30
0.0
11
-0.010344
21
0.032598
31
0.0
0
LINE
8
0
6
CONTINUOUS
10
-0.000043
20
0.032598
30
0.0
11
-0.002592
21
0.032598
31
0.0
0
LINE
8
0
6
CONTINUOUS
10
0.008932
20
0.032598
30
0.0
11
0.007111
21
0.032598
31
0.0
0
LINE
8
0
6
CONTINUOUS
10
0.011460
20
0.019710
30
0.0
11
0.011460
21
0.019921
31
0.0
0
LINE
8
0
6
CONTINUOUS
10
-0.011460
20
0.019921
30
0.0
11
-0.011460
21
0.019710
31
0.0
0
LINE
8
0
6
CONTINUOUS
10
0.011013
20
0.012804
30
0.0
11
0.010290
21
0.012859
31
0.0
0
LINE
8
0
6
CONTINUOUS
10
-0.010290
20
0.012859
30
0.0
11
-0.011013
21
0.012804
31
0.0
0
LINE
8
0
6
CONTINUOUS
10
0.081843
20
0.007418
30
0.0
11
0.011013
21
0.012804
31
0.0
0
LINE
8
0
6
CONTINUOUS
10
-0.011013
20
0.012804
30
0.0
11
-0.081843
21
0.007418
31
0.0
0
LINE
8
0
6
CONTINUOUS
10
0.085341
20
0.003785
30
0.0
11
0.084223
21
0.005763
31
0.0
0
LINE
8
0
6
CONTINUOUS
10
-0.084223
20
0.005763
30
0.0
11
-0.085341
21
0.003785
31
0.0
0
LINE
8
0
6
CONTINUOUS
10
0.011460
20
0.019921
30
0.0
11
0.011460
21
0.032228
31
0.0
0
LINE
8
0
6
CONTINUOUS
10
-0.011460
20
0.032228
30
0.0
11
-0.011460
21
0.019921
31
0.0
0
LINE
8
0
6
CONTINUOUS
10
0.008281
20
0.015598
30
0.0
11
0.011305
21
0.019510
31
0.0
0
LINE
8
0
6
CONTINUOUS
10
-0.011305
20
0.019510
30
0.0
11
-0.008282
21
0.015598
31
0.0
0
LINE
8
0
6
CONTINUOUS
10
0.010290
20
0.012859
30
0.0
11
0.010180
21
0.012994
31
0.0
0
LINE
8
0
6
CONTINUOUS
10
-0.010180
20
0.012994
30
0.0
11
-0.010290
21
0.012859
31
0.0
0
LINE
8
0
6
CONTINUOUS
10
0.010180
20
0.012994
30
0.0
11
0.008271
21
0.015331
31
0.0
0
LINE
8
0
6
CONTINUOUS
10
-0.008271
20
0.015331
30
0.0
11
-0.010180
21
0.012994
31
0.0
0
LINE
8
0
6
CONTINUOUS
10
0.008170
20
0.015454
30
0.0
11
0.008281
21
0.015598
31
0.0
0
LINE
8
0
6
CONTINUOUS
10
-0.008282
20
0.015598
30
0.0
11
-0.008170
21
0.015454
31
0.0
0
LINE
8
0
6
CONTINUOUS
10
-0.018663
20
-0.025465
30
0.0
11
-0.018117
21
-0.025465
31
0.0
0
LINE
8
0
6
CONTINUOUS
10
-0.035866
20
-0.025465
30
0.0
11
-0.035349
21
-0.025465
31
0.0
0
LINE
8
0
6
CONTINUOUS
10
0.034906
20
-0.025465
30
0.0
11
0.035176
21
-0.025465
31
0.0
0
LINE
8
0
6
CONTINUOUS
10
-0.088411
20
-0.015828
30
0.0
11
-0.086269
21
-0.015828
31
0.0
0
LINE
8
0
6
CONTINUOUS
10
-0.088411
20
-0.015436
30
0.0
11
-0.088411
21
-0.015828
31
0.0
0
LINE
8
0
6
CONTINUOUS
10
-0.086269
20
-0.015828
30
0.0
11
-0.079801
21
-0.015828
31
0.0
0
LINE
8
0
6
CONTINUOUS
10
-0.079801
20
-0.015828
30
0.0
11
-0.069332
21
-0.015828
31
0.0
0
LINE
8
0
6
CONTINUOUS
10
-0.069332
20
-0.015828
30
0.0
11
-0.055386
21
-0.015828
31
0.0
0
LINE
8
0
6
CONTINUOUS
10
-0.055386
20
-0.015828
30
0.0
11
-0.038662
21
-0.015828
31
0.0
0
LINE
8
0
6
CONTINUOUS
10
-0.038662
20
-0.015828
30
0.0
11
-0.020000
21
-0.015828
31
0.0
0
LINE
8
0
6
CONTINUOUS
10
-0.020000
20
-0.015828
30
0.0
11
-0.000335
21
-0.015828
31
0.0
0
LINE
8
0
6
CONTINUOUS
10
-0.000335
20
-0.015828
30
0.0
11
0.019347
21
-0.015828
31
0.0
0
LINE
8
0
6
CONTINUOUS
10
0.019347
20
-0.015828
30
0.0
11
0.038058
21
-0.015828
31
0.0
0
LINE
8
0
6
CONTINUOUS
10
0.038058
20
-0.015828
30
0.0
11
0.054861
21
-0.015828
31
0.0
0
LINE
8
0
6
CONTINUOUS
10
0.054861
20
-0.015828
30
0.0
11
0.068914
21
-0.015828
31
0.0
0
LINE
8
0
6
CONTINUOUS
10
0.068914
20
-0.015828
30
0.0
11
0.079510
21
-0.015828
31
0.0
0
LINE
8
0
6
CONTINUOUS
10
0.079510
20
-0.015828
30
0.0
11
0.086120
21
-0.015828
31
0.0
0
LINE
8
0
6
CONTINUOUS
10
0.088411
20
-0.015828
30
0.0
11
0.088411
21
-0.015436
31
0.0
0
LINE
8
0
6
CONTINUOUS
10
0.086120
20
-0.015828
30
0.0
11
0.088411
21
-0.015828
31
0.0
0
LINE
8
0
6
CONTINUOUS
10
-0.000009
20
-0.032561
30
0.0
11
0.001140
21
-0.032566
31
0.0
0
LINE
8
0
6
CONTINUOUS
10
-0.000005
20
-0.032050
30
0.0
11
-0.000009
21
-0.032561
31
0.0
0
LINE
8
0
6
CONTINUOUS
10
0.001140
20
-0.032566
30
0.0
11
-0.000009
21
-0.032561
31
0.0
0
LINE
8
0
6
CONTINUOUS
10
0.068561
20
-0.028929
30
0.0
11
0.069711
21
-0.028933
31
0.0
0
LINE
8
0
6
CONTINUOUS
10
0.051113
20
-0.030675
30
0.0
11
0.052262
21
-0.030680
31
0.0
0
LINE
8
0
6
CONTINUOUS
10
0.031472
20
-0.032028
30
0.0
11
0.032436
21
-0.032036
31
0.0
0
LINE
8
0
6
CONTINUOUS
10
0.032436
20
-0.032036
30
0.0
11
0.031472
21
-0.032028
31
0.0
0
LINE
8
0
6
CONTINUOUS
10
0.011146
20
-0.032285
30
0.0
11
0.012295
21
-0.032290
31
0.0
0
LINE
8
0
6
CONTINUOUS
10
0.011147
20
-0.032062
30
0.0
11
0.011146
21
-0.032285
31
0.0
0
LINE
8
0
6
CONTINUOUS
10
0.012295
20
-0.032290
30
0.0
11
0.011146
21
-0.032285
31
0.0
0
LINE
8
0
6
CONTINUOUS
10
0.028370
20
-0.032061
30
0.0
11
0.029382
21
-0.032074
31
0.0
0
LINE
8
0
6
CONTINUOUS
10
0.026208
20
-0.032043
30
0.0
11
0.028370
21
-0.032061
31
0.0
0
LINE
8
0
6
CONTINUOUS
10
0.025058
20
-0.032039
30
0.0
11
0.026208
21
-0.032043
31
0.0
0
LINE
8
0
6
CONTINUOUS
10
0.026208
20
-0.032043
30
0.0
11
0.025058
21
-0.032039
31
0.0
0
LINE
8
0
6
CONTINUOUS
10
0.028370
20
-0.032061
30
0.0
11
0.026208
21
-0.032043
31
0.0
0
LINE
8
0
6
CONTINUOUS
10
0.029382
20
-0.032074
30
0.0
11
0.028370
21
-0.032061
31
0.0
0
LINE
8
0
6
CONTINUOUS
10
0.028232
20
-0.032069
30
0.0
11
0.029382
21
-0.032074
31
0.0
0
LINE
8
0
6
CONTINUOUS
10
0.047532
20
-0.030668
30
0.0
11
0.048544
21
-0.030681
31
0.0
0
LINE
8
0
6
CONTINUOUS
10
0.045486
20
-0.030652
30
0.0
11
0.047532
21
-0.030668
31
0.0
0
LINE
8
0
6
CONTINUOUS
10
0.047532
20
-0.030668
30
0.0
11
0.045486
21
-0.030652
31
0.0
0
LINE
8
0
6
CONTINUOUS
10
0.048544
20
-0.030681
30
0.0
11
0.047532
21
-0.030668
31
0.0
0
LINE
8
0
6
CONTINUOUS
10
0.047394
20
-0.030677
30
0.0
11
0.048544
21
-0.030681
31
0.0
0
LINE
8
0
6
CONTINUOUS
10
0.056731
20
-0.029865
30
0.0
11
0.057743
21
-0.029878
31
0.0
0
LINE
8
0
6
CONTINUOUS
10
0.055218
20
-0.029853
30
0.0
11
0.056731
21
-0.029865
31
0.0
0
LINE
8
0
6
CONTINUOUS
10
0.056731
20
-0.029865
30
0.0
11
0.055218
21
-0.029853
31
0.0
0
LINE
8
0
6
CONTINUOUS
10
0.057743
20
-0.029878
30
0.0
11
0.056731
21
-0.029865
31
0.0
0
LINE
8
0
6
CONTINUOUS
10
0.056593
20
-0.029874
30
0.0
11
0.057743
21
-0.029878
31
0.0
0
LINE
8
0
6
CONTINUOUS
10
0.008734
20
-0.032597
30
0.0
11
0.010124
21
-0.032592
31
0.0
0
LINE
8
0
6
CONTINUOUS
10
0.006603
20
-0.032584
30
0.0
11
0.008734
21
-0.032597
31
0.0
0
LINE
8
0
6
CONTINUOUS
10
0.005863
20
-0.032566
30
0.0
11
0.006603
21
-0.032584
31
0.0
0
LINE
8
0
6
CONTINUOUS
10
0.005864
20
-0.032323
30
0.0
11
0.005863
21
-0.032566
31
0.0
0
LINE
8
0
6
CONTINUOUS
10
0.070958
20
-0.028916
30
0.0
11
0.070970
21
-0.026600
31
0.0
0
LINE
8
0
6
CONTINUOUS
10
0.069568
20
-0.028920
30
0.0
11
0.070958
21
-0.028916
31
0.0
0
LINE
8
0
6
CONTINUOUS
10
0.067438
20
-0.028907
30
0.0
11
0.069568
21
-0.028920
31
0.0
0
LINE
8
0
6
CONTINUOUS
10
0.062411
20
-0.029876
30
0.0
11
0.062415
21
-0.028937
31
0.0
0
LINE
8
0
6
CONTINUOUS
10
0.052473
20
-0.030669
30
0.0
11
0.053863
21
-0.030665
31
0.0
0
LINE
8
0
6
CONTINUOUS
10
0.052262
20
-0.030668
30
0.0
11
0.052473
21
-0.030669
31
0.0
0
LINE
8
0
6
CONTINUOUS
10
0.045483
20
-0.031376
30
0.0
11
0.045494
21
-0.029154
31
0.0
0
LINE
8
0
6
CONTINUOUS
10
0.044093
20
-0.031380
30
0.0
11
0.045483
21
-0.031376
31
0.0
0
LINE
8
0
6
CONTINUOUS
10
0.036697
20
-0.032064
30
0.0
11
0.036703
21
-0.030657
31
0.0
0
LINE
8
0
6
CONTINUOUS
10
0.035307
20
-0.032069
30
0.0
11
0.036697
21
-0.032064
31
0.0
0
LINE
8
0
6
CONTINUOUS
10
0.033176
20
-0.032056
30
0.0
11
0.035307
21
-0.032069
31
0.0
0
LINE
8
0
6
CONTINUOUS
10
0.025214
20
-0.032028
30
0.0
11
0.026234
21
-0.032034
31
0.0
0
LINE
8
0
6
CONTINUOUS
10
0.018814
20
-0.032323
30
0.0
11
0.018816
21
-0.032030
31
0.0
0
LINE
8
0
6
CONTINUOUS
10
0.017424
20
-0.032328
30
0.0
11
0.018814
21
-0.032323
31
0.0
0
LINE
8
0
6
CONTINUOUS
10
0.015469
20
-0.032316
30
0.0
11
0.017424
21
-0.032328
31
0.0
0
LINE
8
0
6
CONTINUOUS
10
-0.037518
20
-0.031345
30
0.0
11
-0.036833
21
-0.031339
31
0.0
0
LINE
8
0
6
CONTINUOUS
10
-0.036833
20
-0.031339
30
0.0
11
-0.036550
21
-0.031339
31
0.0
0
LINE
8
0
6
CONTINUOUS
10
-0.036833
20
-0.031339
30
0.0
11
-0.037518
21
-0.031345
31
0.0
0
LINE
8
0
6
CONTINUOUS
10
-0.036550
20
-0.031339
30
0.0
11
-0.036833
21
-0.031339
31
0.0
0
LINE
8
0
6
CONTINUOUS
10
-0.037756
20
-0.031369
30
0.0
11
-0.036550
21
-0.031372
31
0.0
0
LINE
8
0
6
CONTINUOUS
10
-0.030925
20
-0.032041
30
0.0
11
-0.029415
21
-0.032028
31
0.0
0
LINE
8
0
6
CONTINUOUS
10
-0.029415
20
-0.032028
30
0.0
11
-0.029022
21
-0.032029
31
0.0
0
LINE
8
0
6
CONTINUOUS
10
-0.030925
20
-0.032041
30
0.0
11
-0.030338
21
-0.032059
31
0.0
0
LINE
8
0
6
CONTINUOUS
10
-0.029415
20
-0.032028
30
0.0
11
-0.030925
21
-0.032041
31
0.0
0
LINE
8
0
6
CONTINUOUS
10
-0.029022
20
-0.032029
30
0.0
11
-0.029415
21
-0.032028
31
0.0
0
LINE
8
0
6
CONTINUOUS
10
-0.030338
20
-0.032059
30
0.0
11
-0.029022
21
-0.032062
31
0.0
0
LINE
8
0
6
CONTINUOUS
10
-0.023386
20
-0.032010
30
0.0
11
-0.021882
21
-0.031997
31
0.0
0
LINE
8
0
6
CONTINUOUS
10
-0.023386
20
-0.032010
30
0.0
11
-0.022800
21
-0.032028
31
0.0
0
LINE
8
0
6
CONTINUOUS
10
-0.021876
20
-0.031997
30
0.0
11
-0.023386
21
-0.032010
31
0.0
0
LINE
8
0
6
CONTINUOUS
10
-0.022800
20
-0.032028
30
0.0
11
-0.021882
21
-0.032030
31
0.0
0
LINE
8
0
6
CONTINUOUS
10
-0.016018
20
-0.032304
30
0.0
11
-0.014996
21
-0.032296
31
0.0
0
LINE
8
0
6
CONTINUOUS
10
-0.016018
20
-0.032304
30
0.0
11
-0.015432
21
-0.032322
31
0.0
0
LINE
8
0
6
CONTINUOUS
10
-0.014996
20
-0.032296
30
0.0
11
-0.016018
21
-0.032304
31
0.0
0
LINE
8
0
6
CONTINUOUS
10
-0.013335
20
-0.032327
30
0.0
11
-0.011825
21
-0.032314
31
0.0
0
LINE
8
0
6
CONTINUOUS
10
-0.015432
20
-0.032322
30
0.0
11
-0.014996
21
-0.032323
31
0.0
0
LINE
8
0
6
CONTINUOUS
10
-0.008761
20
-0.032574
30
0.0
11
-0.008192
21
-0.032569
31
0.0
0
LINE
8
0
6
CONTINUOUS
10
-0.008761
20
-0.032057
30
0.0
11
-0.008761
21
-0.032574
31
0.0
0
LINE
8
0
6
CONTINUOUS
10
-0.008761
20
-0.032574
30
0.0
11
-0.008175
21
-0.032592
31
0.0
0
LINE
8
0
6
CONTINUOUS
10
-0.008192
20
-0.032569
30
0.0
11
-0.008761
21
-0.032574
31
0.0
0
LINE
8
0
6
CONTINUOUS
10
-0.006078
20
-0.032596
30
0.0
11
-0.004568
21
-0.032583
31
0.0
0
LINE
8
0
6
CONTINUOUS
10
-0.008175
20
-0.032592
30
0.0
11
-0.006078
21
-0.032596
31
0.0
0
LINE
8
0
6
CONTINUOUS
10
-0.000885
20
-0.032064
30
0.0
11
-0.000005
21
-0.032056
31
0.0
0
LINE
8
0
6
CONTINUOUS
10
-0.002515
20
-0.032060
30
0.0
11
-0.000885
21
-0.032064
31
0.0
0
LINE
8
0
6
CONTINUOUS
10
-0.023808
20
-0.032039
30
0.0
11
-0.022298
21
-0.032026
31
0.0
0
LINE
8
0
6
CONTINUOUS
10
-0.023808
20
-0.031995
30
0.0
11
-0.023808
21
-0.032039
31
0.0
0
LINE
8
0
6
CONTINUOUS
10
-0.023808
20
-0.032039
30
0.0
11
-0.023222
21
-0.032057
31
0.0
0
LINE
8
0
6
CONTINUOUS
10
-0.022298
20
-0.032026
30
0.0
11
-0.023808
21
-0.032039
31
0.0
0
LINE
8
0
6
CONTINUOUS
10
-0.023222
20
-0.032057
30
0.0
11
-0.021125
21
-0.032061
31
0.0
0
LINE
8
0
6
CONTINUOUS
10
-0.015896
20
-0.032548
30
0.0
11
-0.014386
21
-0.032535
31
0.0
0
LINE
8
0
6
CONTINUOUS
10
-0.015896
20
-0.032288
30
0.0
11
-0.015896
21
-0.032548
31
0.0
0
LINE
8
0
6
CONTINUOUS
10
-0.011703
20
-0.032557
30
0.0
11
-0.011703
21
-0.032305
31
0.0
0
LINE
8
0
6
CONTINUOUS
10
-0.012289
20
-0.032540
30
0.0
11
-0.011703
21
-0.032557
31
0.0
0
LINE
8
0
6
CONTINUOUS
10
-0.014386
20
-0.032535
30
0.0
11
-0.012289
21
-0.032540
31
0.0
0
LINE
8
0
6
CONTINUOUS
10
-0.015896
20
-0.032548
30
0.0
11
-0.015309
21
-0.032566
31
0.0
0
LINE
8
0
6
CONTINUOUS
10
-0.014386
20
-0.032535
30
0.0
11
-0.015896
21
-0.032548
31
0.0
0
LINE
8
0
6
CONTINUOUS
10
-0.012289
20
-0.032540
30
0.0
11
-0.014386
21
-0.032535
31
0.0
0
LINE
8
0
6
CONTINUOUS
10
-0.011703
20
-0.032557
30
0.0
11
-0.012289
21
-0.032540
31
0.0
0
LINE
8
0
6
CONTINUOUS
10
-0.013213
20
-0.032570
30
0.0
11
-0.011703
21
-0.032557
31
0.0
0
LINE
8
0
6
CONTINUOUS
10
-0.015309
20
-0.032566
30
0.0
11
-0.013213
21
-0.032570
31
0.0
0
LINE
8
0
6
CONTINUOUS
10
-0.055820
20
-0.028951
30
0.0
11
-0.054021
21
-0.028933
31
0.0
0
LINE
8
0
6
CONTINUOUS
10
-0.055839
20
-0.026593
30
0.0
11
-0.055820
21
-0.028951
31
0.0
0
LINE
8
0
6
CONTINUOUS
10
-0.054021
20
-0.028933
30
0.0
11
-0.052081
21
-0.028920
31
0.0
0
LINE
8
0
6
CONTINUOUS
10
-0.051939
20
-0.028925
30
0.0
11
-0.051954
21
-0.027156
31
0.0
0
LINE
8
0
6
CONTINUOUS
10
-0.052081
20
-0.028920
30
0.0
11
-0.051939
21
-0.028925
31
0.0
0
LINE
8
0
6
CONTINUOUS
10
-0.054021
20
-0.028933
30
0.0
11
-0.055820
21
-0.028951
31
0.0
0
LINE
8
0
6
CONTINUOUS
10
-0.052081
20
-0.028920
30
0.0
11
-0.054021
21
-0.028933
31
0.0
0
LINE
8
0
6
CONTINUOUS
10
-0.051939
20
-0.028925
30
0.0
11
-0.052081
21
-0.028920
31
0.0
0
LINE
8
0
6
CONTINUOUS
10
-0.054980
20
-0.028951
30
0.0
11
-0.053744
21
-0.028942
31
0.0
0
LINE
8
0
6
CONTINUOUS
10
-0.049188
20
-0.029898
30
0.0
11
-0.047389
21
-0.029880
31
0.0
0
LINE
8
0
6
CONTINUOUS
10
-0.049206
20
-0.027627
30
0.0
11
-0.049188
21
-0.029898
31
0.0
0
LINE
8
0
6
CONTINUOUS
10
-0.047389
20
-0.029880
30
0.0
11
-0.045449
21
-0.029867
31
0.0
0
LINE
8
0
6
CONTINUOUS
10
-0.045307
20
-0.029872
30
0.0
11
-0.045313
21
-0.029168
31
0.0
0
LINE
8
0
6
CONTINUOUS
10
-0.045449
20
-0.029867
30
0.0
11
-0.045307
21
-0.029872
31
0.0
0
LINE
8
0
6
CONTINUOUS
10
-0.047389
20
-0.029880
30
0.0
11
-0.049188
21
-0.029898
31
0.0
0
LINE
8
0
6
CONTINUOUS
10
-0.045449
20
-0.029867
30
0.0
11
-0.047389
21
-0.029880
31
0.0
0
LINE
8
0
6
CONTINUOUS
10
-0.045307
20
-0.029872
30
0.0
11
-0.045449
21
-0.029867
31
0.0
0
LINE
8
0
6
CONTINUOUS
10
-0.048179
20
-0.029896
30
0.0
11
-0.047106
21
-0.029889
31
0.0
0
LINE
8
0
6
CONTINUOUS
10
-0.042372
20
-0.030683
30
0.0
11
-0.040574
21
-0.030665
31
0.0
0
LINE
8
0
6
CONTINUOUS
10
-0.042391
20
-0.028416
30
0.0
11
-0.042372
21
-0.030683
31
0.0
0
LINE
8
0
6
CONTINUOUS
10
-0.040574
20
-0.030665
30
0.0
11
-0.038634
21
-0.030652
31
0.0
0
LINE
8
0
6
CONTINUOUS
10
-0.038492
20
-0.030657
30
0.0
11
-0.038500
21
-0.029698
31
0.0
0
LINE
8
0
6
CONTINUOUS
10
-0.038634
20
-0.030652
30
0.0
11
-0.038492
21
-0.030657
31
0.0
0
LINE
8
0
6
CONTINUOUS
10
-0.040574
20
-0.030665
30
0.0
11
-0.042372
21
-0.030683
31
0.0
0
LINE
8
0
6
CONTINUOUS
10
-0.038634
20
-0.030652
30
0.0
11
-0.040574
21
-0.030665
31
0.0
0
LINE
8
0
6
CONTINUOUS
10
-0.038492
20
-0.030657
30
0.0
11
-0.038634
21
-0.030652
31
0.0
0
LINE
8
0
6
CONTINUOUS
10
-0.040777
20
-0.030678
30
0.0
11
-0.040291
21
-0.030674
31
0.0
0
LINE
8
0
6
CONTINUOUS
10
-0.035819
20
-0.031388
30
0.0
11
-0.034020
21
-0.031371
31
0.0
0
LINE
8
0
6
CONTINUOUS
10
-0.035837
20
-0.029151
30
0.0
11
-0.035819
21
-0.031388
31
0.0
0
LINE
8
0
6
CONTINUOUS
10
-0.034020
20
-0.031371
30
0.0
11
-0.032080
21
-0.031358
31
0.0
0
LINE
8
0
6
CONTINUOUS
10
-0.031938
20
-0.031362
30
0.0
11
-0.031948
21
-0.030208
31
0.0
0
LINE
8
0
6
CONTINUOUS
10
-0.032080
20
-0.031358
30
0.0
11
-0.031938
21
-0.031362
31
0.0
0
LINE
8
0
6
CONTINUOUS
10
-0.034020
20
-0.031371
30
0.0
11
-0.035819
21
-0.031388
31
0.0
0
LINE
8
0
6
CONTINUOUS
10
-0.032080
20
-0.031358
30
0.0
11
-0.034020
21
-0.031371
31
0.0
0
LINE
8
0
6
CONTINUOUS
10
-0.031938
20
-0.031362
30
0.0
11
-0.032080
21
-0.031358
31
0.0
0
LINE
8
0
6
CONTINUOUS
10
-0.034521
20
-0.031385
30
0.0
11
-0.033737
21
-0.031380
31
0.0
0
LINE
8
0
6
CONTINUOUS
10
-0.029022
20
-0.032075
30
0.0
11
-0.027224
21
-0.032057
31
0.0
0
LINE
8
0
6
CONTINUOUS
10
-0.029040
20
-0.029834
30
0.0
11
-0.029022
21
-0.032075
31
0.0
0
LINE
8
0
6
CONTINUOUS
10
-0.027224
20
-0.032057
30
0.0
11
-0.025283
21
-0.032044
31
0.0
0
LINE
8
0
6
CONTINUOUS
10
-0.025283
20
-0.032044
30
0.0
11
-0.025142
21
-0.032049
31
0.0
0
LINE
8
0
6
CONTINUOUS
10
-0.027224
20
-0.032057
30
0.0
11
-0.029022
21
-0.032075
31
0.0
0
LINE
8
0
6
CONTINUOUS
10
-0.025283
20
-0.032044
30
0.0
11
-0.027224
21
-0.032057
31
0.0
0
LINE
8
0
6
CONTINUOUS
10
-0.025142
20
-0.032049
30
0.0
11
-0.025283
21
-0.032044
31
0.0
0
LINE
8
0
6
CONTINUOUS
10
-0.021882
20
-0.032033
30
0.0
11
-0.021119
21
-0.032025
31
0.0
0
LINE
8
0
6
CONTINUOUS
10
-0.021893
20
-0.030625
30
0.0
11
-0.021882
21
-0.032033
31
0.0
0
LINE
8
0
6
CONTINUOUS
10
-0.021119
20
-0.032025
30
0.0
11
-0.021882
21
-0.032033
31
0.0
0
LINE
8
0
6
CONTINUOUS
10
-0.014996
20
-0.032325
30
0.0
11
-0.013197
21
-0.032308
31
0.0
0
LINE
8
0
6
CONTINUOUS
10
-0.015007
20
-0.030854
30
0.0
11
-0.014996
21
-0.032325
31
0.0
0
LINE
8
0
6
CONTINUOUS
10
-0.013197
20
-0.032308
30
0.0
11
-0.011257
21
-0.032295
31
0.0
0
LINE
8
0
6
CONTINUOUS
10
-0.011257
20
-0.032295
30
0.0
11
-0.011115
21
-0.032299
31
0.0
0
LINE
8
0
6
CONTINUOUS
10
-0.013197
20
-0.032308
30
0.0
11
-0.014996
21
-0.032325
31
0.0
0
LINE
8
0
6
CONTINUOUS
10
-0.011257
20
-0.032295
30
0.0
11
-0.013197
21
-0.032308
31
0.0
0
LINE
8
0
6
CONTINUOUS
10
-0.011115
20
-0.032299
30
0.0
11
-0.011257
21
-0.032295
31
0.0
0
LINE
8
0
6
CONTINUOUS
10
-0.008192
20
-0.032593
30
0.0
11
-0.006393
21
-0.032575
31
0.0
0
LINE
8
0
6
CONTINUOUS
10
-0.006393
20
-0.032575
30
0.0
11
-0.004453
21
-0.032562
31
0.0
0
LINE
8
0
6
CONTINUOUS
10
-0.004453
20
-0.032562
30
0.0
11
-0.004311
21
-0.032567
31
0.0
0
LINE
8
0
6
CONTINUOUS
10
-0.006393
20
-0.032575
30
0.0
11
-0.008192
21
-0.032593
31
0.0
0
LINE
8
0
6
CONTINUOUS
10
-0.004453
20
-0.032562
30
0.0
11
-0.006393
21
-0.032575
31
0.0
0
LINE
8
0
6
CONTINUOUS
10
-0.004311
20
-0.032567
30
0.0
11
-0.004453
21
-0.032562
31
0.0
0
LINE
8
0
6
CONTINUOUS
10
-0.064585
20
-0.028928
30
0.0
11
-0.062787
21
-0.028911
31
0.0
0
LINE
8
0
6
CONTINUOUS
10
-0.064586
20
-0.028861
30
0.0
11
-0.064585
21
-0.028928
31
0.0
0
LINE
8
0
6
CONTINUOUS
10
-0.062787
20
-0.028911
30
0.0
11
-0.062372
21
-0.028908
31
0.0
0
LINE
8
0
6
CONTINUOUS
10
-0.062787
20
-0.028911
30
0.0
11
-0.064585
21
-0.028928
31
0.0
0
LINE
8
0
6
CONTINUOUS
10
-0.062372
20
-0.028908
30
0.0
11
-0.062787
21
-0.028911
31
0.0
0
LINE
8
0
6
CONTINUOUS
10
-0.062503
20
-0.028920
30
0.0
11
-0.062372
21
-0.028919
31
0.0
0
LINE
8
0
6
CONTINUOUS
10
-0.056832
20
-0.029845
30
0.0
11
-0.055804
21
-0.029835
31
0.0
0
LINE
8
0
6
CONTINUOUS
10
-0.055804
20
-0.029835
30
0.0
11
-0.054973
21
-0.029830
31
0.0
0
LINE
8
0
6
CONTINUOUS
10
-0.055804
20
-0.029835
30
0.0
11
-0.056832
21
-0.029845
31
0.0
0
LINE
8
0
6
CONTINUOUS
10
-0.054973
20
-0.029830
30
0.0
11
-0.055804
21
-0.029835
31
0.0
0
LINE
8
0
6
CONTINUOUS
10
-0.055521
20
-0.029844
30
0.0
11
-0.054973
21
-0.029839
31
0.0
0
LINE
8
0
6
CONTINUOUS
10
-0.050048
20
-0.030662
30
0.0
11
-0.048338
21
-0.030645
31
0.0
0
LINE
8
0
6
CONTINUOUS
10
-0.048338
20
-0.030645
30
0.0
11
-0.050048
21
-0.030662
31
0.0
0
LINE
8
0
6
CONTINUOUS
10
-0.042875
20
-0.031374
30
0.0
11
-0.041398
21
-0.031359
31
0.0
0
LINE
8
0
6
CONTINUOUS
10
-0.041398
20
-0.031359
30
0.0
11
-0.042875
21
-0.031374
31
0.0
0
LINE
8
0
6
CONTINUOUS
10
-0.035296
20
-0.032060
30
0.0
11
-0.033497
21
-0.032042
31
0.0
0
LINE
8
0
6
CONTINUOUS
10
-0.033497
20
-0.032042
30
0.0
11
-0.031557
21
-0.032029
31
0.0
0
LINE
8
0
6
CONTINUOUS
10
-0.031557
20
-0.032029
30
0.0
11
-0.031416
21
-0.032034
31
0.0
0
LINE
8
0
6
CONTINUOUS
10
-0.033497
20
-0.032042
30
0.0
11
-0.035296
21
-0.032060
31
0.0
0
LINE
8
0
6
CONTINUOUS
10
-0.031557
20
-0.032029
30
0.0
11
-0.033497
21
-0.032042
31
0.0
0
LINE
8
0
6
CONTINUOUS
10
-0.031416
20
-0.032034
30
0.0
11
-0.031557
21
-0.032029
31
0.0
0
LINE
8
0
6
CONTINUOUS
10
-0.018878
20
-0.032314
30
0.0
11
-0.017080
21
-0.032296
31
0.0
0
LINE
8
0
6
CONTINUOUS
10
-0.017080
20
-0.032296
30
0.0
11
-0.015140
21
-0.032283
31
0.0
0
LINE
8
0
6
CONTINUOUS
10
-0.015140
20
-0.032283
30
0.0
11
-0.014998
21
-0.032288
31
0.0
0
LINE
8
0
6
CONTINUOUS
10
-0.017080
20
-0.032296
30
0.0
11
-0.018878
21
-0.032314
31
0.0
0
LINE
8
0
6
CONTINUOUS
10
-0.015140
20
-0.032283
30
0.0
11
-0.017080
21
-0.032296
31
0.0
0
LINE
8
0
6
CONTINUOUS
10
-0.014998
20
-0.032288
30
0.0
11
-0.015140
21
-0.032283
31
0.0
0
LINE
8
0
6
CONTINUOUS
10
-0.062014
20
-0.028891
30
0.0
11
-0.060216
21
-0.028874
31
0.0
0
LINE
8
0
6
CONTINUOUS
10
-0.062033
20
-0.026527
30
0.0
11
-0.062014
21
-0.028891
31
0.0
0
LINE
8
0
6
CONTINUOUS
10
-0.060216
20
-0.028874
30
0.0
11
-0.058275
21
-0.028861
31
0.0
0
LINE
8
0
6
CONTINUOUS
10
-0.058134
20
-0.028865
30
0.0
11
-0.058148
21
-0.027111
31
0.0
0
LINE
8
0
6
CONTINUOUS
10
-0.058275
20
-0.028861
30
0.0
11
-0.058134
21
-0.028865
31
0.0
0
LINE
8
0
6
CONTINUOUS
10
-0.060216
20
-0.028874
30
0.0
11
-0.062014
21
-0.028891
31
0.0
0
LINE
8
0
6
CONTINUOUS
10
-0.058275
20
-0.028861
30
0.0
11
-0.060216
21
-0.028874
31
0.0
0
LINE
8
0
6
CONTINUOUS
10
-0.058134
20
-0.028865
30
0.0
11
-0.058275
21
-0.028861
31
0.0
0
LINE
8
0
6
CONTINUOUS
10
-0.059932
20
-0.028883
30
0.0
11
-0.059465
21
-0.028878
31
0.0
0
LINE
8
0
6
CONTINUOUS
10
-0.060721
20
-0.028888
30
0.0
11
-0.059932
21
-0.028883
31
0.0
0
LINE
8
0
6
CONTINUOUS
10
-0.054973
20
-0.029881
30
0.0
11
-0.053174
21
-0.029863
31
0.0
0
LINE
8
0
6
CONTINUOUS
10
-0.054985
20
-0.028317
30
0.0
11
-0.054973
21
-0.029881
31
0.0
0
LINE
8
0
6
CONTINUOUS
10
-0.053174
20
-0.029863
30
0.0
11
-0.051234
21
-0.029850
31
0.0
0
LINE
8
0
6
CONTINUOUS
10
-0.051092
20
-0.029855
30
0.0
11
-0.051107
21
-0.028008
31
0.0
0
LINE
8
0
6
CONTINUOUS
10
-0.051234
20
-0.029850
30
0.0
11
-0.051092
21
-0.029855
31
0.0
0
LINE
8
0
6
CONTINUOUS
10
-0.053174
20
-0.029863
30
0.0
11
-0.054973
21
-0.029881
31
0.0
0
LINE
8
0
6
CONTINUOUS
10
-0.051234
20
-0.029850
30
0.0
11
-0.053174
21
-0.029863
31
0.0
0
LINE
8
0
6
CONTINUOUS
10
-0.051092
20
-0.029855
30
0.0
11
-0.051234
21
-0.029850
31
0.0
0
LINE
8
0
6
CONTINUOUS
10
-0.053737
20
-0.029878
30
0.0
11
-0.052891
21
-0.029873
31
0.0
0
LINE
8
0
6
CONTINUOUS
10
-0.048338
20
-0.030672
30
0.0
11
-0.046539
21
-0.030654
31
0.0
0
LINE
8
0
6
CONTINUOUS
10
-0.046539
20
-0.030654
30
0.0
11
-0.044599
21
-0.030641
31
0.0
0
LINE
8
0
6
CONTINUOUS
10
-0.044457
20
-0.030646
30
0.0
11
-0.044472
21
-0.028799
31
0.0
0
LINE
8
0
6
CONTINUOUS
10
-0.044599
20
-0.030641
30
0.0
11
-0.044457
21
-0.030646
31
0.0
0
LINE
8
0
6
CONTINUOUS
10
-0.046539
20
-0.030654
30
0.0
11
-0.048338
21
-0.030672
31
0.0
0
LINE
8
0
6
CONTINUOUS
10
-0.044599
20
-0.030641
30
0.0
11
-0.046539
21
-0.030654
31
0.0
0
LINE
8
0
6
CONTINUOUS
10
-0.044457
20
-0.030646
30
0.0
11
-0.044599
21
-0.030641
31
0.0
0
LINE
8
0
6
CONTINUOUS
10
-0.041398
20
-0.031391
30
0.0
11
-0.039599
21
-0.031373
31
0.0
0
LINE
8
0
6
CONTINUOUS
10
-0.039599
20
-0.031373
30
0.0
11
-0.037659
21
-0.031360
31
0.0
0
LINE
8
0
6
CONTINUOUS
10
-0.037517
20
-0.031365
30
0.0
11
-0.037533
21
-0.029487
31
0.0
0
LINE
8
0
6
CONTINUOUS
10
-0.037659
20
-0.031360
30
0.0
11
-0.037517
21
-0.031365
31
0.0
0
LINE
8
0
6
CONTINUOUS
10
-0.039599
20
-0.031373
30
0.0
11
-0.041398
21
-0.031391
31
0.0
0
LINE
8
0
6
CONTINUOUS
10
-0.037659
20
-0.031360
30
0.0
11
-0.039599
21
-0.031373
31
0.0
0
LINE
8
0
6
CONTINUOUS
10
-0.037517
20
-0.031365
30
0.0
11
-0.037659
21
-0.031360
31
0.0
0
LINE
8
0
6
CONTINUOUS
10
-0.034516
20
-0.032042
30
0.0
11
-0.032717
21
-0.032024
31
0.0
0
LINE
8
0
6
CONTINUOUS
10
-0.032717
20
-0.032024
30
0.0
11
-0.030777
21
-0.032011
31
0.0
0
LINE
8
0
6
CONTINUOUS
10
-0.030635
20
-0.032016
30
0.0
11
-0.030650
21
-0.030137
31
0.0
0
LINE
8
0
6
CONTINUOUS
10
-0.030777
20
-0.032011
30
0.0
11
-0.030635
21
-0.032016
31
0.0
0
LINE
8
0
6
CONTINUOUS
10
-0.032717
20
-0.032024
30
0.0
11
-0.034516
21
-0.032042
31
0.0
0
LINE
8
0
6
CONTINUOUS
10
-0.030777
20
-0.032011
30
0.0
11
-0.032717
21
-0.032024
31
0.0
0
LINE
8
0
6
CONTINUOUS
10
-0.030635
20
-0.032016
30
0.0
11
-0.030777
21
-0.032011
31
0.0
0
LINE
8
0
6
CONTINUOUS
10
-0.025142
20
-0.032007
30
0.0
11
-0.025051
21
-0.032006
31
0.0
0
LINE
8
0
6
CONTINUOUS
10
-0.025051
20
-0.032006
30
0.0
11
-0.023111
21
-0.031993
31
0.0
0
LINE
8
0
6
CONTINUOUS
10
-0.022969
20
-0.031997
30
0.0
11
-0.022980
21
-0.030589
31
0.0
0
LINE
8
0
6
CONTINUOUS
10
-0.023111
20
-0.031993
30
0.0
11
-0.022969
21
-0.031997
31
0.0
0
LINE
8
0
6
CONTINUOUS
10
-0.025051
20
-0.032006
30
0.0
11
-0.025142
21
-0.032007
31
0.0
0
LINE
8
0
6
CONTINUOUS
10
-0.023111
20
-0.031993
30
0.0
11
-0.025051
21
-0.032006
31
0.0
0
LINE
8
0
6
CONTINUOUS
10
-0.022969
20
-0.031997
30
0.0
11
-0.023111
21
-0.031993
31
0.0
0
LINE
8
0
6
CONTINUOUS
10
-0.025142
20
-0.032017
30
0.0
11
-0.024768
21
-0.032015
31
0.0
0
LINE
8
0
6
CONTINUOUS
10
-0.066568
20
-0.028880
30
0.0
11
-0.064770
21
-0.028863
31
0.0
0
LINE
8
0
6
CONTINUOUS
10
-0.066587
20
-0.026517
30
0.0
11
-0.066568
21
-0.028880
31
0.0
0
LINE
8
0
6
CONTINUOUS
10
-0.064770
20
-0.028863
30
0.0
11
-0.062830
21
-0.028850
31
0.0
0
LINE
8
0
6
CONTINUOUS
10
-0.062688
20
-0.028854
30
0.0
11
-0.062702
21
-0.027099
31
0.0
0
LINE
8
0
6
CONTINUOUS
10
-0.062830
20
-0.028850
30
0.0
11
-0.062688
21
-0.028854
31
0.0
0
LINE
8
0
6
CONTINUOUS
10
-0.064770
20
-0.028863
30
0.0
11
-0.066568
21
-0.028880
31
0.0
0
LINE
8
0
6
CONTINUOUS
10
-0.062830
20
-0.028850
30
0.0
11
-0.064770
21
-0.028863
31
0.0
0
LINE
8
0
6
CONTINUOUS
10
-0.062688
20
-0.028854
30
0.0
11
-0.062830
21
-0.028850
31
0.0
0
LINE
8
0
6
CONTINUOUS
10
-0.065503
20
-0.028879
30
0.0
11
-0.064487
21
-0.028872
31
0.0
0
LINE
8
0
6
CONTINUOUS
10
-0.059457
20
-0.029849
30
0.0
11
-0.057659
21
-0.029831
31
0.0
0
LINE
8
0
6
CONTINUOUS
10
-0.057659
20
-0.029831
30
0.0
11
-0.055719
21
-0.029818
31
0.0
0
LINE
8
0
6
CONTINUOUS
10
-0.055577
20
-0.029823
30
0.0
11
-0.055590
21
-0.028262
31
0.0
0
LINE
8
0
6
CONTINUOUS
10
-0.055719
20
-0.029818
30
0.0
11
-0.055577
21
-0.029823
31
0.0
0
LINE
8
0
6
CONTINUOUS
10
-0.057659
20
-0.029831
30
0.0
11
-0.059457
21
-0.029849
31
0.0
0
LINE
8
0
6
CONTINUOUS
10
-0.055719
20
-0.029818
30
0.0
11
-0.057659
21
-0.029831
31
0.0
0
LINE
8
0
6
CONTINUOUS
10
-0.055577
20
-0.029823
30
0.0
11
-0.055719
21
-0.029818
31
0.0
0
LINE
8
0
6
CONTINUOUS
10
-0.057376
20
-0.029840
30
0.0
11
-0.056833
21
-0.029835
31
0.0
0
LINE
8
0
6
CONTINUOUS
10
-0.057603
20
-0.029842
30
0.0
11
-0.057376
21
-0.029840
31
0.0
0
LINE
8
0
6
CONTINUOUS
10
-0.052053
20
-0.030668
30
0.0
11
-0.050255
21
-0.030650
31
0.0
0
LINE
8
0
6
CONTINUOUS
10
-0.050255
20
-0.030650
30
0.0
11
-0.048338
21
-0.030637
31
0.0
0
LINE
8
0
6
CONTINUOUS
10
-0.050255
20
-0.030650
30
0.0
11
-0.052053
21
-0.030668
31
0.0
0
LINE
8
0
6
CONTINUOUS
10
-0.048314
20
-0.030637
30
0.0
11
-0.050255
21
-0.030650
31
0.0
0
LINE
8
0
6
CONTINUOUS
10
-0.050048
20
-0.030660
30
0.0
11
-0.049971
21
-0.030659
31
0.0
0
LINE
8
0
6
CONTINUOUS
10
-0.044652
20
-0.031378
30
0.0
11
-0.042875
21
-0.031360
31
0.0
0
LINE
8
0
6
CONTINUOUS
10
-0.042853
20
-0.031360
30
0.0
11
-0.041398
21
-0.031350
31
0.0
0
LINE
8
0
6
CONTINUOUS
10
-0.042853
20
-0.031360
30
0.0
11
-0.044652
21
-0.031378
31
0.0
0
LINE
8
0
6
CONTINUOUS
10
-0.041398
20
-0.031350
30
0.0
11
-0.042853
21
-0.031360
31
0.0
0
LINE
8
0
6
CONTINUOUS
10
-0.042875
20
-0.031371
30
0.0
11
-0.042570
21
-0.031369
31
0.0
0
LINE
8
0
6
CONTINUOUS
10
-0.036544
20
-0.032059
30
0.0
11
-0.034746
21
-0.032042
31
0.0
0
LINE
8
0
6
CONTINUOUS
10
-0.036562
20
-0.029828
30
0.0
11
-0.036544
21
-0.032059
31
0.0
0
LINE
8
0
6
CONTINUOUS
10
-0.034746
20
-0.032042
30
0.0
11
-0.034516
21
-0.032040
31
0.0
0
LINE
8
0
6
CONTINUOUS
10
-0.034746
20
-0.032042
30
0.0
11
-0.036544
21
-0.032059
31
0.0
0
LINE
8
0
6
CONTINUOUS
10
-0.034516
20
-0.032040
30
0.0
11
-0.034746
21
-0.032042
31
0.0
0
LINE
8
0
6
CONTINUOUS
10
-0.035296
20
-0.032057
30
0.0
11
-0.034463
21
-0.032051
31
0.0
0
LINE
8
0
6
CONTINUOUS
10
-0.069383
20
-0.028940
30
0.0
11
-0.067584
21
-0.028923
31
0.0
0
LINE
8
0
6
CONTINUOUS
10
-0.069401
20
-0.026593
30
0.0
11
-0.069383
21
-0.028940
31
0.0
0
LINE
8
0
6
CONTINUOUS
10
-0.067584
20
-0.028923
30
0.0
11
-0.065644
21
-0.028910
31
0.0
0
LINE
8
0
6
CONTINUOUS
10
-0.065644
20
-0.028910
30
0.0
11
-0.065502
21
-0.028914
31
0.0
0
LINE
8
0
6
CONTINUOUS
10
-0.067584
20
-0.028923
30
0.0
11
-0.069383
21
-0.028940
31
0.0
0
LINE
8
0
6
CONTINUOUS
10
-0.065644
20
-0.028910
30
0.0
11
-0.067584
21
-0.028923
31
0.0
0
LINE
8
0
6
CONTINUOUS
10
-0.065502
20
-0.028914
30
0.0
11
-0.065644
21
-0.028910
31
0.0
0
LINE
8
0
6
CONTINUOUS
10
-0.061858
20
-0.029852
30
0.0
11
-0.060060
21
-0.029834
31
0.0
0
LINE
8
0
6
CONTINUOUS
10
-0.060060
20
-0.029834
30
0.0
11
-0.059457
21
-0.029830
31
0.0
0
LINE
8
0
6
CONTINUOUS
10
-0.060060
20
-0.029834
30
0.0
11
-0.061858
21
-0.029852
31
0.0
0
LINE
8
0
6
CONTINUOUS
10
-0.059457
20
-0.029830
30
0.0
11
-0.060060
21
-0.029834
31
0.0
0
LINE
8
0
6
CONTINUOUS
10
-0.059776
20
-0.029843
30
0.0
11
-0.059457
21
-0.029840
31
0.0
0
LINE
8
0
6
CONTINUOUS
10
-0.060713
20
-0.029850
30
0.0
11
-0.059776
21
-0.029843
31
0.0
0
LINE
8
0
6
CONTINUOUS
10
-0.053730
20
-0.030657
30
0.0
11
-0.052053
21
-0.030641
31
0.0
0
LINE
8
0
6
CONTINUOUS
10
-0.052053
20
-0.030641
30
0.0
11
-0.053730
21
-0.030657
31
0.0
0
LINE
8
0
6
CONTINUOUS
10
-0.045062
20
-0.031379
30
0.0
11
-0.044652
21
-0.031375
31
0.0
0
LINE
8
0
6
CONTINUOUS
10
-0.045068
20
-0.030636
30
0.0
11
-0.045062
21
-0.031379
31
0.0
0
LINE
8
0
6
CONTINUOUS
10
-0.044652
20
-0.031375
30
0.0
11
-0.045062
21
-0.031379
31
0.0
0
LINE
8
0
6
CONTINUOUS
10
-0.070981
20
-0.028882
30
0.0
11
-0.069383
21
-0.028866
31
0.0
0
LINE
8
0
6
CONTINUOUS
10
-0.071000
20
-0.026535
30
0.0
11
-0.070981
21
-0.028882
31
0.0
0
LINE
8
0
6
CONTINUOUS
10
-0.069383
20
-0.028866
30
0.0
11
-0.070981
21
-0.028882
31
0.0
0
LINE
8
0
6
CONTINUOUS
10
-0.062383
20
-0.027636
30
0.0
11
-0.062365
21
-0.029859
31
0.0
0
LINE
8
0
6
CONTINUOUS
10
-0.060713
20
-0.029853
30
0.0
11
-0.060283
21
-0.029850
31
0.0
0
LINE
8
0
6
CONTINUOUS
10
-0.060712
20
-0.029896
30
0.0
11
-0.058914
21
-0.029878
31
0.0
0
LINE
8
0
6
CONTINUOUS
10
-0.060713
20
-0.029841
30
0.0
11
-0.060712
21
-0.029896
31
0.0
0
LINE
8
0
6
CONTINUOUS
10
-0.058914
20
-0.029878
30
0.0
11
-0.056974
21
-0.029865
31
0.0
0
LINE
8
0
6
CONTINUOUS
10
-0.056832
20
-0.029870
30
0.0
11
-0.056833
21
-0.029826
31
0.0
0
LINE
8
0
6
CONTINUOUS
10
-0.056974
20
-0.029865
30
0.0
11
-0.056832
21
-0.029870
31
0.0
0
LINE
8
0
6
CONTINUOUS
10
-0.058914
20
-0.029878
30
0.0
11
-0.060712
21
-0.029896
31
0.0
0
LINE
8
0
6
CONTINUOUS
10
-0.056974
20
-0.029865
30
0.0
11
-0.058914
21
-0.029878
31
0.0
0
LINE
8
0
6
CONTINUOUS
10
-0.056832
20
-0.029870
30
0.0
11
-0.056974
21
-0.029865
31
0.0
0
LINE
8
0
6
CONTINUOUS
10
-0.065503
20
-0.028881
30
0.0
11
-0.064612
21
-0.028875
31
0.0
0
LINE
8
0
6
CONTINUOUS
10
-0.064612
20
-0.028875
30
0.0
11
-0.064470
21
-0.028879
31
0.0
0
LINE
8
0
6
CONTINUOUS
10
-0.064612
20
-0.028875
30
0.0
11
-0.065503
21
-0.028881
31
0.0
0
LINE
8
0
6
CONTINUOUS
10
-0.064470
20
-0.028879
30
0.0
11
-0.064612
21
-0.028875
31
0.0
0
LINE
8
0
6
CONTINUOUS
10
-0.048210
20
-0.028907
30
0.0
11
-0.046199
21
-0.028903
31
0.0
0
LINE
8
0
6
CONTINUOUS
10
-0.048524
20
-0.028894
30
0.0
11
-0.048210
21
-0.028907
31
0.0
0
LINE
8
0
6
CONTINUOUS
10
-0.048535
20
-0.026714
30
0.0
11
-0.048524
21
-0.028894
31
0.0
0
LINE
8
0
6
CONTINUOUS
10
-0.044503
20
-0.028885
30
0.0
11
-0.044513
21
-0.026948
31
0.0
0
LINE
8
0
6
CONTINUOUS
10
-0.046199
20
-0.028903
30
0.0
11
-0.044503
21
-0.028885
31
0.0
0
LINE
8
0
6
CONTINUOUS
10
-0.041449
20
-0.029861
30
0.0
11
-0.039439
21
-0.029856
31
0.0
0
LINE
8
0
6
CONTINUOUS
10
-0.041763
20
-0.029848
30
0.0
11
-0.041449
21
-0.029861
31
0.0
0
LINE
8
0
6
CONTINUOUS
10
-0.041774
20
-0.027704
30
0.0
11
-0.041763
21
-0.029848
31
0.0
0
LINE
8
0
6
CONTINUOUS
10
-0.037742
20
-0.029839
30
0.0
11
-0.037742
21
-0.029757
31
0.0
0
LINE
8
0
6
CONTINUOUS
10
-0.039439
20
-0.029856
30
0.0
11
-0.037742
21
-0.029839
31
0.0
0
LINE
8
0
6
CONTINUOUS
10
-0.034536
20
-0.030688
30
0.0
11
-0.032526
21
-0.030684
31
0.0
0
LINE
8
0
6
CONTINUOUS
10
-0.034850
20
-0.030675
30
0.0
11
-0.034536
21
-0.030688
31
0.0
0
LINE
8
0
6
CONTINUOUS
10
-0.034861
20
-0.028531
30
0.0
11
-0.034850
21
-0.030675
31
0.0
0
LINE
8
0
6
CONTINUOUS
10
-0.030829
20
-0.030666
30
0.0
11
-0.030831
21
-0.030295
31
0.0
0
LINE
8
0
6
CONTINUOUS
10
-0.032526
20
-0.030684
30
0.0
11
-0.030829
21
-0.030666
31
0.0
0
LINE
8
0
6
CONTINUOUS
10
-0.027724
20
-0.031389
30
0.0
11
-0.025714
21
-0.031385
31
0.0
0
LINE
8
0
6
CONTINUOUS
10
-0.028038
20
-0.031376
30
0.0
11
-0.027724
21
-0.031389
31
0.0
0
LINE
8
0
6
CONTINUOUS
10
-0.028049
20
-0.029269
30
0.0
11
-0.028038
21
-0.031376
31
0.0
0
LINE
8
0
6
CONTINUOUS
10
-0.024017
20
-0.031367
30
0.0
11
-0.024021
21
-0.030555
31
0.0
0
LINE
8
0
6
CONTINUOUS
10
-0.025714
20
-0.031385
30
0.0
11
-0.024017
21
-0.031367
31
0.0
0
LINE
8
0
6
CONTINUOUS
10
-0.020805
20
-0.032058
30
0.0
11
-0.018794
21
-0.032054
31
0.0
0
LINE
8
0
6
CONTINUOUS
10
-0.021119
20
-0.032045
30
0.0
11
-0.020805
21
-0.032058
31
0.0
0
LINE
8
0
6
CONTINUOUS
10
-0.021129
20
-0.029950
30
0.0
11
-0.021119
21
-0.032045
31
0.0
0
LINE
8
0
6
CONTINUOUS
10
-0.017098
20
-0.032036
30
0.0
11
-0.017104
21
-0.030784
31
0.0
0
LINE
8
0
6
CONTINUOUS
10
-0.018794
20
-0.032054
30
0.0
11
-0.017098
21
-0.032036
31
0.0
0
LINE
8
0
6
CONTINUOUS
10
-0.013620
20
-0.032030
30
0.0
11
-0.011610
21
-0.032025
31
0.0
0
LINE
8
0
6
CONTINUOUS
10
-0.013934
20
-0.032016
30
0.0
11
-0.013620
21
-0.032030
31
0.0
0
LINE
8
0
6
CONTINUOUS
10
-0.013942
20
-0.030484
30
0.0
11
-0.013934
21
-0.032016
31
0.0
0
LINE
8
0
6
CONTINUOUS
10
-0.011610
20
-0.032025
30
0.0
11
-0.011309
21
-0.032022
31
0.0
0
LINE
8
0
6
CONTINUOUS
10
-0.006221
20
-0.032319
30
0.0
11
-0.004211
21
-0.032314
31
0.0
0
LINE
8
0
6
CONTINUOUS
10
-0.006535
20
-0.032306
30
0.0
11
-0.006221
21
-0.032319
31
0.0
0
LINE
8
0
6
CONTINUOUS
10
-0.006541
20
-0.031106
30
0.0
11
-0.006535
21
-0.032306
31
0.0
0
LINE
8
0
6
CONTINUOUS
10
-0.004211
20
-0.032314
30
0.0
11
-0.002514
21
-0.032296
31
0.0
0
LINE
8
0
6
CONTINUOUS
10
0.012065
20
-0.028926
30
0.0
11
0.014076
21
-0.028922
31
0.0
0
LINE
8
0
6
CONTINUOUS
10
0.011751
20
-0.028913
30
0.0
11
0.012065
21
-0.028926
31
0.0
0
LINE
8
0
6
CONTINUOUS
10
0.011741
20
-0.026987
30
0.0
11
0.011751
21
-0.028913
31
0.0
0
LINE
8
0
6
CONTINUOUS
10
0.015772
20
-0.028904
30
0.0
11
0.015761
21
-0.026700
31
0.0
0
LINE
8
0
6
CONTINUOUS
10
0.014076
20
-0.028922
30
0.0
11
0.015754
21
-0.028904
31
0.0
0
LINE
8
0
6
CONTINUOUS
10
0.009185
20
-0.029889
30
0.0
11
0.011165
21
-0.029885
31
0.0
0
LINE
8
0
6
CONTINUOUS
10
0.008872
20
-0.029876
30
0.0
11
0.009185
21
-0.029889
31
0.0
0
LINE
8
0
6
CONTINUOUS
10
0.008862
20
-0.027906
30
0.0
11
0.008872
21
-0.029876
31
0.0
0
LINE
8
0
6
CONTINUOUS
10
0.011196
20
-0.029885
30
0.0
11
0.012892
21
-0.029867
31
0.0
0
LINE
8
0
6
CONTINUOUS
10
0.006008
20
-0.030658
30
0.0
11
0.008019
21
-0.030653
31
0.0
0
LINE
8
0
6
CONTINUOUS
10
0.005694
20
-0.030645
30
0.0
11
0.006008
21
-0.030658
31
0.0
0
LINE
8
0
6
CONTINUOUS
10
0.005684
20
-0.028675
30
0.0
11
0.005694
21
-0.030645
31
0.0
0
LINE
8
0
6
CONTINUOUS
10
0.008019
20
-0.030653
30
0.0
11
0.009715
21
-0.030636
31
0.0
0
LINE
8
0
6
CONTINUOUS
10
0.003054
20
-0.031382
30
0.0
11
0.005065
21
-0.031378
31
0.0
0
LINE
8
0
6
CONTINUOUS
10
0.002740
20
-0.031369
30
0.0
11
0.003054
21
-0.031382
31
0.0
0
LINE
8
0
6
CONTINUOUS
10
0.002730
20
-0.029384
30
0.0
11
0.002740
21
-0.031369
31
0.0
0
LINE
8
0
6
CONTINUOUS
10
0.006761
20
-0.031360
30
0.0
11
0.006760
21
-0.031100
31
0.0
0
LINE
8
0
6
CONTINUOUS
10
0.005065
20
-0.031378
30
0.0
11
0.006761
21
-0.031360
31
0.0
0
LINE
8
0
6
CONTINUOUS
10
-0.000070
20
-0.032051
30
0.0
11
0.001941
21
-0.032046
31
0.0
0
LINE
8
0
6
CONTINUOUS
10
-0.000384
20
-0.032038
30
0.0
11
-0.000070
21
-0.032051
31
0.0
0
LINE
8
0
6
CONTINUOUS
10
-0.000393
20
-0.030048
30
0.0
11
-0.000384
21
-0.032038
31
0.0
0
LINE
8
0
6
CONTINUOUS
10
0.001941
20
-0.032046
30
0.0
11
0.003637
21
-0.032028
31
0.0
0
LINE
8
0
6
CONTINUOUS
10
-0.003257
20
-0.032026
30
0.0
11
-0.001247
21
-0.032022
31
0.0
0
LINE
8
0
6
CONTINUOUS
10
-0.003571
20
-0.032013
30
0.0
11
-0.003257
21
-0.032026
31
0.0
0
LINE
8
0
6
CONTINUOUS
10
-0.003578
20
-0.030513
30
0.0
11
-0.003571
21
-0.032013
31
0.0
0
LINE
8
0
6
CONTINUOUS
10
-0.001247
20
-0.032022
30
0.0
11
-0.000384
21
-0.032013
31
0.0
0
LINE
8
0
6
CONTINUOUS
10
0.001425
20
-0.028901
30
0.0
11
0.003436
21
-0.028896
31
0.0
0
LINE
8
0
6
CONTINUOUS
10
0.001111
20
-0.028888
30
0.0
11
0.001425
21
-0.028901
31
0.0
0
LINE
8
0
6
CONTINUOUS
10
0.001102
20
-0.026961
30
0.0
11
0.001111
21
-0.028888
31
0.0
0
LINE
8
0
6
CONTINUOUS
10
0.005132
20
-0.028878
30
0.0
11
0.005121
21
-0.026687
31
0.0
0
LINE
8
0
6
CONTINUOUS
10
0.003436
20
-0.028896
30
0.0
11
0.005132
21
-0.028878
31
0.0
0
LINE
8
0
6
CONTINUOUS
10
-0.001614
20
-0.029885
30
0.0
11
0.000396
21
-0.029880
31
0.0
0
LINE
8
0
6
CONTINUOUS
10
-0.001928
20
-0.029872
30
0.0
11
-0.001614
21
-0.029885
31
0.0
0
LINE
8
0
6
CONTINUOUS
10
-0.001938
20
-0.027866
30
0.0
11
-0.001928
21
-0.029872
31
0.0
0
LINE
8
0
6
CONTINUOUS
10
0.000396
20
-0.029880
30
0.0
11
0.002093
21
-0.029862
31
0.0
0
LINE
8
0
6
CONTINUOUS
10
-0.004690
20
-0.030666
30
0.0
11
-0.002679
21
-0.030661
31
0.0
0
LINE
8
0
6
CONTINUOUS
10
-0.005004
20
-0.030653
30
0.0
11
-0.004690
21
-0.030666
31
0.0
0
LINE
8
0
6
CONTINUOUS
10
-0.005014
20
-0.028641
30
0.0
11
-0.005004
21
-0.030653
31
0.0
0
LINE
8
0
6
CONTINUOUS
10
-0.002679
20
-0.030661
30
0.0
11
-0.000983
21
-0.030643
31
0.0
0
LINE
8
0
6
CONTINUOUS
10
-0.007822
20
-0.031377
30
0.0
11
-0.005812
21
-0.031372
31
0.0
0
LINE
8
0
6
CONTINUOUS
10
-0.008136
20
-0.031364
30
0.0
11
-0.007822
21
-0.031377
31
0.0
0
LINE
8
0
6
CONTINUOUS
10
-0.008146
20
-0.029344
30
0.0
11
-0.008136
21
-0.031364
31
0.0
0
LINE
8
0
6
CONTINUOUS
10
-0.005812
20
-0.031372
30
0.0
11
-0.004115
21
-0.031355
31
0.0
0
LINE
8
0
6
CONTINUOUS
10
-0.010995
20
-0.032064
30
0.0
11
-0.008985
21
-0.032059
31
0.0
0
LINE
8
0
6
CONTINUOUS
10
-0.011309
20
-0.032051
30
0.0
11
-0.010995
21
-0.032064
31
0.0
0
LINE
8
0
6
CONTINUOUS
10
-0.011319
20
-0.029994
30
0.0
11
-0.011309
21
-0.032051
31
0.0
0
LINE
8
0
6
CONTINUOUS
10
-0.007288
20
-0.032042
30
0.0
11
-0.007293
21
-0.031085
31
0.0
0
LINE
8
0
6
CONTINUOUS
10
-0.008985
20
-0.032059
30
0.0
11
-0.007288
21
-0.032042
31
0.0
0
LINE
8
0
6
CONTINUOUS
10
-0.009396
20
-0.028906
30
0.0
11
-0.007386
21
-0.028901
31
0.0
0
LINE
8
0
6
CONTINUOUS
10
-0.009710
20
-0.028893
30
0.0
11
-0.009396
21
-0.028906
31
0.0
0
LINE
8
0
6
CONTINUOUS
10
-0.009720
20
-0.026905
30
0.0
11
-0.009710
21
-0.028893
31
0.0
0
LINE
8
0
6
CONTINUOUS
10
-0.005689
20
-0.028883
30
0.0
11
-0.005700
21
-0.026753
31
0.0
0
LINE
8
0
6
CONTINUOUS
10
-0.007386
20
-0.028901
30
0.0
11
-0.005689
21
-0.028883
31
0.0
0
LINE
8
0
6
CONTINUOUS
10
-0.012573
20
-0.029867
30
0.0
11
-0.010562
21
-0.029862
31
0.0
0
LINE
8
0
6
CONTINUOUS
10
-0.012887
20
-0.029854
30
0.0
11
-0.012573
21
-0.029867
31
0.0
0
LINE
8
0
6
CONTINUOUS
10
-0.012897
20
-0.027842
30
0.0
11
-0.012887
21
-0.029854
31
0.0
0
LINE
8
0
6
CONTINUOUS
10
-0.010562
20
-0.029862
30
0.0
11
-0.008866
21
-0.029845
31
0.0
0
LINE
8
0
6
CONTINUOUS
10
-0.015447
20
-0.030664
30
0.0
11
-0.013436
21
-0.030660
31
0.0
0
LINE
8
0
6
CONTINUOUS
10
-0.015761
20
-0.030651
30
0.0
11
-0.015447
21
-0.030664
31
0.0
0
LINE
8
0
6
CONTINUOUS
10
-0.015771
20
-0.028595
30
0.0
11
-0.015761
21
-0.030651
31
0.0
0
LINE
8
0
6
CONTINUOUS
10
-0.013436
20
-0.030660
30
0.0
11
-0.011740
21
-0.030642
31
0.0
0
LINE
8
0
6
CONTINUOUS
10
-0.018319
20
-0.031386
30
0.0
11
-0.016309
21
-0.031382
31
0.0
0
LINE
8
0
6
CONTINUOUS
10
-0.018633
20
-0.031373
30
0.0
11
-0.018319
21
-0.031386
31
0.0
0
LINE
8
0
6
CONTINUOUS
10
-0.018644
20
-0.029316
30
0.0
11
-0.018633
21
-0.031373
31
0.0
0
LINE
8
0
6
CONTINUOUS
10
-0.014612
20
-0.031364
30
0.0
11
-0.014615
21
-0.030867
31
0.0
0
LINE
8
0
6
CONTINUOUS
10
-0.016309
20
-0.031382
30
0.0
11
-0.014612
21
-0.031364
31
0.0
0
LINE
8
0
6
CONTINUOUS
10
-0.020087
20
-0.028890
30
0.0
11
-0.018076
21
-0.028885
31
0.0
0
LINE
8
0
6
CONTINUOUS
10
-0.020401
20
-0.028877
30
0.0
11
-0.020087
21
-0.028890
31
0.0
0
LINE
8
0
6
CONTINUOUS
10
-0.020411
20
-0.026825
30
0.0
11
-0.020401
21
-0.028877
31
0.0
0
LINE
8
0
6
CONTINUOUS
10
-0.016380
20
-0.028868
30
0.0
11
-0.016390
21
-0.026803
31
0.0
0
LINE
8
0
6
CONTINUOUS
10
-0.018076
20
-0.028885
30
0.0
11
-0.016380
21
-0.028868
31
0.0
0
LINE
8
0
6
CONTINUOUS
10
-0.022975
20
-0.029851
30
0.0
11
-0.020965
21
-0.029847
31
0.0
0
LINE
8
0
6
CONTINUOUS
10
-0.023289
20
-0.029838
30
0.0
11
-0.022975
21
-0.029851
31
0.0
0
LINE
8
0
6
CONTINUOUS
10
-0.023299
20
-0.027782
30
0.0
11
-0.023289
21
-0.029838
31
0.0
0
LINE
8
0
6
CONTINUOUS
10
-0.020965
20
-0.029847
30
0.0
11
-0.019268
21
-0.029829
31
0.0
0
LINE
8
0
6
CONTINUOUS
10
-0.025521
20
-0.030677
30
0.0
11
-0.023510
21
-0.030672
31
0.0
0
LINE
8
0
6
CONTINUOUS
10
-0.025835
20
-0.030664
30
0.0
11
-0.025521
21
-0.030677
31
0.0
0
LINE
8
0
6
CONTINUOUS
10
-0.025845
20
-0.028563
30
0.0
11
-0.025835
21
-0.030664
31
0.0
0
LINE
8
0
6
CONTINUOUS
10
-0.023510
20
-0.030672
30
0.0
11
-0.021814
21
-0.030654
31
0.0
0
LINE
8
0
6
CONTINUOUS
10
-0.030155
20
-0.028893
30
0.0
11
-0.028172
21
-0.028889
31
0.0
0
LINE
8
0
6
CONTINUOUS
10
-0.030469
20
-0.028880
30
0.0
11
-0.030155
21
-0.028893
31
0.0
0
LINE
8
0
6
CONTINUOUS
10
-0.030479
20
-0.026822
30
0.0
11
-0.030469
21
-0.028880
31
0.0
0
LINE
8
0
6
CONTINUOUS
10
-0.026448
20
-0.028871
30
0.0
11
-0.026458
21
-0.026806
31
0.0
0
LINE
8
0
6
CONTINUOUS
10
-0.028144
20
-0.028889
30
0.0
11
-0.026448
21
-0.028871
31
0.0
0
LINE
8
0
6
CONTINUOUS
10
-0.032678
20
-0.029868
30
0.0
11
-0.030667
21
-0.029863
31
0.0
0
LINE
8
0
6
CONTINUOUS
10
-0.032992
20
-0.029855
30
0.0
11
-0.032678
21
-0.029868
31
0.0
0
LINE
8
0
6
CONTINUOUS
10
-0.033002
20
-0.027754
30
0.0
11
-0.032992
21
-0.029855
31
0.0
0
LINE
8
0
6
CONTINUOUS
10
-0.030667
20
-0.029863
30
0.0
11
-0.028971
21
-0.029846
31
0.0
0
LINE
8
0
6
CONTINUOUS
10
-0.039734
20
-0.028890
30
0.0
11
-0.037747
21
-0.028885
31
0.0
0
LINE
8
0
6
CONTINUOUS
10
-0.040048
20
-0.028877
30
0.0
11
-0.039734
21
-0.028890
31
0.0
0
LINE
8
0
6
CONTINUOUS
10
-0.040059
20
-0.026759
30
0.0
11
-0.040048
21
-0.028877
31
0.0
0
LINE
8
0
6
CONTINUOUS
10
-0.036027
20
-0.028868
30
0.0
11
-0.036037
21
-0.026868
31
0.0
0
LINE
8
0
6
CONTINUOUS
10
-0.037724
20
-0.028885
30
0.0
11
-0.036027
21
-0.028868
31
0.0
0
LINE
8
0
6
CONTINUOUS
10
0.022562
20
-0.028903
30
0.0
11
0.024573
21
-0.028898
31
0.0
0
LINE
8
0
6
CONTINUOUS
10
0.022248
20
-0.028890
30
0.0
11
0.022562
21
-0.028903
31
0.0
0
LINE
8
0
6
CONTINUOUS
10
0.022239
20
-0.027017
30
0.0
11
0.022248
21
-0.028890
31
0.0
0
LINE
8
0
6
CONTINUOUS
10
0.026269
20
-0.028881
30
0.0
11
0.026258
21
-0.026635
31
0.0
0
LINE
8
0
6
CONTINUOUS
10
0.024573
20
-0.028898
30
0.0
11
0.026254
21
-0.028881
31
0.0
0
LINE
8
0
6
CONTINUOUS
10
0.019453
20
-0.029869
30
0.0
11
0.021463
21
-0.029865
31
0.0
0
LINE
8
0
6
CONTINUOUS
10
0.019139
20
-0.029856
30
0.0
11
0.019453
21
-0.029869
31
0.0
0
LINE
8
0
6
CONTINUOUS
10
0.019129
20
-0.027923
30
0.0
11
0.019139
21
-0.029856
31
0.0
0
LINE
8
0
6
CONTINUOUS
10
0.021463
20
-0.029865
30
0.0
11
0.023160
21
-0.029847
31
0.0
0
LINE
8
0
6
CONTINUOUS
10
0.016638
20
-0.030662
30
0.0
11
0.018648
21
-0.030657
31
0.0
0
LINE
8
0
6
CONTINUOUS
10
0.016324
20
-0.030649
30
0.0
11
0.016638
21
-0.030662
31
0.0
0
LINE
8
0
6
CONTINUOUS
10
0.016314
20
-0.028715
30
0.0
11
0.016324
21
-0.030649
31
0.0
0
LINE
8
0
6
CONTINUOUS
10
0.018648
20
-0.030657
30
0.0
11
0.020345
21
-0.030639
31
0.0
0
LINE
8
0
6
CONTINUOUS
10
0.013671
20
-0.031375
30
0.0
11
0.015682
21
-0.031370
31
0.0
0
LINE
8
0
6
CONTINUOUS
10
0.013357
20
-0.031362
30
0.0
11
0.013671
21
-0.031375
31
0.0
0
LINE
8
0
6
CONTINUOUS
10
0.013347
20
-0.029408
30
0.0
11
0.013357
21
-0.031362
31
0.0
0
LINE
8
0
6
CONTINUOUS
10
0.017378
20
-0.031353
30
0.0
11
0.017375
21
-0.030775
31
0.0
0
LINE
8
0
6
CONTINUOUS
10
0.015682
20
-0.031370
30
0.0
11
0.017378
21
-0.031353
31
0.0
0
LINE
8
0
6
CONTINUOUS
10
0.010441
20
-0.032064
30
0.0
11
0.012452
21
-0.032059
31
0.0
0
LINE
8
0
6
CONTINUOUS
10
0.010127
20
-0.032050
30
0.0
11
0.010441
21
-0.032064
31
0.0
0
LINE
8
0
6
CONTINUOUS
10
0.010118
20
-0.030097
30
0.0
11
0.010127
21
-0.032050
31
0.0
0
LINE
8
0
6
CONTINUOUS
10
0.014148
20
-0.032041
30
0.0
11
0.014143
21
-0.030882
31
0.0
0
LINE
8
0
6
CONTINUOUS
10
0.012452
20
-0.032059
30
0.0
11
0.014148
21
-0.032041
31
0.0
0
LINE
8
0
6
CONTINUOUS
10
0.007303
20
-0.032033
30
0.0
11
0.009314
21
-0.032028
31
0.0
0
LINE
8
0
6
CONTINUOUS
10
0.006989
20
-0.032020
30
0.0
11
0.007303
21
-0.032033
31
0.0
0
LINE
8
0
6
CONTINUOUS
10
0.006982
20
-0.030548
30
0.0
11
0.006989
21
-0.032020
31
0.0
0
LINE
8
0
6
CONTINUOUS
10
0.009314
20
-0.032028
30
0.0
11
0.010127
21
-0.032020
31
0.0
0
LINE
8
0
6
CONTINUOUS
10
0.004179
20
-0.032327
30
0.0
11
0.006190
21
-0.032322
31
0.0
0
LINE
8
0
6
CONTINUOUS
10
0.003865
20
-0.032314
30
0.0
11
0.004179
21
-0.032327
31
0.0
0
LINE
8
0
6
CONTINUOUS
10
0.003858
20
-0.030841
30
0.0
11
0.003865
21
-0.032314
31
0.0
0
LINE
8
0
6
CONTINUOUS
10
0.006190
20
-0.032322
30
0.0
11
0.007886
21
-0.032304
31
0.0
0
LINE
8
0
6
CONTINUOUS
10
0.001115
20
-0.032596
30
0.0
11
0.003126
21
-0.032592
31
0.0
0
LINE
8
0
6
CONTINUOUS
10
0.000801
20
-0.032583
30
0.0
11
0.001115
21
-0.032596
31
0.0
0
LINE
8
0
6
CONTINUOUS
10
0.003126
20
-0.032592
30
0.0
11
0.004822
21
-0.032574
31
0.0
0
LINE
8
0
6
CONTINUOUS
10
0.035877
20
-0.028901
30
0.0
11
0.035888
21
-0.026634
31
0.0
0
LINE
8
0
6
CONTINUOUS
10
0.034491
20
-0.028906
30
0.0
11
0.035877
21
-0.028901
31
0.0
0
LINE
8
0
6
CONTINUOUS
10
0.032360
20
-0.028893
30
0.0
11
0.034491
21
-0.028906
31
0.0
0
LINE
8
0
6
CONTINUOUS
10
0.031614
20
-0.028875
30
0.0
11
0.032360
21
-0.028893
31
0.0
0
LINE
8
0
6
CONTINUOUS
10
0.031624
20
-0.027025
30
0.0
11
0.031614
21
-0.028875
31
0.0
0
LINE
8
0
6
CONTINUOUS
10
0.031706
20
-0.029847
30
0.0
11
0.033092
21
-0.029843
31
0.0
0
LINE
8
0
6
CONTINUOUS
10
0.029575
20
-0.029834
30
0.0
11
0.031706
21
-0.029847
31
0.0
0
LINE
8
0
6
CONTINUOUS
10
0.028829
20
-0.029817
30
0.0
11
0.029575
21
-0.029834
31
0.0
0
LINE
8
0
6
CONTINUOUS
10
0.028839
20
-0.027904
30
0.0
11
0.028829
21
-0.029817
31
0.0
0
LINE
8
0
6
CONTINUOUS
10
0.029829
20
-0.030659
30
0.0
11
0.029831
21
-0.030362
31
0.0
0
LINE
8
0
6
CONTINUOUS
10
0.028443
20
-0.030664
30
0.0
11
0.029829
21
-0.030659
31
0.0
0
LINE
8
0
6
CONTINUOUS
10
0.026312
20
-0.030651
30
0.0
11
0.028443
21
-0.030664
31
0.0
0
LINE
8
0
6
CONTINUOUS
10
0.025567
20
-0.030633
30
0.0
11
0.026312
21
-0.030651
31
0.0
0
LINE
8
0
6
CONTINUOUS
10
0.025576
20
-0.028721
30
0.0
11
0.025567
21
-0.030633
31
0.0
0
LINE
8
0
6
CONTINUOUS
10
0.026885
20
-0.031378
30
0.0
11
0.026890
21
-0.030460
31
0.0
0
LINE
8
0
6
CONTINUOUS
10
0.025499
20
-0.031383
30
0.0
11
0.026885
21
-0.031378
31
0.0
0
LINE
8
0
6
CONTINUOUS
10
0.023368
20
-0.031370
30
0.0
11
0.025499
21
-0.031383
31
0.0
0
LINE
8
0
6
CONTINUOUS
10
0.022622
20
-0.031352
30
0.0
11
0.023368
21
-0.031370
31
0.0
0
LINE
8
0
6
CONTINUOUS
10
0.022632
20
-0.029419
30
0.0
11
0.022622
21
-0.031352
31
0.0
0
LINE
8
0
6
CONTINUOUS
10
0.022216
20
-0.032075
30
0.0
11
0.023602
21
-0.032070
31
0.0
0
LINE
8
0
6
CONTINUOUS
10
0.020085
20
-0.032062
30
0.0
11
0.022216
21
-0.032075
31
0.0
0
LINE
8
0
6
CONTINUOUS
10
0.019340
20
-0.032044
30
0.0
11
0.020085
21
-0.032062
31
0.0
0
LINE
8
0
6
CONTINUOUS
10
0.019346
20
-0.030710
30
0.0
11
0.019340
21
-0.032044
31
0.0
0
LINE
8
0
6
CONTINUOUS
10
0.018615
20
-0.032027
30
0.0
11
0.020001
21
-0.032022
31
0.0
0
LINE
8
0
6
CONTINUOUS
10
0.016484
20
-0.032014
30
0.0
11
0.018596
21
-0.032027
31
0.0
0
LINE
8
0
6
CONTINUOUS
10
0.015739
20
-0.031996
30
0.0
11
0.016484
21
-0.032014
31
0.0
0
LINE
8
0
6
CONTINUOUS
10
0.015744
20
-0.030829
30
0.0
11
0.015739
21
-0.031996
31
0.0
0
LINE
8
0
6
CONTINUOUS
10
0.014855
20
-0.032317
30
0.0
11
0.016241
21
-0.032313
31
0.0
0
LINE
8
0
6
CONTINUOUS
10
0.012723
20
-0.032304
30
0.0
11
0.014855
21
-0.032317
31
0.0
0
LINE
8
0
6
CONTINUOUS
10
0.011978
20
-0.032287
30
0.0
11
0.012723
21
-0.032304
31
0.0
0
LINE
8
0
6
CONTINUOUS
10
0.070627
20
-0.028882
30
0.0
11
0.070639
21
-0.026517
31
0.0
0
LINE
8
0
6
CONTINUOUS
10
0.069241
20
-0.028887
30
0.0
11
0.070627
21
-0.028882
31
0.0
0
LINE
8
0
6
CONTINUOUS
10
0.068587
20
-0.028883
30
0.0
11
0.069241
21
-0.028887
31
0.0
0
LINE
8
0
6
CONTINUOUS
10
0.060428
20
-0.029875
30
0.0
11
0.061814
21
-0.029871
31
0.0
0
LINE
8
0
6
CONTINUOUS
10
0.058297
20
-0.029862
30
0.0
11
0.060428
21
-0.029875
31
0.0
0
LINE
8
0
6
CONTINUOUS
10
0.051837
20
-0.030661
30
0.0
11
0.053223
21
-0.030656
31
0.0
0
LINE
8
0
6
CONTINUOUS
10
0.050310
20
-0.030651
30
0.0
11
0.051837
21
-0.030661
31
0.0
0
LINE
8
0
6
CONTINUOUS
10
0.043080
20
-0.031397
30
0.0
11
0.044466
21
-0.031392
31
0.0
0
LINE
8
0
6
CONTINUOUS
10
0.040948
20
-0.031384
30
0.0
11
0.043080
21
-0.031397
31
0.0
0
LINE
8
0
6
CONTINUOUS
10
0.035661
20
-0.032047
30
0.0
11
0.035671
21
-0.029918
31
0.0
0
LINE
8
0
6
CONTINUOUS
10
0.034275
20
-0.032052
30
0.0
11
0.035661
21
-0.032047
31
0.0
0
LINE
8
0
6
CONTINUOUS
10
0.032144
20
-0.032039
30
0.0
11
0.034275
21
-0.032052
31
0.0
0
LINE
8
0
6
CONTINUOUS
10
0.031398
20
-0.032021
30
0.0
11
0.032144
21
-0.032039
31
0.0
0
LINE
8
0
6
CONTINUOUS
10
0.024648
20
-0.032026
30
0.0
11
0.026034
21
-0.032021
31
0.0
0
LINE
8
0
6
CONTINUOUS
10
0.023603
20
-0.032019
30
0.0
11
0.024648
21
-0.032026
31
0.0
0
LINE
8
0
6
CONTINUOUS
10
0.068587
20
-0.028899
30
0.0
11
0.068598
21
-0.026538
31
0.0
0
LINE
8
0
6
CONTINUOUS
10
0.067201
20
-0.028903
30
0.0
11
0.068587
21
-0.028899
31
0.0
0
LINE
8
0
6
CONTINUOUS
10
0.065069
20
-0.028890
30
0.0
11
0.067201
21
-0.028903
31
0.0
0
LINE
8
0
6
CONTINUOUS
10
0.058219
20
-0.029854
30
0.0
11
0.059606
21
-0.029849
31
0.0
0
LINE
8
0
6
CONTINUOUS
10
0.056088
20
-0.029841
30
0.0
11
0.058219
21
-0.029854
31
0.0
0
LINE
8
0
6
CONTINUOUS
10
0.055343
20
-0.029823
30
0.0
11
0.056088
21
-0.029841
31
0.0
0
LINE
8
0
6
CONTINUOUS
10
0.055352
20
-0.027975
30
0.0
11
0.055343
21
-0.029823
31
0.0
0
LINE
8
0
6
CONTINUOUS
10
0.050310
20
-0.030656
30
0.0
11
0.050319
21
-0.028747
31
0.0
0
LINE
8
0
6
CONTINUOUS
10
0.048923
20
-0.030661
30
0.0
11
0.050310
21
-0.030656
31
0.0
0
LINE
8
0
6
CONTINUOUS
10
0.046792
20
-0.030648
30
0.0
11
0.048923
21
-0.030661
31
0.0
0
LINE
8
0
6
CONTINUOUS
10
0.046047
20
-0.030630
30
0.0
11
0.046792
21
-0.030648
31
0.0
0
LINE
8
0
6
CONTINUOUS
10
0.040980
20
-0.031390
30
0.0
11
0.040990
21
-0.029504
31
0.0
0
LINE
8
0
6
CONTINUOUS
10
0.039594
20
-0.031394
30
0.0
11
0.040980
21
-0.031390
31
0.0
0
LINE
8
0
6
CONTINUOUS
10
0.037463
20
-0.031381
30
0.0
11
0.039594
21
-0.031394
31
0.0
0
LINE
8
0
6
CONTINUOUS
10
0.036718
20
-0.031364
30
0.0
11
0.037463
21
-0.031381
31
0.0
0
LINE
8
0
6
CONTINUOUS
10
0.029536
20
-0.032059
30
0.0
11
0.030922
21
-0.032054
31
0.0
0
LINE
8
0
6
CONTINUOUS
10
0.027405
20
-0.032046
30
0.0
11
0.029536
21
-0.032059
31
0.0
0
LINE
8
0
6
CONTINUOUS
10
0.026660
20
-0.032028
30
0.0
11
0.027405
21
-0.032046
31
0.0
0
LINE
8
0
6
CONTINUOUS
10
0.064697
20
-0.028938
30
0.0
11
0.064708
21
-0.026577
31
0.0
0
LINE
8
0
6
CONTINUOUS
10
0.063311
20
-0.028943
30
0.0
11
0.064697
21
-0.028938
31
0.0
0
LINE
8
0
6
CONTINUOUS
10
0.061179
20
-0.028930
30
0.0
11
0.063311
21
-0.028943
31
0.0
0
LINE
8
0
6
CONTINUOUS
10
0.060434
20
-0.028912
30
0.0
11
0.061179
21
-0.028930
31
0.0
0
LINE
8
0
6
CONTINUOUS
10
0.060443
20
-0.027155
30
0.0
11
0.060434
21
-0.028912
31
0.0
0
LINE
8
0
6
CONTINUOUS
10
0.055218
20
-0.029863
30
0.0
11
0.055229
21
-0.027605
31
0.0
0
LINE
8
0
6
CONTINUOUS
10
0.053832
20
-0.029867
30
0.0
11
0.055218
21
-0.029863
31
0.0
0
LINE
8
0
6
CONTINUOUS
10
0.051700
20
-0.029854
30
0.0
11
0.053832
21
-0.029867
31
0.0
0
LINE
8
0
6
CONTINUOUS
10
0.050955
20
-0.029837
30
0.0
11
0.051700
21
-0.029854
31
0.0
0
LINE
8
0
6
CONTINUOUS
10
0.050961
20
-0.028688
30
0.0
11
0.050955
21
-0.029837
31
0.0
0
LINE
8
0
6
CONTINUOUS
10
0.045324
20
-0.030648
30
0.0
11
0.045331
21
-0.029166
31
0.0
0
LINE
8
0
6
CONTINUOUS
10
0.043938
20
-0.030653
30
0.0
11
0.045324
21
-0.030648
31
0.0
0
LINE
8
0
6
CONTINUOUS
10
0.041807
20
-0.030640
30
0.0
11
0.043938
21
-0.030653
31
0.0
0
LINE
8
0
6
CONTINUOUS
10
0.041061
20
-0.030622
30
0.0
11
0.041807
21
-0.030640
31
0.0
0
LINE
8
0
6
CONTINUOUS
10
0.041067
20
-0.029498
30
0.0
11
0.041061
21
-0.030622
31
0.0
0
LINE
8
0
6
CONTINUOUS
10
0.034892
20
-0.031387
30
0.0
11
0.034899
21
-0.029978
31
0.0
0
LINE
8
0
6
CONTINUOUS
10
0.033506
20
-0.031391
30
0.0
11
0.034892
21
-0.031387
31
0.0
0
LINE
8
0
6
CONTINUOUS
10
0.031374
20
-0.031378
30
0.0
11
0.033506
21
-0.031391
31
0.0
0
LINE
8
0
6
CONTINUOUS
10
0.030629
20
-0.031361
30
0.0
11
0.031374
21
-0.031378
31
0.0
0
LINE
8
0
6
CONTINUOUS
10
0.030638
20
-0.029453
30
0.0
11
0.030629
21
-0.031361
31
0.0
0
LINE
8
0
6
CONTINUOUS
10
0.059674
20
-0.028864
30
0.0
11
0.059686
21
-0.026522
31
0.0
0
LINE
8
0
6
CONTINUOUS
10
0.058288
20
-0.028869
30
0.0
11
0.059674
21
-0.028864
31
0.0
0
LINE
8
0
6
CONTINUOUS
10
0.056157
20
-0.028856
30
0.0
11
0.058288
21
-0.028869
31
0.0
0
LINE
8
0
6
CONTINUOUS
10
0.055411
20
-0.028838
30
0.0
11
0.056157
21
-0.028856
31
0.0
0
LINE
8
0
6
CONTINUOUS
10
0.055420
20
-0.027063
30
0.0
11
0.055411
21
-0.028838
31
0.0
0
LINE
8
0
6
CONTINUOUS
10
0.049284
20
-0.029881
30
0.0
11
0.049289
21
-0.028842
31
0.0
0
LINE
8
0
6
CONTINUOUS
10
0.047897
20
-0.029885
30
0.0
11
0.049284
21
-0.029881
31
0.0
0
LINE
8
0
6
CONTINUOUS
10
0.045766
20
-0.029872
30
0.0
11
0.047897
21
-0.029885
31
0.0
0
LINE
8
0
6
CONTINUOUS
10
0.045021
20
-0.029855
30
0.0
11
0.045766
21
-0.029872
31
0.0
0
LINE
8
0
6
CONTINUOUS
10
0.045030
20
-0.027972
30
0.0
11
0.045021
21
-0.029855
31
0.0
0
LINE
8
0
6
CONTINUOUS
10
0.038354
20
-0.030654
30
0.0
11
0.038359
21
-0.029709
31
0.0
0
LINE
8
0
6
CONTINUOUS
10
0.036968
20
-0.030659
30
0.0
11
0.038354
21
-0.030654
31
0.0
0
LINE
8
0
6
CONTINUOUS
10
0.034836
20
-0.030646
30
0.0
11
0.036968
21
-0.030659
31
0.0
0
LINE
8
0
6
CONTINUOUS
10
0.034091
20
-0.030628
30
0.0
11
0.034836
21
-0.030646
31
0.0
0
LINE
8
0
6
CONTINUOUS
10
0.034101
20
-0.028746
30
0.0
11
0.034091
21
-0.030628
31
0.0
0
LINE
8
0
6
CONTINUOUS
10
0.053119
20
-0.028866
30
0.0
11
0.053131
21
-0.026556
31
0.0
0
LINE
8
0
6
CONTINUOUS
10
0.051733
20
-0.028871
30
0.0
11
0.053119
21
-0.028866
31
0.0
0
LINE
8
0
6
CONTINUOUS
10
0.049602
20
-0.028858
30
0.0
11
0.051733
21
-0.028871
31
0.0
0
LINE
8
0
6
CONTINUOUS
10
0.048857
20
-0.028840
30
0.0
11
0.049602
21
-0.028858
31
0.0
0
LINE
8
0
6
CONTINUOUS
10
0.048866
20
-0.027034
30
0.0
11
0.048857
21
-0.028840
31
0.0
0
LINE
8
0
6
CONTINUOUS
10
0.041627
20
-0.029874
30
0.0
11
0.041629
21
-0.029455
31
0.0
0
LINE
8
0
6
CONTINUOUS
10
0.040241
20
-0.029879
30
0.0
11
0.041627
21
-0.029874
31
0.0
0
LINE
8
0
6
CONTINUOUS
10
0.038109
20
-0.029866
30
0.0
11
0.040210
21
-0.029879
31
0.0
0
LINE
8
0
6
CONTINUOUS
10
0.037364
20
-0.029848
30
0.0
11
0.038109
21
-0.029866
31
0.0
0
LINE
8
0
6
CONTINUOUS
10
0.037374
20
-0.027966
30
0.0
11
0.037364
21
-0.029848
31
0.0
0
LINE
8
0
6
CONTINUOUS
10
0.044884
20
-0.028942
30
0.0
11
0.044895
21
-0.026632
31
0.0
0
LINE
8
0
6
CONTINUOUS
10
0.043498
20
-0.028946
30
0.0
11
0.044884
21
-0.028942
31
0.0
0
LINE
8
0
6
CONTINUOUS
10
0.041366
20
-0.028933
30
0.0
11
0.043498
21
-0.028946
31
0.0
0
LINE
8
0
6
CONTINUOUS
10
0.040621
20
-0.028916
30
0.0
11
0.041366
21
-0.028933
31
0.0
0
LINE
8
0
6
CONTINUOUS
10
0.040630
20
-0.027065
30
0.0
11
0.040621
21
-0.028916
31
0.0
0
LINE
8
0
6
CONTINUOUS
10
0.070638
20
-0.026645
30
0.0
11
0.079410
21
-0.025465
31
0.0
0
LINE
8
0
6
CONTINUOUS
10
0.035176
20
-0.025465
30
0.0
11
0.034921
21
-0.025465
31
0.0
0
LINE
8
0
6
CONTINUOUS
10
-0.018117
20
-0.025465
30
0.0
11
-0.018663
21
-0.025465
31
0.0
0
LINE
8
0
6
CONTINUOUS
10
-0.035349
20
-0.025465
30
0.0
11
-0.035866
21
-0.025465
31
0.0
0
LINE
8
0
6
CONTINUOUS
10
-0.079410
20
-0.025465
30
0.0
11
-0.071000
21
-0.026596
31
0.0
0
LINE
8
0
6
CONTINUOUS
10
0.055226
20
-0.028295
30
0.0
11
0.055351
21
-0.028284
31
0.0
0
LINE
8
0
6
CONTINUOUS
10
-0.062698
20
-0.027607
30
0.0
11
-0.062024
21
-0.027669
31
0.0
0
LINE
8
0
6
CONTINUOUS
10
0.045494
20
-0.029154
30
0.0
11
0.046054
21
-0.029110
31
0.0
0
LINE
8
0
6
CONTINUOUS
10
-0.037530
20
-0.029774
30
0.0
11
-0.036562
21
-0.029849
31
0.0
0
LINE
8
0
6
CONTINUOUS
10
-0.030649
20
-0.030309
30
0.0
11
-0.030067
21
-0.030355
31
0.0
0
LINE
8
0
6
CONTINUOUS
10
-0.030067
20
-0.030355
30
0.0
11
-0.029036
21
-0.030389
31
0.0
0
LINE
8
0
6
CONTINUOUS
10
0.006758
20
-0.030732
30
0.0
11
0.006983
21
-0.030735
31
0.0
0
LINE
8
0
6
CONTINUOUS
10
0.009714
20
-0.030435
30
0.0
11
0.010119
21
-0.030441
31
0.0
0
LINE
8
0
6
CONTINUOUS
10
0.012892
20
-0.029835
30
0.0
11
0.013350
21
-0.029850
31
0.0
0
LINE
8
0
6
CONTINUOUS
10
0.010431
20
-0.029930
30
0.0
11
0.011000
21
-0.029899
31
0.0
0
LINE
8
0
6
CONTINUOUS
10
0.015670
20
-0.029131
30
0.0
11
0.016316
21
-0.029152
31
0.0
0
LINE
8
0
6
CONTINUOUS
10
0.018637
20
-0.028387
30
0.0
11
0.019131
21
-0.028407
31
0.0
0
LINE
8
0
6
CONTINUOUS
10
0.016627
20
-0.028518
30
0.0
11
0.018625
21
-0.028388
31
0.0
0
LINE
8
0
6
CONTINUOUS
10
0.024561
20
-0.026538
30
0.0
11
0.026258
21
-0.026635
31
0.0
0
LINE
8
0
6
CONTINUOUS
10
0.022551
20
-0.026729
30
0.0
11
0.024561
21
-0.026538
31
0.0
0
LINE
8
0
6
CONTINUOUS
10
-0.039746
20
-0.026537
30
0.0
11
-0.037758
21
-0.026591
31
0.0
0
LINE
8
0
6
CONTINUOUS
10
-0.032689
20
-0.027602
30
0.0
11
-0.030679
21
-0.027639
31
0.0
0
LINE
8
0
6
CONTINUOUS
10
-0.028156
20
-0.026558
30
0.0
11
-0.026458
21
-0.026806
31
0.0
0
LINE
8
0
6
CONTINUOUS
10
-0.030429
20
-0.026787
30
0.0
11
-0.030479
21
-0.026822
31
0.0
0
LINE
8
0
6
CONTINUOUS
10
-0.030166
20
-0.026569
30
0.0
11
-0.028172
21
-0.026558
31
0.0
0
LINE
8
0
6
CONTINUOUS
10
-0.025532
20
-0.028411
30
0.0
11
-0.025845
21
-0.028563
31
0.0
0
LINE
8
0
6
CONTINUOUS
10
-0.025532
20
-0.028411
30
0.0
11
-0.023522
21
-0.028448
31
0.0
0
LINE
8
0
6
CONTINUOUS
10
-0.022986
20
-0.027604
30
0.0
11
-0.020976
21
-0.027597
31
0.0
0
LINE
8
0
6
CONTINUOUS
10
-0.020099
20
-0.026565
30
0.0
11
-0.018117
21
-0.026555
31
0.0
0
LINE
8
0
6
CONTINUOUS
10
-0.018330
20
-0.029166
30
0.0
11
-0.016320
21
-0.029159
31
0.0
0
LINE
8
0
6
CONTINUOUS
10
-0.015458
20
-0.028418
30
0.0
11
-0.015771
21
-0.028595
31
0.0
0
LINE
8
0
6
CONTINUOUS
10
-0.015458
20
-0.028418
30
0.0
11
-0.013448
21
-0.028410
31
0.0
0
LINE
8
0
6
CONTINUOUS
10
-0.009408
20
-0.026622
30
0.0
11
-0.007398
21
-0.026546
31
0.0
0
LINE
8
0
6
CONTINUOUS
10
-0.011006
20
-0.029844
30
0.0
11
-0.011319
21
-0.029994
31
0.0
0
LINE
8
0
6
CONTINUOUS
10
-0.007833
20
-0.029180
30
0.0
11
-0.005823
21
-0.029136
31
0.0
0
LINE
8
0
6
CONTINUOUS
10
-0.002690
20
-0.028395
30
0.0
11
-0.001935
21
-0.028458
31
0.0
0
LINE
8
0
6
CONTINUOUS
10
-0.004701
20
-0.028447
30
0.0
11
-0.002690
21
-0.028395
31
0.0
0
LINE
8
0
6
CONTINUOUS
10
0.000385
20
-0.027607
30
0.0
11
0.001105
21
-0.027652
31
0.0
0
LINE
8
0
6
CONTINUOUS
10
-0.001625
20
-0.027672
30
0.0
11
-0.000236
21
-0.027636
31
0.0
0
LINE
8
0
6
CONTINUOUS
10
0.003424
20
-0.026531
30
0.0
11
0.005121
21
-0.026687
31
0.0
0
LINE
8
0
6
CONTINUOUS
10
0.001414
20
-0.026668
30
0.0
11
0.003424
21
-0.026531
31
0.0
0
LINE
8
0
6
CONTINUOUS
10
0.002093
20
-0.029813
30
0.0
11
0.002733
21
-0.029847
31
0.0
0
LINE
8
0
6
CONTINUOUS
10
-0.000135
20
-0.029913
30
0.0
11
-0.000393
21
-0.030048
31
0.0
0
LINE
8
0
6
CONTINUOUS
10
0.008007
20
-0.028381
30
0.0
11
0.008864
21
-0.028434
31
0.0
0
LINE
8
0
6
CONTINUOUS
10
0.005997
20
-0.028474
30
0.0
11
0.008007
21
-0.028381
31
0.0
0
LINE
8
0
6
CONTINUOUS
10
0.009175
20
-0.027705
30
0.0
11
0.011183
21
-0.027612
31
0.0
0
LINE
8
0
6
CONTINUOUS
10
0.015401
20
-0.026680
30
0.0
11
0.015761
21
-0.026700
31
0.0
0
LINE
8
0
6
CONTINUOUS
10
0.012054
20
-0.026694
30
0.0
11
0.014064
21
-0.026557
31
0.0
0
LINE
8
0
6
CONTINUOUS
10
-0.004119
20
-0.030725
30
0.0
11
-0.003577
21
-0.030741
31
0.0
0
LINE
8
0
6
CONTINUOUS
10
-0.011618
20
-0.030439
30
0.0
11
-0.011317
21
-0.030450
31
0.0
0
LINE
8
0
6
CONTINUOUS
10
-0.020816
20
-0.029821
30
0.0
11
-0.021129
21
-0.029950
31
0.0
0
LINE
8
0
6
CONTINUOUS
10
-0.019615
20
-0.029840
30
0.0
11
-0.018805
21
-0.029853
31
0.0
0
LINE
8
0
6
CONTINUOUS
10
-0.027916
20
-0.029226
30
0.0
11
-0.028049
21
-0.029269
31
0.0
0
LINE
8
0
6
CONTINUOUS
10
-0.027736
20
-0.029152
30
0.0
11
-0.025842
21
-0.029182
31
0.0
0
LINE
8
0
6
CONTINUOUS
10
-0.034547
20
-0.028412
30
0.0
11
-0.034861
21
-0.028531
31
0.0
0
LINE
8
0
6
CONTINUOUS
10
-0.034547
20
-0.028412
30
0.0
11
-0.033523
21
-0.028453
31
0.0
0
LINE
8
0
6
CONTINUOUS
10
-0.033523
20
-0.028453
30
0.0
11
-0.032537
21
-0.028471
31
0.0
0
LINE
8
0
6
CONTINUOUS
10
-0.048222
20
-0.026540
30
0.0
11
-0.048535
21
-0.026714
31
0.0
0
LINE
8
0
6
CONTINUOUS
10
-0.048222
20
-0.026540
30
0.0
11
-0.046211
21
-0.026657
31
0.0
0
LINE
8
0
6
CONTINUOUS
10
-0.071000
20
-0.026535
30
0.0
11
-0.069400
21
-0.026734
31
0.0
0
LINE
8
0
6
CONTINUOUS
10
-0.068375
20
-0.026721
30
0.0
11
-0.067601
21
-0.026797
31
0.0
0
LINE
8
0
6
CONTINUOUS
10
-0.036562
20
-0.029828
30
0.0
11
-0.035831
21
-0.029881
31
0.0
0
LINE
8
0
6
CONTINUOUS
10
-0.042870
20
-0.029276
30
0.0
11
-0.042383
21
-0.029316
31
0.0
0
LINE
8
0
6
CONTINUOUS
10
-0.051104
20
-0.028462
30
0.0
11
-0.050272
21
-0.028518
31
0.0
0
LINE
8
0
6
CONTINUOUS
10
-0.062845
20
-0.026985
30
0.0
11
-0.062702
21
-0.027099
31
0.0
0
LINE
8
0
6
CONTINUOUS
10
-0.030793
20
-0.030072
30
0.0
11
-0.030650
21
-0.030137
31
0.0
0
LINE
8
0
6
CONTINUOUS
10
-0.037609
20
-0.029452
30
0.0
11
-0.037533
21
-0.029487
31
0.0
0
LINE
8
0
6
CONTINUOUS
10
-0.058291
20
-0.026940
30
0.0
11
-0.058148
21
-0.027111
31
0.0
0
LINE
8
0
6
CONTINUOUS
10
-0.062033
20
-0.026527
30
0.0
11
-0.060233
21
-0.026648
31
0.0
0
LINE
8
0
6
CONTINUOUS
10
-0.029040
20
-0.029834
30
0.0
11
-0.028681
21
-0.029848
31
0.0
0
LINE
8
0
6
CONTINUOUS
10
-0.035623
20
-0.029159
30
0.0
11
-0.034857
21
-0.029173
31
0.0
0
LINE
8
0
6
CONTINUOUS
10
-0.042391
20
-0.028416
30
0.0
11
-0.042210
21
-0.028424
31
0.0
0
LINE
8
0
6
CONTINUOUS
10
-0.042210
20
-0.028424
30
0.0
11
-0.041770
21
-0.028434
31
0.0
0
LINE
8
0
6
CONTINUOUS
10
-0.054039
20
-0.026659
30
0.0
11
-0.052097
21
-0.026937
31
0.0
0
LINE
8
0
6
CONTINUOUS
10
-0.055839
20
-0.026593
30
0.0
11
-0.055610
21
-0.026608
31
0.0
0
LINE
8
0
6
CONTINUOUS
10
-0.055610
20
-0.026608
30
0.0
11
-0.054039
21
-0.026659
31
0.0
0
LINE
8
0
6
CONTINUOUS
10
0.041377
20
-0.026778
30
0.0
11
0.043509
21
-0.026583
31
0.0
0
LINE
8
0
6
CONTINUOUS
10
0.043509
20
-0.026583
30
0.0
11
0.043976
21
-0.026614
31
0.0
0
LINE
8
0
6
CONTINUOUS
10
0.043976
20
-0.026614
30
0.0
11
0.044895
21
-0.026632
31
0.0
0
LINE
8
0
6
CONTINUOUS
10
0.038120
20
-0.027783
30
0.0
11
0.037374
21
-0.027966
31
0.0
0
LINE
8
0
6
CONTINUOUS
10
0.051745
20
-0.026528
30
0.0
11
0.053131
21
-0.026556
31
0.0
0
LINE
8
0
6
CONTINUOUS
10
0.045776
20
-0.027790
30
0.0
11
0.047909
21
-0.027626
31
0.0
0
LINE
8
0
6
CONTINUOUS
10
0.047909
20
-0.027626
30
0.0
11
0.048625
21
-0.027636
31
0.0
0
LINE
8
0
6
CONTINUOUS
10
0.056167
20
-0.026831
30
0.0
11
0.055420
21
-0.027063
31
0.0
0
LINE
8
0
6
CONTINUOUS
10
0.058299
20
-0.026560
30
0.0
11
0.059686
21
-0.026522
31
0.0
0
LINE
8
0
6
CONTINUOUS
10
0.053843
20
-0.027631
30
0.0
11
0.055229
21
-0.027605
31
0.0
0
LINE
8
0
6
CONTINUOUS
10
0.060927
20
-0.027034
30
0.0
11
0.060443
21
-0.027155
31
0.0
0
LINE
8
0
6
CONTINUOUS
10
0.061189
20
-0.026952
30
0.0
11
0.063067
21
-0.026714
31
0.0
0
LINE
8
0
6
CONTINUOUS
10
0.063322
20
-0.026679
30
0.0
11
0.064708
21
-0.026577
31
0.0
0
LINE
8
0
6
CONTINUOUS
10
0.067212
20
-0.026640
30
0.0
11
0.068598
21
-0.026538
31
0.0
0
LINE
8
0
6
CONTINUOUS
10
0.069252
20
-0.026678
30
0.0
11
0.070639
21
-0.026517
31
0.0
0
LINE
8
0
6
CONTINUOUS
10
0.020341
20
-0.029932
30
0.0
11
0.021413
21
-0.029875
31
0.0
0
LINE
8
0
6
CONTINUOUS
10
0.026322
20
-0.028524
30
0.0
11
0.028417
21
-0.028393
31
0.0
0
LINE
8
0
6
CONTINUOUS
10
0.034503
20
-0.026543
30
0.0
11
0.035888
21
-0.026634
31
0.0
0
ENDSEC
0
EOF
