999
unknown String-ID: 20550
0
SECTION
2
HEADER
9
$ACADVER
1
AC1009
9
$DWGCODEPAGE
3
unknown String-ID: 20561
0
ENDSEC
0
SECTION
2
TABLES
0
TABLE
2
LAYER
70
1
0
LAYER
2
0
70
0
62
7
6
CONTINUOUS
0
ENDTAB
0
ENDSEC
0
SECTION
2
ENTITIES
0
LINE
8
0
6
CONTINUOUS
10
-0.121140
20
0.199145
30
0.0
11
-0.116085
21
0.206865
31
0.0
0
LINE
8
0
6
CONTINUOUS
10
-0.136363
20
0.218625
30
0.0
11
-0.140381
21
0.210740
31
0.0
0
LINE
8
0
6
CONTINUOUS
10
-0.115079
20
0.208600
30
0.0
11
-0.115032
21
0.208680
31
0.0
0
LINE
8
0
6
CONTINUOUS
10
-0.135310
20
0.220440
30
0.0
11
-0.135357
21
0.220359
31
0.0
0
LINE
8
0
6
CONTINUOUS
10
-0.135357
20
0.220359
30
0.0
11
-0.136363
21
0.218625
31
0.0
0
LINE
8
0
6
CONTINUOUS
10
-0.116085
20
0.206865
30
0.0
11
-0.115079
21
0.208600
31
0.0
0
LINE
8
0
6
CONTINUOUS
10
-0.135699
20
0.220645
30
0.0
11
-0.134555
21
0.219963
31
0.0
0
LINE
8
0
6
CONTINUOUS
10
-0.050718
20
0.300736
30
0.0
11
-0.041879
21
0.311147
31
0.0
0
LINE
8
0
6
CONTINUOUS
10
-0.136147
20
0.220925
30
0.0
11
-0.135699
21
0.220645
31
0.0
0
LINE
8
0
6
CONTINUOUS
10
-0.135642
20
0.221573
30
0.0
11
-0.136147
21
0.220925
31
0.0
0
LINE
8
0
6
CONTINUOUS
10
-0.057564
20
0.309774
30
0.0
11
-0.059810
21
0.312984
31
0.0
0
LINE
8
0
6
CONTINUOUS
10
-0.052099
20
0.301955
30
0.0
11
-0.052281
21
0.302215
31
0.0
0
LINE
8
0
6
CONTINUOUS
10
-0.050855
20
0.296012
30
0.0
11
-0.050628
21
0.296328
31
0.0
0
LINE
8
0
6
CONTINUOUS
10
-0.049702
20
0.327006
30
0.0
11
-0.060789
21
0.315146
31
0.0
0
LINE
8
0
6
CONTINUOUS
10
-0.134555
20
0.219963
30
0.0
11
-0.132576
21
0.218799
31
0.0
0
LINE
8
0
6
CONTINUOUS
10
-0.132576
20
0.218799
30
0.0
11
-0.129342
21
0.216916
31
0.0
0
LINE
8
0
6
CONTINUOUS
10
-0.122349
20
0.212859
30
0.0
11
-0.121670
21
0.212465
31
0.0
0
LINE
8
0
6
CONTINUOUS
10
-0.121670
20
0.212465
30
0.0
11
-0.118824
21
0.210816
31
0.0
0
LINE
8
0
6
CONTINUOUS
10
-0.118824
20
0.210816
30
0.0
11
-0.116880
21
0.209700
31
0.0
0
LINE
8
0
6
CONTINUOUS
10
-0.116682
20
0.209587
30
0.0
11
-0.115418
21
0.208869
31
0.0
0
LINE
8
0
6
CONTINUOUS
10
-0.114197
20
0.208196
30
0.0
11
-0.113758
21
0.208805
31
0.0
0
LINE
8
0
6
CONTINUOUS
10
-0.114474
20
0.208339
30
0.0
11
-0.114197
21
0.208196
31
0.0
0
LINE
8
0
6
CONTINUOUS
10
-0.115418
20
0.208869
30
0.0
11
-0.114474
21
0.208339
31
0.0
0
LINE
8
0
6
CONTINUOUS
10
-0.061441
20
0.315023
30
0.0
11
-0.062583
21
0.315426
31
0.0
0
LINE
8
0
6
CONTINUOUS
10
-0.062583
20
0.315426
30
0.0
11
-0.063368
21
0.314417
31
0.0
0
LINE
8
0
6
CONTINUOUS
10
-0.050628
20
0.296328
30
0.0
11
-0.049899
21
0.297337
31
0.0
0
LINE
8
0
6
CONTINUOUS
10
-0.050390
20
0.299486
30
0.0
11
-0.050505
21
0.299655
31
0.0
0
LINE
8
0
6
CONTINUOUS
10
-0.050301
20
0.299096
30
0.0
11
-0.050390
21
0.299486
31
0.0
0
LINE
8
0
6
CONTINUOUS
10
-0.063368
20
0.314417
30
0.0
11
-0.063628
21
0.314083
31
0.0
0
LINE
8
0
6
CONTINUOUS
10
-0.051017
20
0.300383
30
0.0
11
-0.050718
21
0.300736
31
0.0
0
LINE
8
0
6
CONTINUOUS
10
-0.060789
20
0.315146
30
0.0
11
-0.061102
21
0.314810
31
0.0
0
LINE
8
0
6
CONTINUOUS
10
-0.128689
20
0.216537
30
0.0
11
-0.122349
21
0.212859
31
0.0
0
LINE
8
0
6
CONTINUOUS
10
-0.129342
20
0.216916
30
0.0
11
-0.128689
21
0.216537
31
0.0
0
LINE
8
0
6
CONTINUOUS
10
-0.116880
20
0.209700
30
0.0
11
-0.116682
21
0.209587
31
0.0
0
LINE
8
0
6
CONTINUOUS
10
-0.113758
20
0.208805
30
0.0
11
-0.050855
21
0.296012
31
0.0
0
LINE
8
0
6
CONTINUOUS
10
-0.063628
20
0.314083
30
0.0
11
-0.135642
21
0.221573
31
0.0
0
LINE
8
0
6
CONTINUOUS
10
-0.061188
20
0.314934
30
0.0
11
-0.061441
21
0.315023
31
0.0
0
LINE
8
0
6
CONTINUOUS
10
-0.060995
20
0.314665
30
0.0
11
-0.061188
21
0.314934
31
0.0
0
LINE
8
0
6
CONTINUOUS
10
-0.060521
20
0.313994
30
0.0
11
-0.060995
21
0.314665
31
0.0
0
LINE
8
0
6
CONTINUOUS
10
-0.059810
20
0.312984
30
0.0
11
-0.060521
21
0.313994
31
0.0
0
LINE
8
0
6
CONTINUOUS
10
-0.051380
20
0.300921
30
0.0
11
-0.052099
21
0.301955
31
0.0
0
LINE
8
0
6
CONTINUOUS
10
-0.051309
20
0.300819
30
0.0
11
-0.051380
21
0.300921
31
0.0
0
LINE
8
0
6
CONTINUOUS
10
-0.050505
20
0.299655
30
0.0
11
-0.050858
21
0.300168
31
0.0
0
LINE
8
0
6
CONTINUOUS
10
-0.049899
20
0.297337
30
0.0
11
-0.050301
21
0.299096
31
0.0
0
LINE
8
0
6
CONTINUOUS
10
-0.050858
20
0.300168
30
0.0
11
-0.051309
21
0.300819
31
0.0
0
LINE
8
0
6
CONTINUOUS
10
0.041375
20
0.357129
30
0.0
11
0.040900
21
0.358131
31
0.0
0
LINE
8
0
6
CONTINUOUS
10
0.040463
20
0.356371
30
0.0
11
0.041375
21
0.357129
31
0.0
0
LINE
8
0
6
CONTINUOUS
10
0.037820
20
0.354607
30
0.0
11
0.040463
21
0.356371
31
0.0
0
LINE
8
0
6
CONTINUOUS
10
0.020808
20
0.342444
30
0.0
11
0.027708
21
0.347306
31
0.0
0
LINE
8
0
6
CONTINUOUS
10
0.013112
20
0.337034
30
0.0
11
0.020808
21
0.342444
31
0.0
0
LINE
8
0
6
CONTINUOUS
10
0.005004
20
0.331346
30
0.0
11
0.013112
21
0.337034
31
0.0
0
LINE
8
0
6
CONTINUOUS
10
-0.023594
20
0.311452
30
0.0
11
-0.017873
21
0.315499
31
0.0
0
LINE
8
0
6
CONTINUOUS
10
-0.027963
20
0.308433
30
0.0
11
-0.023594
21
0.311452
31
0.0
0
LINE
8
0
6
CONTINUOUS
10
-0.030776
20
0.306583
30
0.0
11
-0.027963
21
0.308433
31
0.0
0
LINE
8
0
6
CONTINUOUS
10
-0.032409
20
0.306756
30
0.0
11
-0.031629
21
0.305968
31
0.0
0
LINE
8
0
6
CONTINUOUS
10
-0.031629
20
0.305968
30
0.0
11
-0.030776
21
0.306583
31
0.0
0
LINE
8
0
6
CONTINUOUS
10
0.040401
20
0.368009
30
0.0
11
0.036282
21
0.373441
31
0.0
0
LINE
8
0
6
CONTINUOUS
10
-0.041879
20
0.311147
30
0.0
11
-0.041523
21
0.310597
31
0.0
0
LINE
8
0
6
CONTINUOUS
10
0.036282
20
0.373441
30
0.0
11
0.034032
21
0.375872
31
0.0
0
LINE
8
0
6
CONTINUOUS
10
0.031635
20
0.378192
30
0.0
11
0.029094
21
0.380364
31
0.0
0
LINE
8
0
6
CONTINUOUS
10
0.026927
20
0.381768
30
0.0
11
0.026803
21
0.381784
31
0.0
0
LINE
8
0
6
CONTINUOUS
10
0.026803
20
0.381784
30
0.0
11
0.025919
21
0.381860
31
0.0
0
LINE
8
0
6
CONTINUOUS
10
0.025919
20
0.381860
30
0.0
11
0.025502
21
0.381874
31
0.0
0
LINE
8
0
6
CONTINUOUS
10
-0.049831
20
0.328080
30
0.0
11
-0.049859
21
0.327957
31
0.0
0
LINE
8
0
6
CONTINUOUS
10
-0.049601
20
0.328936
30
0.0
11
-0.049831
21
0.328080
31
0.0
0
LINE
8
0
6
CONTINUOUS
10
-0.049471
20
0.329333
30
0.0
11
-0.049601
21
0.328936
31
0.0
0
LINE
8
0
6
CONTINUOUS
10
0.034032
20
0.375872
30
0.0
11
0.031635
21
0.378192
31
0.0
0
LINE
8
0
6
CONTINUOUS
10
-0.037278
20
0.313163
30
0.0
11
-0.032377
21
0.316549
31
0.0
0
LINE
8
0
6
CONTINUOUS
10
-0.009427
20
0.332543
30
0.0
11
-0.000309
21
0.338926
31
0.0
0
LINE
8
0
6
CONTINUOUS
10
0.025206
20
0.356862
30
0.0
11
0.031674
21
0.361436
31
0.0
0
LINE
8
0
6
CONTINUOUS
10
-0.032377
20
0.316549
30
0.0
11
-0.025873
21
0.321067
31
0.0
0
LINE
8
0
6
CONTINUOUS
10
0.031674
20
0.361436
30
0.0
11
0.036533
21
0.364889
31
0.0
0
LINE
8
0
6
CONTINUOUS
10
-0.000309
20
0.338926
30
0.0
11
0.008803
21
0.345318
31
0.0
0
LINE
8
0
6
CONTINUOUS
10
-0.041383
20
0.310397
30
0.0
11
-0.040331
21
0.311077
31
0.0
0
LINE
8
0
6
CONTINUOUS
10
-0.041523
20
0.310597
30
0.0
11
-0.041383
21
0.310397
31
0.0
0
LINE
8
0
6
CONTINUOUS
10
-0.025873
20
0.321067
30
0.0
11
-0.018093
21
0.326489
31
0.0
0
LINE
8
0
6
CONTINUOUS
10
0.008803
20
0.345318
30
0.0
11
0.017452
21
0.351399
31
0.0
0
LINE
8
0
6
CONTINUOUS
10
0.036533
20
0.364889
30
0.0
11
0.039539
21
0.367049
31
0.0
0
LINE
8
0
6
CONTINUOUS
10
-0.040331
20
0.311077
30
0.0
11
-0.037278
21
0.313163
31
0.0
0
LINE
8
0
6
CONTINUOUS
10
0.039539
20
0.367049
30
0.0
11
0.040541
21
0.367808
31
0.0
0
LINE
8
0
6
CONTINUOUS
10
0.040541
20
0.367808
30
0.0
11
0.040401
21
0.368009
31
0.0
0
LINE
8
0
6
CONTINUOUS
10
0.017452
20
0.351399
30
0.0
11
0.025206
21
0.356862
31
0.0
0
LINE
8
0
6
CONTINUOUS
10
-0.018093
20
0.326489
30
0.0
11
-0.009427
21
0.332543
31
0.0
0
LINE
8
0
6
CONTINUOUS
10
0.041305
20
0.366718
30
0.0
11
0.040739
21
0.367526
31
0.0
0
LINE
8
0
6
CONTINUOUS
10
-0.031584
20
0.306668
30
0.0
11
-0.028821
21
0.308556
31
0.0
0
LINE
8
0
6
CONTINUOUS
10
-0.032536
20
0.306052
30
0.0
11
-0.031584
21
0.306668
31
0.0
0
LINE
8
0
6
CONTINUOUS
10
-0.028821
20
0.308556
30
0.0
11
-0.024385
21
0.311620
31
0.0
0
LINE
8
0
6
CONTINUOUS
10
0.042102
20
0.364768
30
0.0
11
0.041305
21
0.366718
31
0.0
0
LINE
8
0
6
CONTINUOUS
10
0.042509
20
0.362273
30
0.0
11
0.042102
21
0.364768
31
0.0
0
LINE
8
0
6
CONTINUOUS
10
0.042323
20
0.360232
30
0.0
11
0.042509
21
0.362273
31
0.0
0
LINE
8
0
6
CONTINUOUS
10
-0.041257
20
0.310217
30
0.0
11
-0.041185
21
0.310114
31
0.0
0
LINE
8
0
6
CONTINUOUS
10
0.040739
20
0.367526
30
0.0
11
0.040667
21
0.367628
31
0.0
0
LINE
8
0
6
CONTINUOUS
10
0.025502
20
0.381874
30
0.0
11
0.025314
21
0.381762
31
0.0
0
LINE
8
0
6
CONTINUOUS
10
-0.049302
20
0.329472
30
0.0
11
-0.049471
21
0.329333
31
0.0
0
LINE
8
0
6
CONTINUOUS
10
-0.026950
20
0.349311
30
0.0
11
-0.034486
21
0.343042
31
0.0
0
LINE
8
0
6
CONTINUOUS
10
0.025314
20
0.381762
30
0.0
11
0.015726
21
0.376913
31
0.0
0
LINE
8
0
6
CONTINUOUS
10
-0.041844
20
0.336468
30
0.0
11
-0.049302
21
0.329472
31
0.0
0
LINE
8
0
6
CONTINUOUS
10
0.027903
20
0.381221
30
0.0
11
0.026927
21
0.381768
31
0.0
0
LINE
8
0
6
CONTINUOUS
10
-0.049859
20
0.327957
30
0.0
11
-0.049702
21
0.327006
31
0.0
0
LINE
8
0
6
CONTINUOUS
10
0.007561
20
0.372505
30
0.0
11
-0.000827
21
0.367601
31
0.0
0
LINE
8
0
6
CONTINUOUS
10
-0.000827
20
0.367601
30
0.0
11
-0.009194
21
0.362303
31
0.0
0
LINE
8
0
6
CONTINUOUS
10
0.015726
20
0.376913
30
0.0
11
0.007561
21
0.372505
31
0.0
0
LINE
8
0
6
CONTINUOUS
10
0.029094
20
0.380364
30
0.0
11
0.027903
21
0.381221
31
0.0
0
LINE
8
0
6
CONTINUOUS
10
-0.010930
20
0.320337
30
0.0
11
-0.003196
21
0.325740
31
0.0
0
LINE
8
0
6
CONTINUOUS
10
-0.041017
20
0.310653
30
0.0
11
-0.040891
21
0.310473
31
0.0
0
LINE
8
0
6
CONTINUOUS
10
0.040301
20
0.367372
30
0.0
11
0.040175
21
0.367552
31
0.0
0
LINE
8
0
6
CONTINUOUS
10
-0.034486
20
0.343042
30
0.0
11
-0.041844
21
0.336468
31
0.0
0
LINE
8
0
6
CONTINUOUS
10
-0.019234
20
0.355266
30
0.0
11
-0.026950
21
0.349311
31
0.0
0
LINE
8
0
6
CONTINUOUS
10
-0.003196
20
0.325740
30
0.0
11
0.005004
21
0.331346
31
0.0
0
LINE
8
0
6
CONTINUOUS
10
0.033463
20
0.351375
30
0.0
11
0.037820
21
0.354607
31
0.0
0
LINE
8
0
6
CONTINUOUS
10
-0.017873
20
0.315499
30
0.0
11
-0.010930
21
0.320337
31
0.0
0
LINE
8
0
6
CONTINUOUS
10
0.027708
20
0.347306
30
0.0
11
0.031063
21
0.349678
31
0.0
0
LINE
8
0
6
CONTINUOUS
10
0.033419
20
0.351344
30
0.0
11
0.033463
21
0.351375
31
0.0
0
LINE
8
0
6
CONTINUOUS
10
-0.011459
20
0.320616
30
0.0
11
-0.003616
21
0.326095
31
0.0
0
LINE
8
0
6
CONTINUOUS
10
0.020710
20
0.343159
30
0.0
11
0.027727
21
0.348104
31
0.0
0
LINE
8
0
6
CONTINUOUS
10
0.040698
20
0.357323
30
0.0
11
0.041605
21
0.358010
31
0.0
0
LINE
8
0
6
CONTINUOUS
10
0.041605
20
0.358010
30
0.0
11
0.042323
21
0.360232
31
0.0
0
LINE
8
0
6
CONTINUOUS
10
-0.018499
20
0.315709
30
0.0
11
-0.011459
21
0.320616
31
0.0
0
LINE
8
0
6
CONTINUOUS
10
0.037978
20
0.355368
30
0.0
11
0.040698
21
0.357323
31
0.0
0
LINE
8
0
6
CONTINUOUS
10
0.012882
20
0.337656
30
0.0
11
0.020710
21
0.343159
31
0.0
0
LINE
8
0
6
CONTINUOUS
10
-0.024385
20
0.311620
30
0.0
11
-0.018499
21
0.315709
31
0.0
0
LINE
8
0
6
CONTINUOUS
10
0.004636
20
0.331871
30
0.0
11
0.012882
21
0.337656
31
0.0
0
LINE
8
0
6
CONTINUOUS
10
0.033581
20
0.352243
30
0.0
11
0.037978
21
0.355368
31
0.0
0
LINE
8
0
6
CONTINUOUS
10
-0.003616
20
0.326095
30
0.0
11
0.004636
21
0.331871
31
0.0
0
LINE
8
0
6
CONTINUOUS
10
0.027727
20
0.348104
30
0.0
11
0.033581
21
0.352243
31
0.0
0
LINE
8
0
6
CONTINUOUS
10
-0.012048
20
0.360331
30
0.0
11
-0.013110
21
0.359589
31
0.0
0
LINE
8
0
6
CONTINUOUS
10
-0.011095
20
0.360995
30
0.0
11
-0.012048
21
0.360331
31
0.0
0
LINE
8
0
6
CONTINUOUS
10
-0.010298
20
0.361549
30
0.0
11
-0.011095
21
0.360995
31
0.0
0
LINE
8
0
6
CONTINUOUS
10
-0.009697
20
0.361964
30
0.0
11
-0.010298
21
0.361549
31
0.0
0
LINE
8
0
6
CONTINUOUS
10
-0.009323
20
0.362219
30
0.0
11
-0.009697
21
0.361964
31
0.0
0
LINE
8
0
6
CONTINUOUS
10
-0.009194
20
0.362303
30
0.0
11
-0.009323
21
0.362219
31
0.0
0
LINE
8
0
6
CONTINUOUS
10
-0.019112
20
0.355359
30
0.0
11
-0.019234
21
0.355266
31
0.0
0
LINE
8
0
6
CONTINUOUS
10
-0.018743
20
0.355624
30
0.0
11
-0.019112
21
0.355359
31
0.0
0
LINE
8
0
6
CONTINUOUS
10
-0.018148
20
0.356047
30
0.0
11
-0.018743
21
0.355624
31
0.0
0
LINE
8
0
6
CONTINUOUS
10
-0.017355
20
0.356608
30
0.0
11
-0.018148
21
0.356047
31
0.0
0
LINE
8
0
6
CONTINUOUS
10
-0.016405
20
0.357278
30
0.0
11
-0.017355
21
0.356608
31
0.0
0
LINE
8
0
6
CONTINUOUS
10
-0.015345
20
0.358023
30
0.0
11
-0.016405
21
0.357278
31
0.0
0
LINE
8
0
6
CONTINUOUS
10
-0.014228
20
0.358806
30
0.0
11
-0.015345
21
0.358023
31
0.0
0
LINE
8
0
6
CONTINUOUS
10
-0.013110
20
0.359589
30
0.0
11
-0.014228
21
0.358806
31
0.0
0
LINE
8
0
6
CONTINUOUS
10
-0.040709
20
0.298166
30
0.0
11
-0.040023
21
0.296165
31
0.0
0
LINE
8
0
6
CONTINUOUS
10
-0.031832
20
0.298727
30
0.0
11
-0.032071
21
0.299465
31
0.0
0
LINE
8
0
6
CONTINUOUS
10
-0.031750
20
0.298472
30
0.0
11
-0.031832
21
0.298727
31
0.0
0
LINE
8
0
6
CONTINUOUS
10
-0.032631
20
0.297854
30
0.0
11
-0.031750
21
0.298472
31
0.0
0
LINE
8
0
6
CONTINUOUS
10
-0.039997
20
0.296083
30
0.0
11
-0.039622
21
0.294627
31
0.0
0
LINE
8
0
6
CONTINUOUS
10
-0.039622
20
0.294633
30
0.0
11
-0.039490
21
0.294278
31
0.0
0
LINE
8
0
6
CONTINUOUS
10
-0.032600
20
0.306070
30
0.0
11
-0.032578
21
0.306218
31
0.0
0
LINE
8
0
6
CONTINUOUS
10
-0.032674
20
0.301315
30
0.0
11
-0.032782
21
0.303721
31
0.0
0
LINE
8
0
6
CONTINUOUS
10
-0.032782
20
0.303721
30
0.0
11
-0.032659
21
0.304920
31
0.0
0
LINE
8
0
6
CONTINUOUS
10
-0.032659
20
0.304920
30
0.0
11
-0.032600
21
0.306070
31
0.0
0
LINE
8
0
6
CONTINUOUS
10
-0.038133
20
0.293999
30
0.0
11
-0.032631
21
0.297854
31
0.0
0
LINE
8
0
6
CONTINUOUS
10
-0.039112
20
0.293313
30
0.0
11
-0.038133
21
0.293999
31
0.0
0
LINE
8
0
6
CONTINUOUS
10
-0.041606
20
0.306210
30
0.0
11
-0.041536
21
0.302394
31
0.0
0
LINE
8
0
6
CONTINUOUS
10
-0.039495
20
0.294286
30
0.0
11
-0.039213
21
0.293568
31
0.0
0
LINE
8
0
6
CONTINUOUS
10
-0.039622
20
0.294627
30
0.0
11
-0.039495
21
0.294286
31
0.0
0
LINE
8
0
6
CONTINUOUS
10
-0.039989
20
0.296070
30
0.0
11
-0.039622
21
0.294633
31
0.0
0
LINE
8
0
6
CONTINUOUS
10
-0.040023
20
0.296165
30
0.0
11
-0.039976
21
0.296027
31
0.0
0
LINE
8
0
6
CONTINUOUS
10
-0.032666
20
0.301149
30
0.0
11
-0.032674
21
0.301315
31
0.0
0
LINE
8
0
6
CONTINUOUS
10
-0.040792
20
0.310363
30
0.0
11
-0.041606
21
0.306210
31
0.0
0
LINE
8
0
6
CONTINUOUS
10
0.030960
20
0.348016
30
0.0
11
0.031865
21
0.348738
31
0.0
0
LINE
8
0
6
CONTINUOUS
10
0.033810
20
0.350290
30
0.0
11
0.034032
21
0.350468
31
0.0
0
LINE
8
0
6
CONTINUOUS
10
-0.021704
20
0.311305
30
0.0
11
-0.020755
21
0.311885
31
0.0
0
LINE
8
0
6
CONTINUOUS
10
0.021482
20
0.340286
30
0.0
11
0.022575
21
0.341186
31
0.0
0
LINE
8
0
6
CONTINUOUS
10
0.025922
20
0.343943
30
0.0
11
0.027197
21
0.344992
31
0.0
0
LINE
8
0
6
CONTINUOUS
10
0.012419
20
0.333378
30
0.0
11
0.013110
21
0.333898
31
0.0
0
LINE
8
0
6
CONTINUOUS
10
0.016146
20
0.336178
30
0.0
11
0.017388
21
0.337111
31
0.0
0
LINE
8
0
6
CONTINUOUS
10
-0.006369
20
0.320546
30
0.0
11
-0.006129
21
0.320703
31
0.0
0
LINE
8
0
6
CONTINUOUS
10
-0.002806
20
0.322871
30
0.0
11
-0.001421
21
0.323775
31
0.0
0
LINE
8
0
6
CONTINUOUS
10
0.009569
20
0.331256
30
0.0
11
0.009918
21
0.331515
31
0.0
0
LINE
8
0
6
CONTINUOUS
10
0.006580
20
0.329112
30
0.0
11
0.007052
21
0.329444
31
0.0
0
LINE
8
0
6
CONTINUOUS
10
0.006107
20
0.328781
30
0.0
11
0.006580
21
0.329112
31
0.0
0
LINE
8
0
6
CONTINUOUS
10
0.002805
20
0.326546
30
0.0
11
0.003582
21
0.327059
31
0.0
0
LINE
8
0
6
CONTINUOUS
10
0.041375
20
0.357129
30
0.0
11
0.040463
21
0.356371
31
0.0
0
LINE
8
0
6
CONTINUOUS
10
0.040310
20
0.355713
30
0.0
11
0.041375
21
0.357129
31
0.0
0
LINE
8
0
6
CONTINUOUS
10
0.040463
20
0.356371
30
0.0
11
0.037820
21
0.354607
31
0.0
0
LINE
8
0
6
CONTINUOUS
10
0.027708
20
0.347306
30
0.0
11
0.020808
21
0.342444
31
0.0
0
LINE
8
0
6
CONTINUOUS
10
0.020808
20
0.342444
30
0.0
11
0.013112
21
0.337034
31
0.0
0
LINE
8
0
6
CONTINUOUS
10
0.013112
20
0.337034
30
0.0
11
0.005004
21
0.331346
31
0.0
0
LINE
8
0
6
CONTINUOUS
10
-0.017873
20
0.315499
30
0.0
11
-0.023594
21
0.311452
31
0.0
0
LINE
8
0
6
CONTINUOUS
10
-0.023594
20
0.311452
30
0.0
11
-0.027963
21
0.308433
31
0.0
0
LINE
8
0
6
CONTINUOUS
10
-0.027963
20
0.308433
30
0.0
11
-0.030776
21
0.306583
31
0.0
0
LINE
8
0
6
CONTINUOUS
10
-0.030776
20
0.306583
30
0.0
11
-0.031629
21
0.305968
31
0.0
0
LINE
8
0
6
CONTINUOUS
10
-0.031629
20
0.305968
30
0.0
11
-0.029935
21
0.306486
31
0.0
0
LINE
8
0
6
CONTINUOUS
10
0.033463
20
0.351375
30
0.0
11
0.027708
21
0.347306
31
0.0
0
LINE
8
0
6
CONTINUOUS
10
0.005004
20
0.331346
30
0.0
11
-0.003196
21
0.325740
31
0.0
0
LINE
8
0
6
CONTINUOUS
10
-0.003196
20
0.325740
30
0.0
11
-0.010930
21
0.320337
31
0.0
0
LINE
8
0
6
CONTINUOUS
10
-0.010930
20
0.320337
30
0.0
11
-0.017873
21
0.315499
31
0.0
0
LINE
8
0
6
CONTINUOUS
10
0.037820
20
0.354607
30
0.0
11
0.033463
21
0.351375
31
0.0
0
LINE
8
0
6
CONTINUOUS
10
0.036761
20
0.352707
30
0.0
11
0.040310
21
0.355713
31
0.0
0
LINE
8
0
6
CONTINUOUS
10
-0.029935
20
0.306486
30
0.0
11
-0.025906
21
0.308791
31
0.0
0
LINE
8
0
6
CONTINUOUS
10
0.115395
20
0.650351
30
0.0
11
0.108797
21
0.649187
31
0.0
0
LINE
8
0
6
CONTINUOUS
10
0.122580
20
0.651617
30
0.0
11
0.115395
21
0.650351
31
0.0
0
LINE
8
0
6
CONTINUOUS
10
0.128425
20
0.652648
30
0.0
11
0.122580
21
0.651617
31
0.0
0
LINE
8
0
6
CONTINUOUS
10
0.103799
20
0.648306
30
0.0
11
0.103939
21
0.647514
31
0.0
0
LINE
8
0
6
CONTINUOUS
10
0.131505
20
0.652375
30
0.0
11
0.131365
21
0.653167
31
0.0
0
LINE
8
0
6
CONTINUOUS
10
0.108797
20
0.649187
30
0.0
11
0.104553
21
0.648439
31
0.0
0
LINE
8
0
6
CONTINUOUS
10
0.120090
20
0.623725
30
0.0
11
0.127275
21
0.624992
31
0.0
0
LINE
8
0
6
CONTINUOUS
10
0.127275
20
0.624992
30
0.0
11
0.133120
21
0.626022
31
0.0
0
LINE
8
0
6
CONTINUOUS
10
0.108494
20
0.621680
30
0.0
11
0.109247
21
0.621813
31
0.0
0
LINE
8
0
6
CONTINUOUS
10
0.108344
20
0.622532
30
0.0
11
0.108494
21
0.621680
31
0.0
0
LINE
8
0
6
CONTINUOUS
10
0.136060
20
0.626541
30
0.0
11
0.135910
21
0.627393
31
0.0
0
LINE
8
0
6
CONTINUOUS
10
0.133120
20
0.626022
30
0.0
11
0.136060
21
0.626541
31
0.0
0
LINE
8
0
6
CONTINUOUS
10
0.109247
20
0.621813
30
0.0
11
0.113492
21
0.622561
31
0.0
0
LINE
8
0
6
CONTINUOUS
10
0.103939
20
0.647514
30
0.0
11
0.104220
21
0.645922
31
0.0
0
LINE
8
0
6
CONTINUOUS
10
0.107988
20
0.624553
30
0.0
11
0.108344
21
0.622532
31
0.0
0
LINE
8
0
6
CONTINUOUS
10
0.135910
20
0.627393
30
0.0
11
0.131505
21
0.652375
31
0.0
0
LINE
8
0
6
CONTINUOUS
10
0.112440
20
0.622376
30
0.0
11
0.112646
21
0.621160
31
0.0
0
LINE
8
0
6
CONTINUOUS
10
-0.176295
20
0.154379
30
0.0
11
-0.175217
21
0.151265
31
0.0
0
LINE
8
0
6
CONTINUOUS
10
-0.175217
20
0.151265
30
0.0
11
-0.173406
21
0.147889
31
0.0
0
LINE
8
0
6
CONTINUOUS
10
-0.173406
20
0.147889
30
0.0
11
-0.170907
21
0.144610
31
0.0
0
LINE
8
0
6
CONTINUOUS
10
-0.176616
20
0.157990
30
0.0
11
-0.176613
21
0.156939
31
0.0
0
LINE
8
0
6
CONTINUOUS
10
-0.170907
20
0.144610
30
0.0
11
-0.167717
21
0.142215
31
0.0
0
LINE
8
0
6
CONTINUOUS
10
-0.176613
20
0.156939
30
0.0
11
-0.176295
21
0.154379
31
0.0
0
LINE
8
0
6
CONTINUOUS
10
-0.146018
20
-0.392594
30
0.0
11
-0.146018
21
0.142295
31
0.0
0
LINE
8
0
6
CONTINUOUS
10
-0.146018
20
0.176078
30
0.0
11
-0.146018
21
0.525840
31
0.0
0
LINE
8
0
6
CONTINUOUS
10
-0.167717
20
0.525840
30
0.0
11
-0.167717
21
0.495623
31
0.0
0
LINE
8
0
6
CONTINUOUS
10
-0.167717
20
0.474661
30
0.0
11
-0.167717
21
0.175797
31
0.0
0
LINE
8
0
6
CONTINUOUS
10
-0.167717
20
0.142576
30
0.0
11
-0.167717
21
-0.420134
31
0.0
0
LINE
8
0
6
CONTINUOUS
10
-0.167454
20
0.533506
30
0.0
11
-0.167717
21
0.525840
31
0.0
0
LINE
8
0
6
CONTINUOUS
10
-0.146018
20
0.525840
30
0.0
11
-0.145828
21
0.531732
31
0.0
0
LINE
8
0
6
CONTINUOUS
10
-0.167026
20
0.540121
30
0.0
11
-0.167454
21
0.533506
31
0.0
0
LINE
8
0
6
CONTINUOUS
10
-0.145828
20
0.531732
30
0.0
11
-0.145466
21
0.537664
31
0.0
0
LINE
8
0
6
CONTINUOUS
10
-0.162849
20
0.558085
30
0.0
11
-0.165378
21
0.549304
31
0.0
0
LINE
8
0
6
CONTINUOUS
10
-0.144375
20
0.544253
30
0.0
11
-0.142431
21
0.550743
31
0.0
0
LINE
8
0
6
CONTINUOUS
10
-0.154470
20
0.574527
30
0.0
11
-0.159047
21
0.566540
31
0.0
0
LINE
8
0
6
CONTINUOUS
10
-0.139746
20
0.556948
30
0.0
11
-0.136289
21
0.562684
31
0.0
0
LINE
8
0
6
CONTINUOUS
10
-0.123670
20
0.602016
30
0.0
11
-0.132991
21
0.596346
31
0.0
0
LINE
8
0
6
CONTINUOUS
10
-0.142312
20
0.588945
30
0.0
11
-0.148757
21
0.582195
31
0.0
0
LINE
8
0
6
CONTINUOUS
10
-0.132388
20
0.568156
30
0.0
11
-0.127509
21
0.573080
31
0.0
0
LINE
8
0
6
CONTINUOUS
10
-0.120696
20
0.578730
30
0.0
11
-0.113883
21
0.582650
31
0.0
0
LINE
8
0
6
CONTINUOUS
10
-0.101567
20
0.609431
30
0.0
11
-0.112618
21
0.606436
31
0.0
0
LINE
8
0
6
CONTINUOUS
10
-0.105945
20
0.586050
30
0.0
11
-0.098008
21
0.588026
31
0.0
0
LINE
8
0
6
CONTINUOUS
10
0.104449
20
0.645962
30
0.0
11
-0.101567
21
0.609431
31
0.0
0
LINE
8
0
6
CONTINUOUS
10
-0.098008
20
0.588026
30
0.0
11
0.108217
21
0.624594
31
0.0
0
LINE
8
0
6
CONTINUOUS
10
-0.167717
20
0.495623
30
0.0
11
-0.206372
21
0.495623
31
0.0
0
LINE
8
0
6
CONTINUOUS
10
-0.206373
20
0.474661
30
0.0
11
-0.167717
21
0.474661
31
0.0
0
LINE
8
0
6
CONTINUOUS
10
-0.218704
20
0.513020
30
0.0
11
-0.218704
21
0.509428
31
0.0
0
LINE
8
0
6
CONTINUOUS
10
-0.218704
20
0.509428
30
0.0
11
-0.218704
21
0.504654
31
0.0
0
LINE
8
0
6
CONTINUOUS
10
-0.218704
20
0.492564
30
0.0
11
-0.218704
21
0.485855
31
0.0
0
LINE
8
0
6
CONTINUOUS
10
-0.206373
20
0.456091
30
0.0
11
-0.206373
21
0.456837
31
0.0
0
LINE
8
0
6
CONTINUOUS
10
-0.206850
20
0.456060
30
0.0
11
-0.206373
21
0.456091
31
0.0
0
LINE
8
0
6
CONTINUOUS
10
-0.206373
20
0.456837
30
0.0
11
-0.206373
21
0.459039
31
0.0
0
LINE
8
0
6
CONTINUOUS
10
-0.206373
20
0.459039
30
0.0
11
-0.206373
21
0.462585
31
0.0
0
LINE
8
0
6
CONTINUOUS
10
-0.206373
20
0.462585
30
0.0
11
-0.206373
21
0.467297
31
0.0
0
LINE
8
0
6
CONTINUOUS
10
-0.206373
20
0.467297
30
0.0
11
-0.206373
21
0.472941
31
0.0
0
LINE
8
0
6
CONTINUOUS
10
-0.206373
20
0.472941
30
0.0
11
-0.206372
21
0.479232
31
0.0
0
LINE
8
0
6
CONTINUOUS
10
-0.206372
20
0.479232
30
0.0
11
-0.206372
21
0.485855
31
0.0
0
LINE
8
0
6
CONTINUOUS
10
-0.206372
20
0.485855
30
0.0
11
-0.206372
21
0.492478
31
0.0
0
LINE
8
0
6
CONTINUOUS
10
-0.206372
20
0.492478
30
0.0
11
-0.206372
21
0.498768
31
0.0
0
LINE
8
0
6
CONTINUOUS
10
-0.206372
20
0.498768
30
0.0
11
-0.206372
21
0.504412
31
0.0
0
LINE
8
0
6
CONTINUOUS
10
-0.206372
20
0.504412
30
0.0
11
-0.206372
21
0.509125
31
0.0
0
LINE
8
0
6
CONTINUOUS
10
-0.218704
20
0.515250
30
0.0
11
-0.218704
21
0.513020
31
0.0
0
LINE
8
0
6
CONTINUOUS
10
-0.206372
20
0.509125
30
0.0
11
-0.206372
21
0.512671
31
0.0
0
LINE
8
0
6
CONTINUOUS
10
-0.206372
20
0.515618
30
0.0
11
-0.206850
21
0.515649
31
0.0
0
LINE
8
0
6
CONTINUOUS
10
-0.206372
20
0.514872
30
0.0
11
-0.206372
21
0.515618
31
0.0
0
LINE
8
0
6
CONTINUOUS
10
-0.206372
20
0.512671
30
0.0
11
-0.206372
21
0.514872
31
0.0
0
LINE
8
0
6
CONTINUOUS
10
-0.212102
20
0.455717
30
0.0
11
-0.206850
21
0.456060
31
0.0
0
LINE
8
0
6
CONTINUOUS
10
-0.206850
20
0.515649
30
0.0
11
-0.212102
21
0.515992
31
0.0
0
LINE
8
0
6
CONTINUOUS
10
-0.176067
20
0.164380
30
0.0
11
-0.176750
21
0.159186
31
0.0
0
LINE
8
0
6
CONTINUOUS
10
-0.176750
20
0.159186
30
0.0
11
-0.176573
21
0.157840
31
0.0
0
LINE
8
0
6
CONTINUOUS
10
-0.176573
20
0.157840
30
0.0
11
-0.176067
21
0.153993
31
0.0
0
LINE
8
0
6
CONTINUOUS
10
-0.176067
20
0.153993
30
0.0
11
-0.174062
21
0.149153
31
0.0
0
LINE
8
0
6
CONTINUOUS
10
-0.174062
20
0.149153
30
0.0
11
-0.170873
21
0.144998
31
0.0
0
LINE
8
0
6
CONTINUOUS
10
-0.170873
20
0.144998
30
0.0
11
-0.166717
21
0.141809
31
0.0
0
LINE
8
0
6
CONTINUOUS
10
-0.166717
20
0.141809
30
0.0
11
-0.161878
21
0.139804
31
0.0
0
LINE
8
0
6
CONTINUOUS
10
-0.161878
20
0.139804
30
0.0
11
-0.156685
21
0.139121
31
0.0
0
LINE
8
0
6
CONTINUOUS
10
-0.156685
20
0.139121
30
0.0
11
-0.151491
21
0.139804
31
0.0
0
LINE
8
0
6
CONTINUOUS
10
-0.151491
20
0.139804
30
0.0
11
-0.146652
21
0.141809
31
0.0
0
LINE
8
0
6
CONTINUOUS
10
-0.146652
20
0.141809
30
0.0
11
-0.142496
21
0.144998
31
0.0
0
LINE
8
0
6
CONTINUOUS
10
-0.142496
20
0.144998
30
0.0
11
-0.139307
21
0.149153
31
0.0
0
LINE
8
0
6
CONTINUOUS
10
-0.139307
20
0.149153
30
0.0
11
-0.137302
21
0.153993
31
0.0
0
LINE
8
0
6
CONTINUOUS
10
-0.137302
20
0.153993
30
0.0
11
-0.136619
21
0.159186
31
0.0
0
LINE
8
0
6
CONTINUOUS
10
-0.136619
20
0.159186
30
0.0
11
-0.137302
21
0.164380
31
0.0
0
LINE
8
0
6
CONTINUOUS
10
-0.137302
20
0.164380
30
0.0
11
-0.139307
21
0.169219
31
0.0
0
LINE
8
0
6
CONTINUOUS
10
-0.139307
20
0.169219
30
0.0
11
-0.142496
21
0.173375
31
0.0
0
LINE
8
0
6
CONTINUOUS
10
-0.142496
20
0.173375
30
0.0
11
-0.146652
21
0.176564
31
0.0
0
LINE
8
0
6
CONTINUOUS
10
-0.146652
20
0.176564
30
0.0
11
-0.151491
21
0.178569
31
0.0
0
LINE
8
0
6
CONTINUOUS
10
-0.151491
20
0.178569
30
0.0
11
-0.152826
21
0.178744
31
0.0
0
LINE
8
0
6
CONTINUOUS
10
-0.160543
20
0.178744
30
0.0
11
-0.161878
21
0.178569
31
0.0
0
LINE
8
0
6
CONTINUOUS
10
-0.161878
20
0.178569
30
0.0
11
-0.166717
21
0.176564
31
0.0
0
LINE
8
0
6
CONTINUOUS
10
-0.166717
20
0.176564
30
0.0
11
-0.170873
21
0.173375
31
0.0
0
LINE
8
0
6
CONTINUOUS
10
-0.170873
20
0.173375
30
0.0
11
-0.174062
21
0.169219
31
0.0
0
LINE
8
0
6
CONTINUOUS
10
-0.174062
20
0.169219
30
0.0
11
-0.176067
21
0.164380
31
0.0
0
LINE
8
0
6
CONTINUOUS
10
-0.160543
20
0.191969
30
0.0
11
-0.160543
21
0.178744
31
0.0
0
LINE
8
0
6
CONTINUOUS
10
-0.152826
20
0.178744
30
0.0
11
-0.152826
21
0.191969
31
0.0
0
LINE
8
0
6
CONTINUOUS
10
-0.152826
20
0.191969
30
0.0
11
-0.152826
21
0.192197
31
0.0
0
LINE
8
0
6
CONTINUOUS
10
-0.160543
20
0.192197
30
0.0
11
-0.160543
21
0.191969
31
0.0
0
LINE
8
0
6
CONTINUOUS
10
-0.160026
20
0.192634
30
0.0
11
-0.160543
21
0.192197
31
0.0
0
LINE
8
0
6
CONTINUOUS
10
-0.158614
20
0.192954
30
0.0
11
-0.160026
21
0.192634
31
0.0
0
LINE
8
0
6
CONTINUOUS
10
-0.156685
20
0.193071
30
0.0
11
-0.158614
21
0.192954
31
0.0
0
LINE
8
0
6
CONTINUOUS
10
-0.154755
20
0.192954
30
0.0
11
-0.156685
21
0.193071
31
0.0
0
LINE
8
0
6
CONTINUOUS
10
-0.153343
20
0.192634
30
0.0
11
-0.154755
21
0.192954
31
0.0
0
LINE
8
0
6
CONTINUOUS
10
-0.152826
20
0.192197
30
0.0
11
-0.153343
21
0.192634
31
0.0
0
LINE
8
0
6
CONTINUOUS
10
-0.218704
20
0.504654
30
0.0
11
-0.218704
21
0.498937
31
0.0
0
LINE
8
0
6
CONTINUOUS
10
-0.218704
20
0.498937
30
0.0
11
-0.218704
21
0.492564
31
0.0
0
LINE
8
0
6
CONTINUOUS
10
-0.218704
20
0.485855
30
0.0
11
-0.218704
21
0.479145
31
0.0
0
LINE
8
0
6
CONTINUOUS
10
-0.218704
20
0.479145
30
0.0
11
-0.218704
21
0.472772
31
0.0
0
LINE
8
0
6
CONTINUOUS
10
-0.218704
20
0.472772
30
0.0
11
-0.218704
21
0.467055
31
0.0
0
LINE
8
0
6
CONTINUOUS
10
-0.218704
20
0.467055
30
0.0
11
-0.218704
21
0.462281
31
0.0
0
LINE
8
0
6
CONTINUOUS
10
-0.218704
20
0.462281
30
0.0
11
-0.218704
21
0.458689
31
0.0
0
LINE
8
0
6
CONTINUOUS
10
-0.218704
20
0.458689
30
0.0
11
-0.218704
21
0.456459
31
0.0
0
LINE
8
0
6
CONTINUOUS
10
-0.218704
20
0.456459
30
0.0
11
-0.218704
21
0.455703
31
0.0
0
LINE
8
0
6
CONTINUOUS
10
-0.218704
20
0.455703
30
0.0
11
-0.212102
21
0.455717
31
0.0
0
LINE
8
0
6
CONTINUOUS
10
-0.218704
20
0.516006
30
0.0
11
-0.218704
21
0.515250
31
0.0
0
LINE
8
0
6
CONTINUOUS
10
-0.212102
20
0.515992
30
0.0
11
-0.218704
21
0.516006
31
0.0
0
LINE
8
0
6
CONTINUOUS
10
-0.143888
20
0.212854
30
0.0
11
-0.144160
21
0.212398
31
0.0
0
LINE
8
0
6
CONTINUOUS
10
-0.121220
20
0.199193
30
0.0
11
-0.123507
21
0.200571
31
0.0
0
LINE
8
0
6
CONTINUOUS
10
-0.142068
20
0.211757
30
0.0
11
-0.143425
21
0.212575
31
0.0
0
LINE
8
0
6
CONTINUOUS
10
-0.120965
20
0.198420
30
0.0
11
-0.120693
21
0.198876
31
0.0
0
LINE
8
0
6
CONTINUOUS
10
-0.120693
20
0.198876
30
0.0
11
-0.121220
21
0.199193
31
0.0
0
LINE
8
0
6
CONTINUOUS
10
-0.144160
20
0.212398
30
0.0
11
-0.146018
21
0.209283
31
0.0
0
LINE
8
0
6
CONTINUOUS
10
-0.138929
20
0.168306
30
0.0
11
-0.120965
21
0.198420
31
0.0
0
LINE
8
0
6
CONTINUOUS
10
-0.176295
20
0.154379
30
0.0
11
-0.175217
21
0.151265
31
0.0
0
LINE
8
0
6
CONTINUOUS
10
-0.175217
20
0.151265
30
0.0
11
-0.173406
21
0.147889
31
0.0
0
LINE
8
0
6
CONTINUOUS
10
-0.173406
20
0.147889
30
0.0
11
-0.170907
21
0.144610
31
0.0
0
LINE
8
0
6
CONTINUOUS
10
-0.176616
20
0.157990
30
0.0
11
-0.176613
21
0.156939
31
0.0
0
LINE
8
0
6
CONTINUOUS
10
-0.170907
20
0.144610
30
0.0
11
-0.167717
21
0.142215
31
0.0
0
LINE
8
0
6
CONTINUOUS
10
-0.176613
20
0.156939
30
0.0
11
-0.176295
21
0.154379
31
0.0
0
LINE
8
0
6
CONTINUOUS
10
-0.143888
20
0.212854
30
0.0
11
-0.144160
21
0.212398
31
0.0
0
LINE
8
0
6
CONTINUOUS
10
-0.121220
20
0.199193
30
0.0
11
-0.123507
21
0.200571
31
0.0
0
LINE
8
0
6
CONTINUOUS
10
-0.142068
20
0.211757
30
0.0
11
-0.143425
21
0.212575
31
0.0
0
LINE
8
0
6
CONTINUOUS
10
-0.120965
20
0.198420
30
0.0
11
-0.120693
21
0.198876
31
0.0
0
LINE
8
0
6
CONTINUOUS
10
-0.120693
20
0.198876
30
0.0
11
-0.121220
21
0.199193
31
0.0
0
LINE
8
0
6
CONTINUOUS
10
-0.144160
20
0.212398
30
0.0
11
-0.146018
21
0.209283
31
0.0
0
LINE
8
0
6
CONTINUOUS
10
-0.138929
20
0.168306
30
0.0
11
-0.120965
21
0.198420
31
0.0
0
LINE
8
0
6
CONTINUOUS
10
-0.112618
20
0.606436
30
0.0
11
-0.123670
21
0.602016
31
0.0
0
LINE
8
0
6
CONTINUOUS
10
-0.113883
20
0.582650
30
0.0
11
-0.105945
21
0.586050
31
0.0
0
LINE
8
0
6
CONTINUOUS
10
-0.132991
20
0.596346
30
0.0
11
-0.142312
21
0.588945
31
0.0
0
LINE
8
0
6
CONTINUOUS
10
-0.127509
20
0.573080
30
0.0
11
-0.120696
21
0.578730
31
0.0
0
LINE
8
0
6
CONTINUOUS
10
-0.148757
20
0.582195
30
0.0
11
-0.154470
21
0.574527
31
0.0
0
LINE
8
0
6
CONTINUOUS
10
-0.136289
20
0.562684
30
0.0
11
-0.132388
21
0.568156
31
0.0
0
LINE
8
0
6
CONTINUOUS
10
-0.159047
20
0.566540
30
0.0
11
-0.162849
21
0.558085
31
0.0
0
LINE
8
0
6
CONTINUOUS
10
-0.142431
20
0.550743
30
0.0
11
-0.139746
21
0.556948
31
0.0
0
LINE
8
0
6
CONTINUOUS
10
-0.165378
20
0.549304
30
0.0
11
-0.167026
21
0.540121
31
0.0
0
LINE
8
0
6
CONTINUOUS
10
-0.145466
20
0.537664
30
0.0
11
-0.144375
21
0.544253
31
0.0
0
LINE
8
0
6
CONTINUOUS
10
0.202709
20
0.576935
30
0.0
11
0.210778
21
0.579505
31
0.0
0
LINE
8
0
6
CONTINUOUS
10
0.054369
20
0.551926
30
0.0
11
0.062684
21
0.552265
31
0.0
0
LINE
8
0
6
CONTINUOUS
10
0.195381
20
0.574681
30
0.0
11
0.195692
21
0.574766
31
0.0
0
LINE
8
0
6
CONTINUOUS
10
0.146191
20
0.562572
30
0.0
11
0.147325
21
0.562811
31
0.0
0
LINE
8
0
6
CONTINUOUS
10
0.159223
20
0.565318
30
0.0
11
0.159440
21
0.565364
31
0.0
0
LINE
8
0
6
CONTINUOUS
10
0.120014
20
0.557985
30
0.0
11
0.121029
21
0.558130
31
0.0
0
LINE
8
0
6
CONTINUOUS
10
0.138113
20
0.560909
30
0.0
11
0.139209
21
0.561134
31
0.0
0
LINE
8
0
6
CONTINUOUS
10
0.137121
20
0.560734
30
0.0
11
0.137663
21
0.560830
31
0.0
0
LINE
8
0
6
CONTINUOUS
10
0.136400
20
0.560607
30
0.0
11
0.137121
21
0.560734
31
0.0
0
LINE
8
0
6
CONTINUOUS
10
0.135537
20
0.560455
30
0.0
11
0.136400
21
0.560607
31
0.0
0
LINE
8
0
6
CONTINUOUS
10
0.130725
20
0.559606
30
0.0
11
0.131588
21
0.559759
31
0.0
0
LINE
8
0
6
CONTINUOUS
10
0.130005
20
0.559479
30
0.0
11
0.130725
21
0.559606
31
0.0
0
LINE
8
0
6
CONTINUOUS
10
0.129462
20
0.559384
30
0.0
11
0.130005
21
0.559479
31
0.0
0
LINE
8
0
6
CONTINUOUS
10
0.128193
20
0.559184
30
0.0
11
0.129012
21
0.559304
31
0.0
0
LINE
8
0
6
CONTINUOUS
10
0.111593
20
0.555379
30
0.0
11
0.111601
21
0.555334
31
0.0
0
LINE
8
0
6
CONTINUOUS
10
0.114575
20
0.555867
30
0.0
11
0.115838
21
0.556072
31
0.0
0
LINE
8
0
6
CONTINUOUS
10
0.115838
20
0.556072
30
0.0
11
0.114575
21
0.555867
31
0.0
0
LINE
8
0
6
CONTINUOUS
10
0.114982
20
0.555908
30
0.0
11
0.115838
21
0.556072
31
0.0
0
LINE
8
0
6
CONTINUOUS
10
0.112863
20
0.555539
30
0.0
11
0.114982
21
0.555908
31
0.0
0
LINE
8
0
6
CONTINUOUS
10
0.121040
20
0.557024
30
0.0
11
0.120853
21
0.558105
31
0.0
0
LINE
8
0
6
CONTINUOUS
10
0.119778
20
0.556819
30
0.0
11
0.121040
21
0.557024
31
0.0
0
LINE
8
0
6
CONTINUOUS
10
0.121040
20
0.557024
30
0.0
11
0.119778
21
0.556819
31
0.0
0
LINE
8
0
6
CONTINUOUS
10
0.120184
20
0.556860
30
0.0
11
0.121040
21
0.557024
31
0.0
0
LINE
8
0
6
CONTINUOUS
10
0.123241
20
0.557106
30
0.0
11
0.124169
21
0.557267
31
0.0
0
LINE
8
0
6
CONTINUOUS
10
0.131301
20
0.558262
30
0.0
11
0.131058
21
0.559665
31
0.0
0
LINE
8
0
6
CONTINUOUS
10
0.130038
20
0.558057
30
0.0
11
0.131301
21
0.558262
31
0.0
0
LINE
8
0
6
CONTINUOUS
10
0.128450
20
0.557781
30
0.0
11
0.130038
21
0.558057
31
0.0
0
LINE
8
0
6
CONTINUOUS
10
0.127064
20
0.557524
30
0.0
11
0.128326
21
0.557729
31
0.0
0
LINE
8
0
6
CONTINUOUS
10
0.130038
20
0.558057
30
0.0
11
0.128450
21
0.557781
31
0.0
0
LINE
8
0
6
CONTINUOUS
10
0.131301
20
0.558262
30
0.0
11
0.130038
21
0.558057
31
0.0
0
LINE
8
0
6
CONTINUOUS
10
0.130445
20
0.558098
30
0.0
11
0.131301
21
0.558262
31
0.0
0
LINE
8
0
6
CONTINUOUS
10
0.128326
20
0.557729
30
0.0
11
0.130445
21
0.558098
31
0.0
0
LINE
8
0
6
CONTINUOUS
10
0.146417
20
0.561474
30
0.0
11
0.146226
21
0.562580
31
0.0
0
LINE
8
0
6
CONTINUOUS
10
0.145417
20
0.561285
30
0.0
11
0.145561
21
0.561310
31
0.0
0
LINE
8
0
6
CONTINUOUS
10
0.131468
20
0.559738
30
0.0
11
0.131662
21
0.558616
31
0.0
0
LINE
8
0
6
CONTINUOUS
10
0.135899
20
0.559353
30
0.0
11
0.135703
21
0.560484
31
0.0
0
LINE
8
0
6
CONTINUOUS
10
0.135934
20
0.559610
30
0.0
11
0.135780
21
0.560498
31
0.0
0
LINE
8
0
6
CONTINUOUS
10
0.138884
20
0.559599
30
0.0
11
0.140478
21
0.559867
31
0.0
0
LINE
8
0
6
CONTINUOUS
10
0.136859
20
0.559260
30
0.0
11
0.138884
21
0.559599
31
0.0
0
LINE
8
0
6
CONTINUOUS
10
0.136427
20
0.559189
30
0.0
11
0.136859
21
0.559260
31
0.0
0
LINE
8
0
6
CONTINUOUS
10
0.136196
20
0.560571
30
0.0
11
0.136427
21
0.559189
31
0.0
0
LINE
8
0
6
CONTINUOUS
10
0.155835
20
0.563111
30
0.0
11
0.155827
21
0.563159
31
0.0
0
LINE
8
0
6
CONTINUOUS
10
0.146899
20
0.561602
30
0.0
11
0.147518
21
0.561705
31
0.0
0
LINE
8
0
6
CONTINUOUS
10
0.146467
20
0.561530
30
0.0
11
0.146899
21
0.561602
31
0.0
0
LINE
8
0
6
CONTINUOUS
10
0.146289
20
0.562593
30
0.0
11
0.146467
21
0.561530
31
0.0
0
LINE
8
0
6
CONTINUOUS
10
0.145472
20
0.561021
30
0.0
11
0.145428
21
0.561287
31
0.0
0
LINE
8
0
6
CONTINUOUS
10
0.143879
20
0.560753
30
0.0
11
0.145472
21
0.561021
31
0.0
0
LINE
8
0
6
CONTINUOUS
10
0.066616
20
0.550600
30
0.0
11
0.067862
21
0.550838
31
0.0
0
LINE
8
0
6
CONTINUOUS
10
0.066191
20
0.552919
30
0.0
11
0.066616
21
0.550600
31
0.0
0
LINE
8
0
6
CONTINUOUS
10
0.067862
20
0.550838
30
0.0
11
0.069979
21
0.551225
31
0.0
0
LINE
8
0
6
CONTINUOUS
10
0.069979
20
0.551225
30
0.0
11
0.070849
21
0.551373
31
0.0
0
LINE
8
0
6
CONTINUOUS
10
0.067862
20
0.550838
30
0.0
11
0.066616
21
0.550600
31
0.0
0
LINE
8
0
6
CONTINUOUS
10
0.069979
20
0.551225
30
0.0
11
0.067862
21
0.550838
31
0.0
0
LINE
8
0
6
CONTINUOUS
10
0.070849
20
0.551373
30
0.0
11
0.069979
21
0.551225
31
0.0
0
LINE
8
0
6
CONTINUOUS
10
0.069603
20
0.551136
30
0.0
11
0.070849
21
0.551373
31
0.0
0
LINE
8
0
6
CONTINUOUS
10
0.067486
20
0.550749
30
0.0
11
0.069603
21
0.551136
31
0.0
0
LINE
8
0
6
CONTINUOUS
10
0.074759
20
0.551054
30
0.0
11
0.076006
21
0.551292
31
0.0
0
LINE
8
0
6
CONTINUOUS
10
0.076006
20
0.551292
30
0.0
11
0.078123
21
0.551678
31
0.0
0
LINE
8
0
6
CONTINUOUS
10
0.078123
20
0.551678
30
0.0
11
0.078993
21
0.551827
31
0.0
0
LINE
8
0
6
CONTINUOUS
10
0.076006
20
0.551292
30
0.0
11
0.074759
21
0.551054
31
0.0
0
LINE
8
0
6
CONTINUOUS
10
0.078123
20
0.551678
30
0.0
11
0.076006
21
0.551292
31
0.0
0
LINE
8
0
6
CONTINUOUS
10
0.078993
20
0.551827
30
0.0
11
0.078123
21
0.551678
31
0.0
0
LINE
8
0
6
CONTINUOUS
10
0.077746
20
0.551589
30
0.0
11
0.078993
21
0.551827
31
0.0
0
LINE
8
0
6
CONTINUOUS
10
0.075630
20
0.551203
30
0.0
11
0.077746
21
0.551589
31
0.0
0
LINE
8
0
6
CONTINUOUS
10
0.082956
20
0.551695
30
0.0
11
0.084203
21
0.551933
31
0.0
0
LINE
8
0
6
CONTINUOUS
10
0.084203
20
0.551933
30
0.0
11
0.086319
21
0.552319
31
0.0
0
LINE
8
0
6
CONTINUOUS
10
0.086319
20
0.552319
30
0.0
11
0.087190
21
0.552468
31
0.0
0
LINE
8
0
6
CONTINUOUS
10
0.084203
20
0.551933
30
0.0
11
0.082956
21
0.551695
31
0.0
0
LINE
8
0
6
CONTINUOUS
10
0.086319
20
0.552319
30
0.0
11
0.084203
21
0.551933
31
0.0
0
LINE
8
0
6
CONTINUOUS
10
0.087190
20
0.552468
30
0.0
11
0.086319
21
0.552319
31
0.0
0
LINE
8
0
6
CONTINUOUS
10
0.085943
20
0.552231
30
0.0
11
0.087190
21
0.552468
31
0.0
0
LINE
8
0
6
CONTINUOUS
10
0.083826
20
0.551844
30
0.0
11
0.085943
21
0.552231
31
0.0
0
LINE
8
0
6
CONTINUOUS
10
0.090923
20
0.552376
30
0.0
11
0.092170
21
0.552613
31
0.0
0
LINE
8
0
6
CONTINUOUS
10
0.092170
20
0.552613
30
0.0
11
0.094287
21
0.553000
31
0.0
0
LINE
8
0
6
CONTINUOUS
10
0.094287
20
0.553000
30
0.0
11
0.095157
21
0.553149
31
0.0
0
LINE
8
0
6
CONTINUOUS
10
0.092170
20
0.552613
30
0.0
11
0.090923
21
0.552376
31
0.0
0
LINE
8
0
6
CONTINUOUS
10
0.094287
20
0.553000
30
0.0
11
0.092170
21
0.552613
31
0.0
0
LINE
8
0
6
CONTINUOUS
10
0.095157
20
0.553149
30
0.0
11
0.094287
21
0.553000
31
0.0
0
LINE
8
0
6
CONTINUOUS
10
0.093910
20
0.552911
30
0.0
11
0.095157
21
0.553149
31
0.0
0
LINE
8
0
6
CONTINUOUS
10
0.091794
20
0.552525
30
0.0
11
0.093910
21
0.552911
31
0.0
0
LINE
8
0
6
CONTINUOUS
10
0.099232
20
0.553141
30
0.0
11
0.100479
21
0.553378
31
0.0
0
LINE
8
0
6
CONTINUOUS
10
0.100479
20
0.553378
30
0.0
11
0.102595
21
0.553765
31
0.0
0
LINE
8
0
6
CONTINUOUS
10
0.102595
20
0.553765
30
0.0
11
0.103466
21
0.553914
31
0.0
0
LINE
8
0
6
CONTINUOUS
10
0.100479
20
0.553378
30
0.0
11
0.099232
21
0.553141
31
0.0
0
LINE
8
0
6
CONTINUOUS
10
0.102595
20
0.553765
30
0.0
11
0.100479
21
0.553378
31
0.0
0
LINE
8
0
6
CONTINUOUS
10
0.103466
20
0.553914
30
0.0
11
0.102595
21
0.553765
31
0.0
0
LINE
8
0
6
CONTINUOUS
10
0.102219
20
0.553676
30
0.0
11
0.103466
21
0.553914
31
0.0
0
LINE
8
0
6
CONTINUOUS
10
0.100102
20
0.553290
30
0.0
11
0.102219
21
0.553676
31
0.0
0
LINE
8
0
6
CONTINUOUS
10
0.107738
20
0.554672
30
0.0
11
0.108985
21
0.554909
31
0.0
0
LINE
8
0
6
CONTINUOUS
10
0.108985
20
0.554909
30
0.0
11
0.111102
21
0.555296
31
0.0
0
LINE
8
0
6
CONTINUOUS
10
0.111102
20
0.555296
30
0.0
11
0.111972
21
0.555445
31
0.0
0
LINE
8
0
6
CONTINUOUS
10
0.108985
20
0.554909
30
0.0
11
0.107738
21
0.554672
31
0.0
0
LINE
8
0
6
CONTINUOUS
10
0.111102
20
0.555296
30
0.0
11
0.108985
21
0.554909
31
0.0
0
LINE
8
0
6
CONTINUOUS
10
0.111972
20
0.555445
30
0.0
11
0.111102
21
0.555296
31
0.0
0
LINE
8
0
6
CONTINUOUS
10
0.110725
20
0.555207
30
0.0
11
0.111972
21
0.555445
31
0.0
0
LINE
8
0
6
CONTINUOUS
10
0.108609
20
0.554820
30
0.0
11
0.110725
21
0.555207
31
0.0
0
LINE
8
0
6
CONTINUOUS
10
0.116033
20
0.555836
30
0.0
11
0.117280
21
0.556074
31
0.0
0
LINE
8
0
6
CONTINUOUS
10
0.117280
20
0.556074
30
0.0
11
0.119396
21
0.556460
31
0.0
0
LINE
8
0
6
CONTINUOUS
10
0.120267
20
0.556609
30
0.0
11
0.120014
21
0.557985
31
0.0
0
LINE
8
0
6
CONTINUOUS
10
0.119396
20
0.556460
30
0.0
11
0.120267
21
0.556609
31
0.0
0
LINE
8
0
6
CONTINUOUS
10
0.117280
20
0.556074
30
0.0
11
0.116033
21
0.555836
31
0.0
0
LINE
8
0
6
CONTINUOUS
10
0.119396
20
0.556460
30
0.0
11
0.117280
21
0.556074
31
0.0
0
LINE
8
0
6
CONTINUOUS
10
0.120267
20
0.556609
30
0.0
11
0.119396
21
0.556460
31
0.0
0
LINE
8
0
6
CONTINUOUS
10
0.119020
20
0.556371
30
0.0
11
0.120267
21
0.556609
31
0.0
0
LINE
8
0
6
CONTINUOUS
10
0.116903
20
0.555985
30
0.0
11
0.119020
21
0.556371
31
0.0
0
LINE
8
0
6
CONTINUOUS
10
0.124217
20
0.557005
30
0.0
11
0.125464
21
0.557243
31
0.0
0
LINE
8
0
6
CONTINUOUS
10
0.125464
20
0.557243
30
0.0
11
0.127580
21
0.557629
31
0.0
0
LINE
8
0
6
CONTINUOUS
10
0.128450
20
0.557778
30
0.0
11
0.128193
21
0.559184
31
0.0
0
LINE
8
0
6
CONTINUOUS
10
0.127580
20
0.557629
30
0.0
11
0.128450
21
0.557778
31
0.0
0
LINE
8
0
6
CONTINUOUS
10
0.125464
20
0.557243
30
0.0
11
0.124217
21
0.557005
31
0.0
0
LINE
8
0
6
CONTINUOUS
10
0.127580
20
0.557629
30
0.0
11
0.125464
21
0.557243
31
0.0
0
LINE
8
0
6
CONTINUOUS
10
0.128450
20
0.557778
30
0.0
11
0.127580
21
0.557629
31
0.0
0
LINE
8
0
6
CONTINUOUS
10
0.127204
20
0.557540
30
0.0
11
0.128450
21
0.557778
31
0.0
0
LINE
8
0
6
CONTINUOUS
10
0.125087
20
0.557154
30
0.0
11
0.127204
21
0.557540
31
0.0
0
LINE
8
0
6
CONTINUOUS
10
0.103859
20
0.554646
30
0.0
11
0.103981
21
0.553978
31
0.0
0
LINE
8
0
6
CONTINUOUS
10
0.110598
20
0.555177
30
0.0
11
0.111596
21
0.555359
31
0.0
0
LINE
8
0
6
CONTINUOUS
10
0.115703
20
0.556092
30
0.0
11
0.115757
21
0.555796
31
0.0
0
LINE
8
0
6
CONTINUOUS
10
0.063985
20
0.550141
30
0.0
11
0.065231
21
0.550379
31
0.0
0
LINE
8
0
6
CONTINUOUS
10
0.063559
20
0.552468
30
0.0
11
0.063985
21
0.550141
31
0.0
0
LINE
8
0
6
CONTINUOUS
10
0.065231
20
0.550379
30
0.0
11
0.066610
21
0.550631
31
0.0
0
LINE
8
0
6
CONTINUOUS
10
0.065231
20
0.550379
30
0.0
11
0.063985
21
0.550141
31
0.0
0
LINE
8
0
6
CONTINUOUS
10
0.066610
20
0.550631
30
0.0
11
0.065231
21
0.550379
31
0.0
0
LINE
8
0
6
CONTINUOUS
10
0.064855
20
0.550290
30
0.0
11
0.066614
21
0.550611
31
0.0
0
LINE
8
0
6
CONTINUOUS
10
0.072471
20
0.550643
30
0.0
11
0.073718
21
0.550881
31
0.0
0
LINE
8
0
6
CONTINUOUS
10
0.073718
20
0.550881
30
0.0
11
0.074756
21
0.551070
31
0.0
0
LINE
8
0
6
CONTINUOUS
10
0.073718
20
0.550881
30
0.0
11
0.072471
21
0.550643
31
0.0
0
LINE
8
0
6
CONTINUOUS
10
0.074756
20
0.551070
30
0.0
11
0.073718
21
0.550881
31
0.0
0
LINE
8
0
6
CONTINUOUS
10
0.073341
20
0.550792
30
0.0
11
0.075458
21
0.551178
31
0.0
0
LINE
8
0
6
CONTINUOUS
10
0.080609
20
0.551288
30
0.0
11
0.081856
21
0.551526
31
0.0
0
LINE
8
0
6
CONTINUOUS
10
0.081856
20
0.551526
30
0.0
11
0.082951
21
0.551726
31
0.0
0
LINE
8
0
6
CONTINUOUS
10
0.081856
20
0.551526
30
0.0
11
0.080609
21
0.551288
31
0.0
0
LINE
8
0
6
CONTINUOUS
10
0.082951
20
0.551726
30
0.0
11
0.081856
21
0.551526
31
0.0
0
LINE
8
0
6
CONTINUOUS
10
0.083596
20
0.551823
30
0.0
11
0.084843
21
0.552061
31
0.0
0
LINE
8
0
6
CONTINUOUS
10
0.081480
20
0.551437
30
0.0
11
0.082954
21
0.551706
31
0.0
0
LINE
8
0
6
CONTINUOUS
10
0.088975
20
0.552020
30
0.0
11
0.090221
21
0.552258
31
0.0
0
LINE
8
0
6
CONTINUOUS
10
0.090221
20
0.552258
30
0.0
11
0.090922
21
0.552386
31
0.0
0
LINE
8
0
6
CONTINUOUS
10
0.090221
20
0.552258
30
0.0
11
0.088975
21
0.552020
31
0.0
0
LINE
8
0
6
CONTINUOUS
10
0.090922
20
0.552386
30
0.0
11
0.090221
21
0.552258
31
0.0
0
LINE
8
0
6
CONTINUOUS
10
0.089845
20
0.552169
30
0.0
11
0.091962
21
0.552555
31
0.0
0
LINE
8
0
6
CONTINUOUS
10
0.097331
20
0.552808
30
0.0
11
0.098578
21
0.553045
31
0.0
0
LINE
8
0
6
CONTINUOUS
10
0.098578
20
0.553045
30
0.0
11
0.099228
21
0.553164
31
0.0
0
LINE
8
0
6
CONTINUOUS
10
0.098578
20
0.553045
30
0.0
11
0.097331
21
0.552808
31
0.0
0
LINE
8
0
6
CONTINUOUS
10
0.099228
20
0.553164
30
0.0
11
0.098578
21
0.553045
31
0.0
0
LINE
8
0
6
CONTINUOUS
10
0.098202
20
0.552956
30
0.0
11
0.099231
21
0.553144
31
0.0
0
LINE
8
0
6
CONTINUOUS
10
0.106493
20
0.553906
30
0.0
11
0.107739
21
0.554144
31
0.0
0
LINE
8
0
6
CONTINUOUS
10
0.106397
20
0.554429
30
0.0
11
0.106493
21
0.553906
31
0.0
0
LINE
8
0
6
CONTINUOUS
10
0.107739
20
0.554144
30
0.0
11
0.109856
21
0.554530
31
0.0
0
LINE
8
0
6
CONTINUOUS
10
0.110726
20
0.554679
30
0.0
11
0.110634
21
0.555183
31
0.0
0
LINE
8
0
6
CONTINUOUS
10
0.109856
20
0.554530
30
0.0
11
0.110726
21
0.554679
31
0.0
0
LINE
8
0
6
CONTINUOUS
10
0.107739
20
0.554144
30
0.0
11
0.106493
21
0.553906
31
0.0
0
LINE
8
0
6
CONTINUOUS
10
0.109856
20
0.554530
30
0.0
11
0.107739
21
0.554144
31
0.0
0
LINE
8
0
6
CONTINUOUS
10
0.110726
20
0.554679
30
0.0
11
0.109856
21
0.554530
31
0.0
0
LINE
8
0
6
CONTINUOUS
10
0.109480
20
0.554441
30
0.0
11
0.110726
21
0.554679
31
0.0
0
LINE
8
0
6
CONTINUOUS
10
0.107363
20
0.554055
30
0.0
11
0.109480
21
0.554441
31
0.0
0
LINE
8
0
6
CONTINUOUS
10
0.063109
20
0.549945
30
0.0
11
0.064355
21
0.550183
31
0.0
0
LINE
8
0
6
CONTINUOUS
10
0.062683
20
0.552271
30
0.0
11
0.063109
21
0.549945
31
0.0
0
LINE
8
0
6
CONTINUOUS
10
0.064355
20
0.550183
30
0.0
11
0.066472
21
0.550569
31
0.0
0
LINE
8
0
6
CONTINUOUS
10
0.066472
20
0.550569
30
0.0
11
0.067342
21
0.550718
31
0.0
0
LINE
8
0
6
CONTINUOUS
10
0.064355
20
0.550183
30
0.0
11
0.063109
21
0.549945
31
0.0
0
LINE
8
0
6
CONTINUOUS
10
0.066472
20
0.550569
30
0.0
11
0.064355
21
0.550183
31
0.0
0
LINE
8
0
6
CONTINUOUS
10
0.067342
20
0.550718
30
0.0
11
0.066472
21
0.550569
31
0.0
0
LINE
8
0
6
CONTINUOUS
10
0.066096
20
0.550480
30
0.0
11
0.067342
21
0.550718
31
0.0
0
LINE
8
0
6
CONTINUOUS
10
0.063979
20
0.550094
30
0.0
11
0.066096
21
0.550480
31
0.0
0
LINE
8
0
6
CONTINUOUS
10
0.071716
20
0.550520
30
0.0
11
0.072963
21
0.550757
31
0.0
0
LINE
8
0
6
CONTINUOUS
10
0.071548
20
0.551436
30
0.0
11
0.071716
21
0.550520
31
0.0
0
LINE
8
0
6
CONTINUOUS
10
0.072963
20
0.550757
30
0.0
11
0.071716
21
0.550520
31
0.0
0
LINE
8
0
6
CONTINUOUS
10
0.083602
20
0.551820
30
0.0
11
0.084849
21
0.552058
31
0.0
0
LINE
8
0
6
CONTINUOUS
10
0.081485
20
0.551434
30
0.0
11
0.082955
21
0.551702
31
0.0
0
LINE
8
0
6
CONTINUOUS
10
0.090391
20
0.552266
30
0.0
11
0.092508
21
0.552653
31
0.0
0
LINE
8
0
6
CONTINUOUS
10
0.073178
20
0.550754
30
0.0
11
0.074425
21
0.550992
31
0.0
0
LINE
8
0
6
CONTINUOUS
10
0.074425
20
0.550992
30
0.0
11
0.073178
21
0.550754
31
0.0
0
LINE
8
0
6
CONTINUOUS
10
0.076165
20
0.551289
30
0.0
11
0.077412
21
0.551527
31
0.0
0
LINE
8
0
6
CONTINUOUS
10
0.074049
20
0.550903
30
0.0
11
0.076165
21
0.551289
31
0.0
0
LINE
8
0
6
CONTINUOUS
10
0.092874
20
0.552695
30
0.0
11
0.094120
21
0.552933
31
0.0
0
LINE
8
0
6
CONTINUOUS
10
0.092865
20
0.552740
30
0.0
11
0.092874
21
0.552695
31
0.0
0
LINE
8
0
6
CONTINUOUS
10
0.094120
20
0.552933
30
0.0
11
0.095646
21
0.553211
31
0.0
0
LINE
8
0
6
CONTINUOUS
10
0.094120
20
0.552933
30
0.0
11
0.092874
21
0.552695
31
0.0
0
LINE
8
0
6
CONTINUOUS
10
0.095646
20
0.553211
30
0.0
11
0.094120
21
0.552933
31
0.0
0
LINE
8
0
6
CONTINUOUS
10
0.093744
20
0.552844
30
0.0
11
0.095861
21
0.553230
31
0.0
0
LINE
8
0
6
CONTINUOUS
10
0.077261
20
0.551497
30
0.0
11
0.078919
21
0.551800
31
0.0
0
LINE
8
0
6
CONTINUOUS
10
0.131359
20
0.561956
30
0.0
11
0.132938
21
0.562240
31
0.0
0
LINE
8
0
6
CONTINUOUS
10
0.130963
20
0.564112
30
0.0
11
0.131359
21
0.561956
31
0.0
0
LINE
8
0
6
CONTINUOUS
10
0.132938
20
0.562240
30
0.0
11
0.134963
21
0.562615
31
0.0
0
LINE
8
0
6
CONTINUOUS
10
0.135407
20
0.562706
30
0.0
11
0.135049
21
0.564657
31
0.0
0
LINE
8
0
6
CONTINUOUS
10
0.134963
20
0.562615
30
0.0
11
0.135407
21
0.562706
31
0.0
0
LINE
8
0
6
CONTINUOUS
10
0.131398
20
0.561002
30
0.0
11
0.132977
21
0.561285
31
0.0
0
LINE
8
0
6
CONTINUOUS
10
0.131008
20
0.563125
30
0.0
11
0.131398
21
0.561002
31
0.0
0
LINE
8
0
6
CONTINUOUS
10
0.132977
20
0.561285
30
0.0
11
0.135001
21
0.561660
31
0.0
0
LINE
8
0
6
CONTINUOUS
10
0.135001
20
0.561660
30
0.0
11
0.135446
21
0.561752
31
0.0
0
LINE
8
0
6
CONTINUOUS
10
0.131713
20
0.560260
30
0.0
11
0.133293
21
0.560544
31
0.0
0
LINE
8
0
6
CONTINUOUS
10
0.133293
20
0.560544
30
0.0
11
0.135317
21
0.560918
31
0.0
0
LINE
8
0
6
CONTINUOUS
10
0.135762
20
0.561010
30
0.0
11
0.135400
21
0.562979
31
0.0
0
LINE
8
0
6
CONTINUOUS
10
0.135317
20
0.560918
30
0.0
11
0.135762
21
0.561010
31
0.0
0
LINE
8
0
6
CONTINUOUS
10
0.131798
20
0.559559
30
0.0
11
0.133378
21
0.559842
31
0.0
0
LINE
8
0
6
CONTINUOUS
10
0.131411
20
0.561667
30
0.0
11
0.131798
21
0.559559
31
0.0
0
LINE
8
0
6
CONTINUOUS
10
0.133378
20
0.559842
30
0.0
11
0.135402
21
0.560217
31
0.0
0
LINE
8
0
6
CONTINUOUS
10
0.135402
20
0.560217
30
0.0
11
0.135846
21
0.560308
31
0.0
0
LINE
8
0
6
CONTINUOUS
10
0.131754
20
0.558854
30
0.0
11
0.133333
21
0.559137
31
0.0
0
LINE
8
0
6
CONTINUOUS
10
0.131366
20
0.560965
30
0.0
11
0.131754
21
0.558854
31
0.0
0
LINE
8
0
6
CONTINUOUS
10
0.133333
20
0.559137
30
0.0
11
0.135357
21
0.559512
31
0.0
0
LINE
8
0
6
CONTINUOUS
10
0.135357
20
0.559512
30
0.0
11
0.135802
21
0.559604
31
0.0
0
LINE
8
0
6
CONTINUOUS
10
0.131787
20
0.558606
30
0.0
11
0.133366
21
0.558889
31
0.0
0
LINE
8
0
6
CONTINUOUS
10
0.131505
20
0.560142
30
0.0
11
0.131787
21
0.558606
31
0.0
0
LINE
8
0
6
CONTINUOUS
10
0.133366
20
0.558889
30
0.0
11
0.135390
21
0.559264
31
0.0
0
LINE
8
0
6
CONTINUOUS
10
0.135390
20
0.559264
30
0.0
11
0.135835
21
0.559355
31
0.0
0
LINE
8
0
6
CONTINUOUS
10
0.131807
20
0.558337
30
0.0
11
0.133386
21
0.558620
31
0.0
0
LINE
8
0
6
CONTINUOUS
10
0.131525
20
0.559869
30
0.0
11
0.131807
21
0.558337
31
0.0
0
LINE
8
0
6
CONTINUOUS
10
0.133386
20
0.558620
30
0.0
11
0.135411
21
0.558995
31
0.0
0
LINE
8
0
6
CONTINUOUS
10
0.135411
20
0.558995
30
0.0
11
0.135855
21
0.559087
31
0.0
0
LINE
8
0
6
CONTINUOUS
10
0.070748
20
0.551292
30
0.0
11
0.072301
21
0.551571
31
0.0
0
LINE
8
0
6
CONTINUOUS
10
0.070321
20
0.553614
30
0.0
11
0.070748
21
0.551292
31
0.0
0
LINE
8
0
6
CONTINUOUS
10
0.072327
20
0.551575
30
0.0
11
0.074352
21
0.551950
31
0.0
0
LINE
8
0
6
CONTINUOUS
10
0.074796
20
0.552042
30
0.0
11
0.074479
21
0.553770
31
0.0
0
LINE
8
0
6
CONTINUOUS
10
0.074352
20
0.551950
30
0.0
11
0.074796
21
0.552042
31
0.0
0
LINE
8
0
6
CONTINUOUS
10
0.078920
20
0.551794
30
0.0
11
0.080466
21
0.552072
31
0.0
0
LINE
8
0
6
CONTINUOUS
10
0.078637
20
0.553335
30
0.0
11
0.078920
21
0.551794
31
0.0
0
LINE
8
0
6
CONTINUOUS
10
0.080499
20
0.552078
30
0.0
11
0.082524
21
0.552452
31
0.0
0
LINE
8
0
6
CONTINUOUS
10
0.082968
20
0.552544
30
0.0
11
0.082635
21
0.554361
31
0.0
0
LINE
8
0
6
CONTINUOUS
10
0.082524
20
0.552452
30
0.0
11
0.082968
21
0.552544
31
0.0
0
LINE
8
0
6
CONTINUOUS
10
0.087403
20
0.552468
30
0.0
11
0.088982
21
0.552752
31
0.0
0
LINE
8
0
6
CONTINUOUS
10
0.088982
20
0.552752
30
0.0
11
0.091007
21
0.553126
31
0.0
0
LINE
8
0
6
CONTINUOUS
10
0.091451
20
0.553218
30
0.0
11
0.091117
21
0.555035
31
0.0
0
LINE
8
0
6
CONTINUOUS
10
0.091007
20
0.553126
30
0.0
11
0.091451
21
0.553218
31
0.0
0
LINE
8
0
6
CONTINUOUS
10
0.095648
20
0.553199
30
0.0
11
0.097208
21
0.553479
31
0.0
0
LINE
8
0
6
CONTINUOUS
10
0.097228
20
0.553483
30
0.0
11
0.099252
21
0.553858
31
0.0
0
LINE
8
0
6
CONTINUOUS
10
0.099697
20
0.553949
30
0.0
11
0.099357
21
0.555796
31
0.0
0
LINE
8
0
6
CONTINUOUS
10
0.099252
20
0.553858
30
0.0
11
0.099697
21
0.553949
31
0.0
0
LINE
8
0
6
CONTINUOUS
10
0.104123
20
0.553998
30
0.0
11
0.105703
21
0.554281
31
0.0
0
LINE
8
0
6
CONTINUOUS
10
0.105703
20
0.554281
30
0.0
11
0.107727
21
0.554656
31
0.0
0
LINE
8
0
6
CONTINUOUS
10
0.108172
20
0.554747
30
0.0
11
0.107833
21
0.556594
31
0.0
0
LINE
8
0
6
CONTINUOUS
10
0.107727
20
0.554656
30
0.0
11
0.108172
21
0.554747
31
0.0
0
LINE
8
0
6
CONTINUOUS
10
0.115679
20
0.556088
30
0.0
11
0.116467
21
0.556234
31
0.0
0
LINE
8
0
6
CONTINUOUS
10
0.116912
20
0.556325
30
0.0
11
0.116653
21
0.557734
31
0.0
0
LINE
8
0
6
CONTINUOUS
10
0.116467
20
0.556234
30
0.0
11
0.116912
21
0.556325
31
0.0
0
LINE
8
0
6
CONTINUOUS
10
0.121940
20
0.556881
30
0.0
11
0.123520
21
0.557164
31
0.0
0
LINE
8
0
6
CONTINUOUS
10
0.123520
20
0.557164
30
0.0
11
0.125544
21
0.557539
31
0.0
0
LINE
8
0
6
CONTINUOUS
10
0.125988
20
0.557630
30
0.0
11
0.125728
21
0.559048
31
0.0
0
LINE
8
0
6
CONTINUOUS
10
0.125544
20
0.557539
30
0.0
11
0.125988
21
0.557630
31
0.0
0
LINE
8
0
6
CONTINUOUS
10
0.120589
20
0.560118
30
0.0
11
0.122169
21
0.560401
31
0.0
0
LINE
8
0
6
CONTINUOUS
10
0.120192
20
0.562280
30
0.0
11
0.120589
21
0.560118
31
0.0
0
LINE
8
0
6
CONTINUOUS
10
0.122169
20
0.560401
30
0.0
11
0.124193
21
0.560776
31
0.0
0
LINE
8
0
6
CONTINUOUS
10
0.124638
20
0.560868
30
0.0
11
0.124291
21
0.562757
31
0.0
0
LINE
8
0
6
CONTINUOUS
10
0.124193
20
0.560776
30
0.0
11
0.124638
21
0.560868
31
0.0
0
LINE
8
0
6
CONTINUOUS
10
0.120970
20
0.559180
30
0.0
11
0.122550
21
0.559464
31
0.0
0
LINE
8
0
6
CONTINUOUS
10
0.122550
20
0.559464
30
0.0
11
0.124574
21
0.559838
31
0.0
0
LINE
8
0
6
CONTINUOUS
10
0.125018
20
0.559930
30
0.0
11
0.124665
21
0.561857
31
0.0
0
LINE
8
0
6
CONTINUOUS
10
0.124574
20
0.559838
30
0.0
11
0.125018
21
0.559930
31
0.0
0
LINE
8
0
6
CONTINUOUS
10
0.120928
20
0.558370
30
0.0
11
0.122508
21
0.558653
31
0.0
0
LINE
8
0
6
CONTINUOUS
10
0.120534
20
0.560515
30
0.0
11
0.120928
21
0.558370
31
0.0
0
LINE
8
0
6
CONTINUOUS
10
0.122508
20
0.558653
30
0.0
11
0.124532
21
0.559028
31
0.0
0
LINE
8
0
6
CONTINUOUS
10
0.124532
20
0.559028
30
0.0
11
0.124976
21
0.559120
31
0.0
0
LINE
8
0
6
CONTINUOUS
10
0.121165
20
0.557681
30
0.0
11
0.122744
21
0.557964
31
0.0
0
LINE
8
0
6
CONTINUOUS
10
0.121081
20
0.558137
30
0.0
11
0.121165
21
0.557681
31
0.0
0
LINE
8
0
6
CONTINUOUS
10
0.122744
20
0.557964
30
0.0
11
0.124769
21
0.558339
31
0.0
0
LINE
8
0
6
CONTINUOUS
10
0.125213
20
0.558431
30
0.0
11
0.124860
21
0.560353
31
0.0
0
LINE
8
0
6
CONTINUOUS
10
0.124769
20
0.558339
30
0.0
11
0.125213
21
0.558431
31
0.0
0
LINE
8
0
6
CONTINUOUS
10
0.121231
20
0.557032
30
0.0
11
0.122811
21
0.557316
31
0.0
0
LINE
8
0
6
CONTINUOUS
10
0.121029
20
0.558130
30
0.0
11
0.121231
21
0.557032
31
0.0
0
LINE
8
0
6
CONTINUOUS
10
0.122811
20
0.557316
30
0.0
11
0.124835
21
0.557690
31
0.0
0
LINE
8
0
6
CONTINUOUS
10
0.125279
20
0.557782
30
0.0
11
0.125106
21
0.558728
31
0.0
0
LINE
8
0
6
CONTINUOUS
10
0.124835
20
0.557690
30
0.0
11
0.125279
21
0.557782
31
0.0
0
LINE
8
0
6
CONTINUOUS
10
0.125461
20
0.557833
30
0.0
11
0.125199
21
0.559262
31
0.0
0
LINE
8
0
6
CONTINUOUS
10
0.110305
20
0.558316
30
0.0
11
0.111885
21
0.558599
31
0.0
0
LINE
8
0
6
CONTINUOUS
10
0.109898
20
0.560533
30
0.0
11
0.110305
21
0.558316
31
0.0
0
LINE
8
0
6
CONTINUOUS
10
0.111885
20
0.558599
30
0.0
11
0.113909
21
0.558974
31
0.0
0
LINE
8
0
6
CONTINUOUS
10
0.114354
20
0.559066
30
0.0
11
0.114017
21
0.560899
31
0.0
0
LINE
8
0
6
CONTINUOUS
10
0.113909
20
0.558974
30
0.0
11
0.114354
21
0.559066
31
0.0
0
LINE
8
0
6
CONTINUOUS
10
0.110578
20
0.557381
30
0.0
11
0.112158
21
0.557664
31
0.0
0
LINE
8
0
6
CONTINUOUS
10
0.112158
20
0.557664
30
0.0
11
0.114182
21
0.558039
31
0.0
0
LINE
8
0
6
CONTINUOUS
10
0.114626
20
0.558130
30
0.0
11
0.114280
21
0.560019
31
0.0
0
LINE
8
0
6
CONTINUOUS
10
0.114182
20
0.558039
30
0.0
11
0.114626
21
0.558130
31
0.0
0
LINE
8
0
6
CONTINUOUS
10
0.110902
20
0.556606
30
0.0
11
0.112481
21
0.556889
31
0.0
0
LINE
8
0
6
CONTINUOUS
10
0.110887
20
0.556686
30
0.0
11
0.110902
21
0.556606
31
0.0
0
LINE
8
0
6
CONTINUOUS
10
0.112481
20
0.556889
30
0.0
11
0.114505
21
0.557264
31
0.0
0
LINE
8
0
6
CONTINUOUS
10
0.114950
20
0.557356
30
0.0
11
0.114603
21
0.559245
31
0.0
0
LINE
8
0
6
CONTINUOUS
10
0.114505
20
0.557264
30
0.0
11
0.114950
21
0.557356
31
0.0
0
LINE
8
0
6
CONTINUOUS
10
0.111159
20
0.555930
30
0.0
11
0.112738
21
0.556214
31
0.0
0
LINE
8
0
6
CONTINUOUS
10
0.111016
20
0.556704
30
0.0
11
0.111159
21
0.555930
31
0.0
0
LINE
8
0
6
CONTINUOUS
10
0.112738
20
0.556214
30
0.0
11
0.114762
21
0.556589
31
0.0
0
LINE
8
0
6
CONTINUOUS
10
0.115207
20
0.556680
30
0.0
11
0.114862
21
0.558561
31
0.0
0
LINE
8
0
6
CONTINUOUS
10
0.114762
20
0.556589
30
0.0
11
0.115207
21
0.556680
31
0.0
0
LINE
8
0
6
CONTINUOUS
10
0.111633
20
0.555322
30
0.0
11
0.113213
21
0.555605
31
0.0
0
LINE
8
0
6
CONTINUOUS
10
0.113213
20
0.555605
30
0.0
11
0.115237
21
0.555980
31
0.0
0
LINE
8
0
6
CONTINUOUS
10
0.115682
20
0.556072
30
0.0
11
0.115336
21
0.557952
31
0.0
0
LINE
8
0
6
CONTINUOUS
10
0.115237
20
0.555980
30
0.0
11
0.115682
21
0.556072
31
0.0
0
LINE
8
0
6
CONTINUOUS
10
0.100516
20
0.556529
30
0.0
11
0.102095
21
0.556812
31
0.0
0
LINE
8
0
6
CONTINUOUS
10
0.100100
20
0.558792
30
0.0
11
0.100516
21
0.556529
31
0.0
0
LINE
8
0
6
CONTINUOUS
10
0.102095
20
0.556812
30
0.0
11
0.104120
21
0.557187
31
0.0
0
LINE
8
0
6
CONTINUOUS
10
0.104564
20
0.557279
30
0.0
11
0.104235
21
0.559070
31
0.0
0
LINE
8
0
6
CONTINUOUS
10
0.104120
20
0.557187
30
0.0
11
0.104564
21
0.557279
31
0.0
0
LINE
8
0
6
CONTINUOUS
10
0.100817
20
0.555656
30
0.0
11
0.102396
21
0.555939
31
0.0
0
LINE
8
0
6
CONTINUOUS
10
0.102396
20
0.555939
30
0.0
11
0.104420
21
0.556314
31
0.0
0
LINE
8
0
6
CONTINUOUS
10
0.104865
20
0.556406
30
0.0
11
0.104524
21
0.558263
31
0.0
0
LINE
8
0
6
CONTINUOUS
10
0.104420
20
0.556314
30
0.0
11
0.104865
21
0.556406
31
0.0
0
LINE
8
0
6
CONTINUOUS
10
0.101563
20
0.554970
30
0.0
11
0.103143
21
0.555253
31
0.0
0
LINE
8
0
6
CONTINUOUS
10
0.101474
20
0.555452
30
0.0
11
0.101563
21
0.554970
31
0.0
0
LINE
8
0
6
CONTINUOUS
10
0.103143
20
0.555253
30
0.0
11
0.105167
21
0.555628
31
0.0
0
LINE
8
0
6
CONTINUOUS
10
0.105611
20
0.555720
30
0.0
11
0.105270
21
0.557576
31
0.0
0
LINE
8
0
6
CONTINUOUS
10
0.105167
20
0.555628
30
0.0
11
0.105611
21
0.555720
31
0.0
0
LINE
8
0
6
CONTINUOUS
10
0.102491
20
0.554401
30
0.0
11
0.104071
21
0.554684
31
0.0
0
LINE
8
0
6
CONTINUOUS
10
0.102284
20
0.555530
30
0.0
11
0.102491
21
0.554401
31
0.0
0
LINE
8
0
6
CONTINUOUS
10
0.104071
20
0.554684
30
0.0
11
0.106095
21
0.555059
31
0.0
0
LINE
8
0
6
CONTINUOUS
10
0.106539
20
0.555151
30
0.0
11
0.106198
21
0.557010
31
0.0
0
LINE
8
0
6
CONTINUOUS
10
0.106095
20
0.555059
30
0.0
11
0.106539
21
0.555151
31
0.0
0
LINE
8
0
6
CONTINUOUS
10
0.091251
20
0.554954
30
0.0
11
0.092831
21
0.555238
31
0.0
0
LINE
8
0
6
CONTINUOUS
10
0.090836
20
0.557218
30
0.0
11
0.091251
21
0.554954
31
0.0
0
LINE
8
0
6
CONTINUOUS
10
0.092831
20
0.555238
30
0.0
11
0.094855
21
0.555612
31
0.0
0
LINE
8
0
6
CONTINUOUS
10
0.095300
20
0.555704
30
0.0
11
0.094972
21
0.557491
31
0.0
0
LINE
8
0
6
CONTINUOUS
10
0.094855
20
0.555612
30
0.0
11
0.095300
21
0.555704
31
0.0
0
LINE
8
0
6
CONTINUOUS
10
0.092192
20
0.554129
30
0.0
11
0.093772
21
0.554412
31
0.0
0
LINE
8
0
6
CONTINUOUS
10
0.092116
20
0.554543
30
0.0
11
0.092192
21
0.554129
31
0.0
0
LINE
8
0
6
CONTINUOUS
10
0.093772
20
0.554412
30
0.0
11
0.095796
21
0.554787
31
0.0
0
LINE
8
0
6
CONTINUOUS
10
0.096241
20
0.554878
30
0.0
11
0.095904
21
0.556710
31
0.0
0
LINE
8
0
6
CONTINUOUS
10
0.095796
20
0.554787
30
0.0
11
0.096241
21
0.554878
31
0.0
0
LINE
8
0
6
CONTINUOUS
10
0.093653
20
0.553572
30
0.0
11
0.095233
21
0.553856
31
0.0
0
LINE
8
0
6
CONTINUOUS
10
0.093451
20
0.554672
30
0.0
11
0.093653
21
0.553572
31
0.0
0
LINE
8
0
6
CONTINUOUS
10
0.095233
20
0.553856
30
0.0
11
0.097257
21
0.554230
31
0.0
0
LINE
8
0
6
CONTINUOUS
10
0.097701
20
0.554322
30
0.0
11
0.097365
21
0.556154
31
0.0
0
LINE
8
0
6
CONTINUOUS
10
0.097257
20
0.554230
30
0.0
11
0.097701
21
0.554322
31
0.0
0
LINE
8
0
6
CONTINUOUS
10
0.083192
20
0.553560
30
0.0
11
0.084733
21
0.553836
31
0.0
0
LINE
8
0
6
CONTINUOUS
10
0.082770
20
0.555859
30
0.0
11
0.083192
21
0.553560
31
0.0
0
LINE
8
0
6
CONTINUOUS
10
0.084772
20
0.553843
30
0.0
11
0.086796
21
0.554218
31
0.0
0
LINE
8
0
6
CONTINUOUS
10
0.087240
20
0.554310
30
0.0
11
0.086919
21
0.556060
31
0.0
0
LINE
8
0
6
CONTINUOUS
10
0.086796
20
0.554218
30
0.0
11
0.087240
21
0.554310
31
0.0
0
LINE
8
0
6
CONTINUOUS
10
0.084922
20
0.552809
30
0.0
11
0.086501
21
0.553092
31
0.0
0
LINE
8
0
6
CONTINUOUS
10
0.084732
20
0.553840
30
0.0
11
0.084922
21
0.552809
31
0.0
0
LINE
8
0
6
CONTINUOUS
10
0.086501
20
0.553092
30
0.0
11
0.088525
21
0.553467
31
0.0
0
LINE
8
0
6
CONTINUOUS
10
0.088970
20
0.553559
30
0.0
11
0.088633
21
0.555391
31
0.0
0
LINE
8
0
6
CONTINUOUS
10
0.088525
20
0.553467
30
0.0
11
0.088970
21
0.553559
31
0.0
0
LINE
8
0
6
CONTINUOUS
10
0.076261
20
0.552288
30
0.0
11
0.077841
21
0.552571
31
0.0
0
LINE
8
0
6
CONTINUOUS
10
0.075835
20
0.554609
30
0.0
11
0.076261
21
0.552288
31
0.0
0
LINE
8
0
6
CONTINUOUS
10
0.077841
20
0.552571
30
0.0
11
0.079865
21
0.552946
31
0.0
0
LINE
8
0
6
CONTINUOUS
10
0.080310
20
0.553037
30
0.0
11
0.079992
21
0.554765
31
0.0
0
LINE
8
0
6
CONTINUOUS
10
0.079865
20
0.552946
30
0.0
11
0.080310
21
0.553037
31
0.0
0
LINE
8
0
6
CONTINUOUS
10
0.143984
20
0.564232
30
0.0
11
0.145802
21
0.564557
31
0.0
0
LINE
8
0
6
CONTINUOUS
10
0.142137
20
0.563919
30
0.0
11
0.143984
21
0.564232
31
0.0
0
LINE
8
0
6
CONTINUOUS
10
0.141763
20
0.566067
30
0.0
11
0.142137
21
0.563919
31
0.0
0
LINE
8
0
6
CONTINUOUS
10
0.144301
20
0.563319
30
0.0
11
0.146113
21
0.563643
31
0.0
0
LINE
8
0
6
CONTINUOUS
10
0.142454
20
0.563007
30
0.0
11
0.144301
21
0.563319
31
0.0
0
LINE
8
0
6
CONTINUOUS
10
0.144263
20
0.562472
30
0.0
11
0.146107
21
0.562802
31
0.0
0
LINE
8
0
6
CONTINUOUS
10
0.142416
20
0.562160
30
0.0
11
0.144263
21
0.562472
31
0.0
0
LINE
8
0
6
CONTINUOUS
10
0.142048
20
0.564272
30
0.0
11
0.142416
21
0.562160
31
0.0
0
LINE
8
0
6
CONTINUOUS
10
0.144425
20
0.561789
30
0.0
11
0.146269
21
0.562119
31
0.0
0
LINE
8
0
6
CONTINUOUS
10
0.142578
20
0.561477
30
0.0
11
0.144425
21
0.561789
31
0.0
0
LINE
8
0
6
CONTINUOUS
10
0.142519
20
0.561814
30
0.0
11
0.142578
21
0.561477
31
0.0
0
LINE
8
0
6
CONTINUOUS
10
0.144345
20
0.561095
30
0.0
11
0.146189
21
0.561425
31
0.0
0
LINE
8
0
6
CONTINUOUS
10
0.142498
20
0.560783
30
0.0
11
0.144345
21
0.561095
31
0.0
0
LINE
8
0
6
CONTINUOUS
10
0.142139
20
0.562847
30
0.0
11
0.142498
21
0.560783
31
0.0
0
LINE
8
0
6
CONTINUOUS
10
0.142133
20
0.560748
30
0.0
11
0.142493
21
0.560809
31
0.0
0
LINE
8
0
6
CONTINUOUS
10
0.141870
20
0.562258
30
0.0
11
0.142133
21
0.560748
31
0.0
0
LINE
8
0
6
CONTINUOUS
10
0.143616
20
0.560703
30
0.0
11
0.145461
21
0.561033
31
0.0
0
LINE
8
0
6
CONTINUOUS
10
0.141769
20
0.560390
30
0.0
11
0.143616
21
0.560703
31
0.0
0
LINE
8
0
6
CONTINUOUS
10
0.141509
20
0.561884
30
0.0
11
0.141769
21
0.560390
31
0.0
0
LINE
8
0
6
CONTINUOUS
10
0.193773
20
0.572991
30
0.0
11
0.195617
21
0.573321
31
0.0
0
LINE
8
0
6
CONTINUOUS
10
0.191926
20
0.572679
30
0.0
11
0.193773
21
0.572991
31
0.0
0
LINE
8
0
6
CONTINUOUS
10
0.191595
20
0.574577
30
0.0
11
0.191926
21
0.572679
31
0.0
0
LINE
8
0
6
CONTINUOUS
10
0.185747
20
0.570598
30
0.0
11
0.187591
21
0.570928
31
0.0
0
LINE
8
0
6
CONTINUOUS
10
0.183900
20
0.570286
30
0.0
11
0.185747
21
0.570598
31
0.0
0
LINE
8
0
6
CONTINUOUS
10
0.183562
20
0.572227
30
0.0
11
0.183900
21
0.570286
31
0.0
0
LINE
8
0
6
CONTINUOUS
10
0.177761
20
0.568410
30
0.0
11
0.179599
21
0.568738
31
0.0
0
LINE
8
0
6
CONTINUOUS
10
0.175914
20
0.568097
30
0.0
11
0.177761
21
0.568410
31
0.0
0
LINE
8
0
6
CONTINUOUS
10
0.175576
20
0.570038
30
0.0
11
0.175914
21
0.568097
31
0.0
0
LINE
8
0
6
CONTINUOUS
10
0.169712
20
0.566255
30
0.0
11
0.171557
21
0.566585
31
0.0
0
LINE
8
0
6
CONTINUOUS
10
0.167865
20
0.565943
30
0.0
11
0.169712
21
0.566255
31
0.0
0
LINE
8
0
6
CONTINUOUS
10
0.167525
20
0.567898
30
0.0
11
0.167865
21
0.565943
31
0.0
0
LINE
8
0
6
CONTINUOUS
10
0.161555
20
0.564138
30
0.0
11
0.163399
21
0.564468
31
0.0
0
LINE
8
0
6
CONTINUOUS
10
0.159708
20
0.563826
30
0.0
11
0.161555
21
0.564138
31
0.0
0
LINE
8
0
6
CONTINUOUS
10
0.159367
20
0.565786
30
0.0
11
0.159708
21
0.563826
31
0.0
0
LINE
8
0
6
CONTINUOUS
10
0.150739
20
0.562269
30
0.0
11
0.151949
21
0.562474
31
0.0
0
LINE
8
0
6
CONTINUOUS
10
0.150481
20
0.563747
30
0.0
11
0.150739
21
0.562269
31
0.0
0
LINE
8
0
6
CONTINUOUS
10
0.188308
20
0.572054
30
0.0
11
0.190131
21
0.572380
31
0.0
0
LINE
8
0
6
CONTINUOUS
10
0.186461
20
0.571741
30
0.0
11
0.188308
21
0.572054
31
0.0
0
LINE
8
0
6
CONTINUOUS
10
0.186131
20
0.573639
30
0.0
11
0.186461
21
0.571741
31
0.0
0
LINE
8
0
6
CONTINUOUS
10
0.180092
20
0.569606
30
0.0
11
0.181936
21
0.569936
31
0.0
0
LINE
8
0
6
CONTINUOUS
10
0.178245
20
0.569293
30
0.0
11
0.180090
21
0.569606
31
0.0
0
LINE
8
0
6
CONTINUOUS
10
0.177901
20
0.571269
30
0.0
11
0.178245
21
0.569293
31
0.0
0
LINE
8
0
6
CONTINUOUS
10
0.171572
20
0.567310
30
0.0
11
0.173416
21
0.567640
31
0.0
0
LINE
8
0
6
CONTINUOUS
10
0.169725
20
0.566998
30
0.0
11
0.171572
21
0.567310
31
0.0
0
LINE
8
0
6
CONTINUOUS
10
0.169380
20
0.568980
30
0.0
11
0.169725
21
0.566998
31
0.0
0
LINE
8
0
6
CONTINUOUS
10
0.162992
20
0.565075
30
0.0
11
0.164836
21
0.565405
31
0.0
0
LINE
8
0
6
CONTINUOUS
10
0.161145
20
0.564763
30
0.0
11
0.162992
21
0.565075
31
0.0
0
LINE
8
0
6
CONTINUOUS
10
0.160799
20
0.566753
30
0.0
11
0.161145
21
0.564763
31
0.0
0
LINE
8
0
6
CONTINUOUS
10
0.153801
20
0.562757
30
0.0
11
0.155646
21
0.563087
31
0.0
0
LINE
8
0
6
CONTINUOUS
10
0.151954
20
0.562445
30
0.0
11
0.153801
21
0.562757
31
0.0
0
LINE
8
0
6
CONTINUOUS
10
0.151601
20
0.564472
30
0.0
11
0.151954
21
0.562445
31
0.0
0
LINE
8
0
6
CONTINUOUS
10
0.181280
20
0.570809
30
0.0
11
0.183124
21
0.571139
31
0.0
0
LINE
8
0
6
CONTINUOUS
10
0.179433
20
0.570497
30
0.0
11
0.181280
21
0.570809
31
0.0
0
LINE
8
0
6
CONTINUOUS
10
0.179092
20
0.572455
30
0.0
11
0.179433
21
0.570497
31
0.0
0
LINE
8
0
6
CONTINUOUS
10
0.172606
20
0.568304
30
0.0
11
0.174451
21
0.568634
31
0.0
0
LINE
8
0
6
CONTINUOUS
10
0.170759
20
0.567991
30
0.0
11
0.172606
21
0.568304
31
0.0
0
LINE
8
0
6
CONTINUOUS
10
0.170414
20
0.569974
30
0.0
11
0.170759
21
0.567991
31
0.0
0
LINE
8
0
6
CONTINUOUS
10
0.163675
20
0.565919
30
0.0
11
0.165519
21
0.566249
31
0.0
0
LINE
8
0
6
CONTINUOUS
10
0.161828
20
0.565607
30
0.0
11
0.163675
21
0.565919
31
0.0
0
LINE
8
0
6
CONTINUOUS
10
0.161476
20
0.567633
30
0.0
11
0.161828
21
0.565607
31
0.0
0
LINE
8
0
6
CONTINUOUS
10
0.154293
20
0.563532
30
0.0
11
0.156138
21
0.563862
31
0.0
0
LINE
8
0
6
CONTINUOUS
10
0.152446
20
0.563220
30
0.0
11
0.154293
21
0.563532
31
0.0
0
LINE
8
0
6
CONTINUOUS
10
0.152094
20
0.565247
30
0.0
11
0.152446
21
0.563220
31
0.0
0
LINE
8
0
6
CONTINUOUS
10
0.173374
20
0.569431
30
0.0
11
0.175219
21
0.569761
31
0.0
0
LINE
8
0
6
CONTINUOUS
10
0.171527
20
0.569119
30
0.0
11
0.173374
21
0.569431
31
0.0
0
LINE
8
0
6
CONTINUOUS
10
0.171175
20
0.571141
30
0.0
11
0.171527
21
0.569119
31
0.0
0
LINE
8
0
6
CONTINUOUS
10
0.164063
20
0.566814
30
0.0
11
0.165907
21
0.567143
31
0.0
0
LINE
8
0
6
CONTINUOUS
10
0.162216
20
0.566501
30
0.0
11
0.164063
21
0.566814
31
0.0
0
LINE
8
0
6
CONTINUOUS
10
0.161863
20
0.568527
30
0.0
11
0.162216
21
0.566501
31
0.0
0
LINE
8
0
6
CONTINUOUS
10
0.154412
20
0.564273
30
0.0
11
0.156256
21
0.564603
31
0.0
0
LINE
8
0
6
CONTINUOUS
10
0.152565
20
0.563961
30
0.0
11
0.154412
21
0.564273
31
0.0
0
LINE
8
0
6
CONTINUOUS
10
0.152204
20
0.566031
30
0.0
11
0.152565
21
0.563961
31
0.0
0
LINE
8
0
6
CONTINUOUS
10
0.164449
20
0.567854
30
0.0
11
0.166294
21
0.568184
31
0.0
0
LINE
8
0
6
CONTINUOUS
10
0.162602
20
0.567542
30
0.0
11
0.164412
21
0.567848
31
0.0
0
LINE
8
0
6
CONTINUOUS
10
0.162249
20
0.569570
30
0.0
11
0.162602
21
0.567542
31
0.0
0
LINE
8
0
6
CONTINUOUS
10
0.154374
20
0.565088
30
0.0
11
0.156181
21
0.565411
31
0.0
0
LINE
8
0
6
CONTINUOUS
10
0.152527
20
0.564776
30
0.0
11
0.154374
21
0.565088
31
0.0
0
LINE
8
0
6
CONTINUOUS
10
0.152167
20
0.566846
30
0.0
11
0.152527
21
0.564776
31
0.0
0
LINE
8
0
6
CONTINUOUS
10
0.154331
20
0.566073
30
0.0
11
0.156175
21
0.566403
31
0.0
0
LINE
8
0
6
CONTINUOUS
10
0.152484
20
0.565761
30
0.0
11
0.154331
21
0.566073
31
0.0
0
LINE
8
0
6
CONTINUOUS
10
0.152121
20
0.567847
30
0.0
11
0.152484
21
0.565761
31
0.0
0
LINE
8
0
6
CONTINUOUS
10
0.197775
20
0.573721
30
0.0
11
0.199619
21
0.574051
31
0.0
0
LINE
8
0
6
CONTINUOUS
10
0.195928
20
0.573408
30
0.0
11
0.197775
21
0.573721
31
0.0
0
LINE
8
0
6
CONTINUOUS
10
0.195607
20
0.575253
30
0.0
11
0.195928
21
0.573408
31
0.0
0
LINE
8
0
6
CONTINUOUS
10
0.189884
20
0.571348
30
0.0
11
0.191729
21
0.571678
31
0.0
0
LINE
8
0
6
CONTINUOUS
10
0.188037
20
0.571036
30
0.0
11
0.189884
21
0.571348
31
0.0
0
LINE
8
0
6
CONTINUOUS
10
0.187764
20
0.572603
30
0.0
11
0.188037
21
0.571036
31
0.0
0
LINE
8
0
6
CONTINUOUS
10
0.182068
20
0.569165
30
0.0
11
0.183912
21
0.569495
31
0.0
0
LINE
8
0
6
CONTINUOUS
10
0.180221
20
0.568853
30
0.0
11
0.182068
21
0.569165
31
0.0
0
LINE
8
0
6
CONTINUOUS
10
0.174320
20
0.567075
30
0.0
11
0.176164
21
0.567405
31
0.0
0
LINE
8
0
6
CONTINUOUS
10
0.172473
20
0.566763
30
0.0
11
0.174320
21
0.567075
31
0.0
0
LINE
8
0
6
CONTINUOUS
10
0.166144
20
0.564934
30
0.0
11
0.167989
21
0.565264
31
0.0
0
LINE
8
0
6
CONTINUOUS
10
0.164297
20
0.564622
30
0.0
11
0.166144
21
0.564934
31
0.0
0
LINE
8
0
6
CONTINUOUS
10
0.157643
20
0.563466
30
0.0
11
0.159488
21
0.563796
31
0.0
0
LINE
8
0
6
CONTINUOUS
10
0.155796
20
0.563154
30
0.0
11
0.157643
21
0.563466
31
0.0
0
LINE
8
0
6
CONTINUOUS
10
0.149417
20
0.561717
30
0.0
11
0.151261
21
0.562047
31
0.0
0
LINE
8
0
6
CONTINUOUS
10
0.147570
20
0.561405
30
0.0
11
0.149417
21
0.561717
31
0.0
0
LINE
8
0
6
CONTINUOUS
10
0.147318
20
0.562855
30
0.0
11
0.147570
21
0.561405
31
0.0
0
LINE
8
0
6
CONTINUOUS
10
0.141305
20
0.560013
30
0.0
11
0.143149
21
0.560343
31
0.0
0
LINE
8
0
6
CONTINUOUS
10
0.139458
20
0.559701
30
0.0
11
0.141305
21
0.560013
31
0.0
0
LINE
8
0
6
CONTINUOUS
10
0.139204
20
0.561163
30
0.0
11
0.139458
21
0.559701
31
0.0
0
LINE
8
0
6
CONTINUOUS
10
0.202192
20
0.574496
30
0.0
11
0.201801
21
0.576827
31
0.0
0
LINE
8
0
6
CONTINUOUS
10
0.200601
20
0.574229
30
0.0
11
0.202192
21
0.574496
31
0.0
0
LINE
8
0
6
CONTINUOUS
10
0.199040
20
0.573967
30
0.0
11
0.200601
21
0.574229
31
0.0
0
LINE
8
0
6
CONTINUOUS
10
0.192860
20
0.571909
30
0.0
11
0.194451
21
0.572176
31
0.0
0
LINE
8
0
6
CONTINUOUS
10
0.191722
20
0.571718
30
0.0
11
0.192860
21
0.571909
31
0.0
0
LINE
8
0
6
CONTINUOUS
10
0.184560
20
0.569616
30
0.0
11
0.186151
21
0.569883
31
0.0
0
LINE
8
0
6
CONTINUOUS
10
0.184031
20
0.569527
30
0.0
11
0.184560
21
0.569616
31
0.0
0
LINE
8
0
6
CONTINUOUS
10
0.176602
20
0.567482
30
0.0
11
0.178192
21
0.567750
31
0.0
0
LINE
8
0
6
CONTINUOUS
10
0.168258
20
0.565309
30
0.0
11
0.169848
21
0.565576
31
0.0
0
LINE
8
0
6
CONTINUOUS
10
0.159363
20
0.563789
30
0.0
11
0.159704
21
0.563846
31
0.0
0
LINE
8
0
6
CONTINUOUS
10
0.151668
20
0.562124
30
0.0
11
0.151619
21
0.562418
31
0.0
0
LINE
8
0
6
CONTINUOUS
10
0.163417
20
0.564465
30
0.0
11
0.163306
21
0.565132
31
0.0
0
LINE
8
0
6
CONTINUOUS
10
0.159364
20
0.563786
30
0.0
11
0.159800
21
0.563859
31
0.0
0
LINE
8
0
6
CONTINUOUS
10
0.155637
20
0.563137
30
0.0
11
0.155795
21
0.563163
31
0.0
0
LINE
8
0
6
CONTINUOUS
10
0.172616
20
0.566768
30
0.0
11
0.174206
21
0.567035
31
0.0
0
LINE
8
0
6
CONTINUOUS
10
0.170589
20
0.566428
30
0.0
11
0.172616
21
0.566768
31
0.0
0
LINE
8
0
6
CONTINUOUS
10
0.164041
20
0.565263
30
0.0
11
0.164148
21
0.564623
31
0.0
0
LINE
8
0
6
CONTINUOUS
10
0.194551
20
0.573120
30
0.0
11
0.195571
21
0.573292
31
0.0
0
LINE
8
0
6
CONTINUOUS
10
0.187585
20
0.570966
30
0.0
11
0.188036
21
0.571042
31
0.0
0
LINE
8
0
6
CONTINUOUS
10
0.179979
20
0.568841
30
0.0
11
0.180415
21
0.568914
31
0.0
0
LINE
8
0
6
CONTINUOUS
10
0.179857
20
0.569566
30
0.0
11
0.179979
21
0.568841
31
0.0
0
LINE
8
0
6
CONTINUOUS
10
0.175882
20
0.567347
30
0.0
11
0.177473
21
0.567614
31
0.0
0
LINE
8
0
6
CONTINUOUS
10
0.195634
20
0.574750
30
0.0
11
0.195852
21
0.573452
31
0.0
0
LINE
8
0
6
CONTINUOUS
10
0.191853
20
0.571692
30
0.0
11
0.193443
21
0.571959
31
0.0
0
LINE
8
0
6
CONTINUOUS
10
0.186194
20
0.569896
30
0.0
11
0.186067
21
0.570656
31
0.0
0
LINE
8
0
6
CONTINUOUS
10
0.186150
20
0.569888
30
0.0
11
0.186194
21
0.569896
31
0.0
0
LINE
8
0
6
CONTINUOUS
10
0.194707
20
0.572189
30
0.0
11
0.194551
21
0.573120
31
0.0
0
LINE
8
0
6
CONTINUOUS
10
0.193117
20
0.571922
30
0.0
11
0.194707
21
0.572189
31
0.0
0
LINE
8
0
6
CONTINUOUS
10
0.191090
20
0.571582
30
0.0
11
0.193117
21
0.571922
31
0.0
0
LINE
8
0
6
CONTINUOUS
10
0.203098
20
0.574615
30
0.0
11
0.202709
21
0.576935
31
0.0
0
LINE
8
0
6
CONTINUOUS
10
0.201508
20
0.574348
30
0.0
11
0.203098
21
0.574615
31
0.0
0
LINE
8
0
6
CONTINUOUS
10
0.199481
20
0.574009
30
0.0
11
0.201508
21
0.574348
31
0.0
0
LINE
8
0
6
CONTINUOUS
10
0.199045
20
0.573936
30
0.0
11
0.199481
21
0.574009
31
0.0
0
LINE
8
0
6
CONTINUOUS
10
0.042208
20
0.567093
30
0.0
11
0.042903
21
0.560531
31
0.0
0
LINE
8
0
6
CONTINUOUS
10
0.218609
20
0.591512
30
0.0
11
0.217018
21
0.597916
31
0.0
0
LINE
8
0
6
CONTINUOUS
10
0.133635
20
0.607327
30
0.0
11
0.133514
21
0.607431
31
0.0
0
LINE
8
0
6
CONTINUOUS
10
0.045182
20
0.560489
30
0.0
11
0.051680
21
0.561635
31
0.0
0
LINE
8
0
6
CONTINUOUS
10
0.217018
20
0.597916
30
0.0
11
0.215397
21
0.602518
31
0.0
0
LINE
8
0
6
CONTINUOUS
10
0.213646
20
0.605960
30
0.0
11
0.211540
21
0.609340
31
0.0
0
LINE
8
0
6
CONTINUOUS
10
0.210095
20
0.611094
30
0.0
11
0.209985
21
0.611228
31
0.0
0
LINE
8
0
6
CONTINUOUS
10
0.209985
20
0.611228
30
0.0
11
0.208829
21
0.612064
31
0.0
0
LINE
8
0
6
CONTINUOUS
10
0.208829
20
0.612064
30
0.0
11
0.207855
21
0.612349
31
0.0
0
LINE
8
0
6
CONTINUOUS
10
0.042158
20
0.571972
30
0.0
11
0.042208
21
0.567093
31
0.0
0
LINE
8
0
6
CONTINUOUS
10
0.043450
20
0.579702
30
0.0
11
0.042626
21
0.575805
31
0.0
0
LINE
8
0
6
CONTINUOUS
10
0.044265
20
0.582008
30
0.0
11
0.044207
21
0.581844
31
0.0
0
LINE
8
0
6
CONTINUOUS
10
0.045065
20
0.583188
30
0.0
11
0.044265
21
0.582008
31
0.0
0
LINE
8
0
6
CONTINUOUS
10
0.045883
20
0.583789
30
0.0
11
0.045065
21
0.583188
31
0.0
0
LINE
8
0
6
CONTINUOUS
10
0.215397
20
0.602518
30
0.0
11
0.213646
21
0.605960
31
0.0
0
LINE
8
0
6
CONTINUOUS
10
0.042626
20
0.575805
30
0.0
11
0.042158
21
0.571972
31
0.0
0
LINE
8
0
6
CONTINUOUS
10
0.092715
20
0.568870
30
0.0
11
0.111284
21
0.572145
31
0.0
0
LINE
8
0
6
CONTINUOUS
10
0.168951
20
0.582313
30
0.0
11
0.185608
21
0.585250
31
0.0
0
LINE
8
0
6
CONTINUOUS
10
0.218685
20
0.591082
30
0.0
11
0.218609
21
0.591512
31
0.0
0
LINE
8
0
6
CONTINUOUS
10
0.051680
20
0.561635
30
0.0
11
0.062147
21
0.563480
31
0.0
0
LINE
8
0
6
CONTINUOUS
10
0.111284
20
0.572145
30
0.0
11
0.130833
21
0.575592
31
0.0
0
LINE
8
0
6
CONTINUOUS
10
0.185608
20
0.585250
30
0.0
11
0.199519
21
0.587703
31
0.0
0
LINE
8
0
6
CONTINUOUS
10
0.130833
20
0.575592
30
0.0
11
0.150382
21
0.579039
31
0.0
0
LINE
8
0
6
CONTINUOUS
10
0.042903
20
0.560531
30
0.0
11
0.042979
21
0.560101
31
0.0
0
LINE
8
0
6
CONTINUOUS
10
0.076058
20
0.565933
30
0.0
11
0.092715
21
0.568870
31
0.0
0
LINE
8
0
6
CONTINUOUS
10
0.150382
20
0.579039
30
0.0
11
0.168951
21
0.582313
31
0.0
0
LINE
8
0
6
CONTINUOUS
10
0.082555
20
0.556896
30
0.0
11
0.097766
21
0.559578
31
0.0
0
LINE
8
0
6
CONTINUOUS
10
0.043047
20
0.559715
30
0.0
11
0.043128
21
0.559260
31
0.0
0
LINE
8
0
6
CONTINUOUS
10
0.092783
20
0.568485
30
0.0
11
0.076126
21
0.565547
31
0.0
0
LINE
8
0
6
CONTINUOUS
10
0.216551
20
0.590308
30
0.0
11
0.210054
21
0.589162
31
0.0
0
LINE
8
0
6
CONTINUOUS
10
0.076126
20
0.565547
30
0.0
11
0.062215
21
0.563095
31
0.0
0
LINE
8
0
6
CONTINUOUS
10
0.150450
20
0.578653
30
0.0
11
0.130901
21
0.575206
31
0.0
0
LINE
8
0
6
CONTINUOUS
10
0.210054
20
0.589162
30
0.0
11
0.199587
21
0.587317
31
0.0
0
LINE
8
0
6
CONTINUOUS
10
0.062215
20
0.563095
30
0.0
11
0.051748
21
0.561249
31
0.0
0
LINE
8
0
6
CONTINUOUS
10
0.130901
20
0.575206
30
0.0
11
0.111352
21
0.571759
31
0.0
0
LINE
8
0
6
CONTINUOUS
10
0.199587
20
0.587317
30
0.0
11
0.185677
21
0.584864
31
0.0
0
LINE
8
0
6
CONTINUOUS
10
0.111352
20
0.571759
30
0.0
11
0.092783
21
0.568485
31
0.0
0
LINE
8
0
6
CONTINUOUS
10
0.218834
20
0.590241
30
0.0
11
0.218753
21
0.590696
31
0.0
0
LINE
8
0
6
CONTINUOUS
10
0.218753
20
0.590696
30
0.0
11
0.216551
21
0.590308
31
0.0
0
LINE
8
0
6
CONTINUOUS
10
0.150426
20
0.568863
30
0.0
11
0.167383
21
0.571853
31
0.0
0
LINE
8
0
6
CONTINUOUS
10
0.204855
20
0.578460
30
0.0
11
0.210788
21
0.579506
31
0.0
0
LINE
8
0
6
CONTINUOUS
10
0.069851
20
0.554656
30
0.0
11
0.082555
21
0.556896
31
0.0
0
LINE
8
0
6
CONTINUOUS
10
0.132575
20
0.565715
30
0.0
11
0.150426
21
0.568863
31
0.0
0
LINE
8
0
6
CONTINUOUS
10
0.195297
20
0.576775
30
0.0
11
0.204855
21
0.578460
31
0.0
0
LINE
8
0
6
CONTINUOUS
10
0.060293
20
0.552971
30
0.0
11
0.069851
21
0.554656
31
0.0
0
LINE
8
0
6
CONTINUOUS
10
0.114723
20
0.562568
30
0.0
11
0.132575
21
0.565715
31
0.0
0
LINE
8
0
6
CONTINUOUS
10
0.182594
20
0.574535
30
0.0
11
0.195295
21
0.576775
31
0.0
0
LINE
8
0
6
CONTINUOUS
10
0.054360
20
0.551924
30
0.0
11
0.060293
21
0.552971
31
0.0
0
LINE
8
0
6
CONTINUOUS
10
0.097766
20
0.559578
30
0.0
11
0.114710
21
0.562565
31
0.0
0
LINE
8
0
6
CONTINUOUS
10
0.167383
20
0.571853
30
0.0
11
0.182594
21
0.574535
31
0.0
0
LINE
8
0
6
CONTINUOUS
10
0.212799
20
0.579861
30
0.0
11
0.215097
21
0.581763
31
0.0
0
LINE
8
0
6
CONTINUOUS
10
0.210788
20
0.579506
30
0.0
11
0.212799
21
0.579861
31
0.0
0
LINE
8
0
6
CONTINUOUS
10
0.043128
20
0.559260
30
0.0
11
0.043696
21
0.557685
31
0.0
0
LINE
8
0
6
CONTINUOUS
10
0.043696
20
0.557685
30
0.0
11
0.044520
21
0.556153
31
0.0
0
LINE
8
0
6
CONTINUOUS
10
0.045587
20
0.554899
30
0.0
11
0.046909
21
0.553892
31
0.0
0
LINE
8
0
6
CONTINUOUS
10
0.046909
20
0.553892
30
0.0
11
0.049539
21
0.552571
31
0.0
0
LINE
8
0
6
CONTINUOUS
10
0.218838
20
0.588567
30
0.0
11
0.218834
21
0.590241
31
0.0
0
LINE
8
0
6
CONTINUOUS
10
0.218587
20
0.586845
30
0.0
11
0.218838
21
0.588567
31
0.0
0
LINE
8
0
6
CONTINUOUS
10
0.217116
20
0.583904
30
0.0
11
0.218014
21
0.585302
31
0.0
0
LINE
8
0
6
CONTINUOUS
10
0.215097
20
0.581763
30
0.0
11
0.217116
21
0.583904
31
0.0
0
LINE
8
0
6
CONTINUOUS
10
0.044520
20
0.556153
30
0.0
11
0.045587
21
0.554899
31
0.0
0
LINE
8
0
6
CONTINUOUS
10
0.218014
20
0.585302
30
0.0
11
0.218587
21
0.586845
31
0.0
0
LINE
8
0
6
CONTINUOUS
10
0.062147
20
0.563480
30
0.0
11
0.062258
21
0.563500
31
0.0
0
LINE
8
0
6
CONTINUOUS
10
0.076146
20
0.565949
30
0.0
11
0.076058
21
0.565933
31
0.0
0
LINE
8
0
6
CONTINUOUS
10
0.185677
20
0.584864
30
0.0
11
0.185598
21
0.584850
31
0.0
0
LINE
8
0
6
CONTINUOUS
10
0.207855
20
0.612349
30
0.0
11
0.207464
21
0.612310
31
0.0
0
LINE
8
0
6
CONTINUOUS
10
0.046263
20
0.583886
30
0.0
11
0.045883
21
0.583789
31
0.0
0
LINE
8
0
6
CONTINUOUS
10
0.117423
20
0.604594
30
0.0
11
0.117345
21
0.604455
31
0.0
0
LINE
8
0
6
CONTINUOUS
10
0.135897
20
0.611970
30
0.0
11
0.136015
21
0.612193
31
0.0
0
LINE
8
0
6
CONTINUOUS
10
0.113444
20
0.608214
30
0.0
11
0.113631
21
0.608044
31
0.0
0
LINE
8
0
6
CONTINUOUS
10
0.119980
20
0.622453
30
0.0
11
0.117595
21
0.622032
31
0.0
0
LINE
8
0
6
CONTINUOUS
10
0.133777
20
0.624886
30
0.0
11
0.133494
21
0.624836
31
0.0
0
LINE
8
0
6
CONTINUOUS
10
0.133841
20
0.624521
30
0.0
11
0.133777
21
0.624886
31
0.0
0
LINE
8
0
6
CONTINUOUS
10
0.111206
20
0.620906
30
0.0
11
0.111270
21
0.620542
31
0.0
0
LINE
8
0
6
CONTINUOUS
10
0.127388
20
0.623759
30
0.0
11
0.125003
21
0.623339
31
0.0
0
LINE
8
0
6
CONTINUOUS
10
0.133494
20
0.624836
30
0.0
11
0.132659
21
0.624689
31
0.0
0
LINE
8
0
6
CONTINUOUS
10
0.125003
20
0.623339
30
0.0
11
0.122492
21
0.622896
31
0.0
0
LINE
8
0
6
CONTINUOUS
10
0.113668
20
0.621340
30
0.0
11
0.112323
21
0.621103
31
0.0
0
LINE
8
0
6
CONTINUOUS
10
0.122492
20
0.622896
30
0.0
11
0.119980
21
0.622453
31
0.0
0
LINE
8
0
6
CONTINUOUS
10
0.136015
20
0.612193
30
0.0
11
0.135978
21
0.612401
31
0.0
0
LINE
8
0
6
CONTINUOUS
10
0.113407
20
0.608421
30
0.0
11
0.113444
21
0.608214
31
0.0
0
LINE
8
0
6
CONTINUOUS
10
0.136774
20
0.605315
30
0.0
11
0.136052
21
0.605244
31
0.0
0
LINE
8
0
6
CONTINUOUS
10
0.115786
20
0.601670
30
0.0
11
0.115083
21
0.601490
31
0.0
0
LINE
8
0
6
CONTINUOUS
10
0.207464
20
0.612310
30
0.0
11
0.136774
21
0.605315
31
0.0
0
LINE
8
0
6
CONTINUOUS
10
0.115083
20
0.601490
30
0.0
11
0.046263
21
0.583886
31
0.0
0
LINE
8
0
6
CONTINUOUS
10
0.211540
20
0.609340
30
0.0
11
0.210095
21
0.611094
31
0.0
0
LINE
8
0
6
CONTINUOUS
10
0.044207
20
0.581844
30
0.0
11
0.043450
21
0.579702
31
0.0
0
LINE
8
0
6
CONTINUOUS
10
0.135978
20
0.612401
30
0.0
11
0.133841
21
0.624521
31
0.0
0
LINE
8
0
6
CONTINUOUS
10
0.111270
20
0.620542
30
0.0
11
0.113407
21
0.608421
31
0.0
0
LINE
8
0
6
CONTINUOUS
10
0.133599
20
0.607593
30
0.0
11
0.135897
21
0.611970
31
0.0
0
LINE
8
0
6
CONTINUOUS
10
0.113631
20
0.608044
30
0.0
11
0.117287
21
0.604717
31
0.0
0
LINE
8
0
6
CONTINUOUS
10
0.136052
20
0.605244
30
0.0
11
0.135921
21
0.605357
31
0.0
0
LINE
8
0
6
CONTINUOUS
10
0.115870
20
0.601822
30
0.0
11
0.115786
21
0.601670
31
0.0
0
LINE
8
0
6
CONTINUOUS
10
0.135921
20
0.605357
30
0.0
11
0.133635
21
0.607327
31
0.0
0
LINE
8
0
6
CONTINUOUS
10
0.117345
20
0.604455
30
0.0
11
0.115870
21
0.601822
31
0.0
0
LINE
8
0
6
CONTINUOUS
10
0.133514
20
0.607431
30
0.0
11
0.133599
21
0.607593
31
0.0
0
LINE
8
0
6
CONTINUOUS
10
0.117287
20
0.604717
30
0.0
11
0.117423
21
0.604594
31
0.0
0
LINE
8
0
6
CONTINUOUS
10
0.052348
20
0.551570
30
0.0
11
0.054360
21
0.551924
31
0.0
0
LINE
8
0
6
CONTINUOUS
10
0.049539
20
0.552571
30
0.0
11
0.052348
21
0.551570
31
0.0
0
LINE
8
0
6
CONTINUOUS
10
0.043764
20
0.560239
30
0.0
11
0.043832
21
0.559853
31
0.0
0
LINE
8
0
6
CONTINUOUS
10
0.217969
20
0.590558
30
0.0
11
0.217901
21
0.590944
31
0.0
0
LINE
8
0
6
CONTINUOUS
10
-0.135957
20
-0.471889
30
0.0
11
-0.134832
21
-0.456134
31
0.0
0
LINE
8
0
6
CONTINUOUS
10
-0.152774
20
-0.472122
30
0.0
11
-0.151374
21
-0.472122
31
0.0
0
LINE
8
0
6
CONTINUOUS
10
-0.153674
20
-0.472122
30
0.0
11
-0.152774
21
-0.472122
31
0.0
0
LINE
8
0
6
CONTINUOUS
10
-0.153990
20
-0.471889
30
0.0
11
-0.153974
21
-0.472122
31
0.0
0
LINE
8
0
6
CONTINUOUS
10
-0.153974
20
-0.472122
30
0.0
11
-0.153674
21
-0.472122
31
0.0
0
LINE
8
0
6
CONTINUOUS
10
-0.149474
20
-0.472122
30
0.0
11
-0.147274
21
-0.472122
31
0.0
0
LINE
8
0
6
CONTINUOUS
10
-0.155116
20
-0.456134
30
0.0
11
-0.153990
21
-0.471889
31
0.0
0
LINE
8
0
6
CONTINUOUS
10
-0.142674
20
-0.472122
30
0.0
11
-0.140474
21
-0.472122
31
0.0
0
LINE
8
0
6
CONTINUOUS
10
-0.140474
20
-0.472122
30
0.0
11
-0.138574
21
-0.472122
31
0.0
0
LINE
8
0
6
CONTINUOUS
10
-0.136274
20
-0.472122
30
0.0
11
-0.135974
21
-0.472122
31
0.0
0
LINE
8
0
6
CONTINUOUS
10
-0.135974
20
-0.472122
30
0.0
11
-0.135957
21
-0.471889
31
0.0
0
LINE
8
0
6
CONTINUOUS
10
-0.137174
20
-0.472122
30
0.0
11
-0.136274
21
-0.472122
31
0.0
0
LINE
8
0
6
CONTINUOUS
10
-0.138574
20
-0.472122
30
0.0
11
-0.137174
21
-0.472122
31
0.0
0
LINE
8
0
6
CONTINUOUS
10
-0.144974
20
-0.472122
30
0.0
11
-0.142674
21
-0.472122
31
0.0
0
LINE
8
0
6
CONTINUOUS
10
-0.151374
20
-0.472122
30
0.0
11
-0.149474
21
-0.472122
31
0.0
0
LINE
8
0
6
CONTINUOUS
10
-0.147274
20
-0.472122
30
0.0
11
-0.144974
21
-0.472122
31
0.0
0
LINE
8
0
6
CONTINUOUS
10
-0.151468
20
-0.472122
30
0.0
11
-0.151468
21
-0.507228
31
0.0
0
LINE
8
0
6
CONTINUOUS
10
-0.138268
20
-0.507119
30
0.0
11
-0.138268
21
-0.472134
31
0.0
0
LINE
8
0
6
CONTINUOUS
10
-0.137856
20
-0.541961
30
0.0
11
-0.138268
21
-0.507119
31
0.0
0
LINE
8
0
6
CONTINUOUS
10
-0.151468
20
-0.507228
30
0.0
11
-0.151056
21
-0.542001
31
0.0
0
LINE
8
0
6
CONTINUOUS
10
-0.138004
20
-0.574979
30
0.0
11
-0.137856
21
-0.541961
31
0.0
0
LINE
8
0
6
CONTINUOUS
10
-0.151056
20
-0.542001
30
0.0
11
-0.151199
21
-0.574624
31
0.0
0
LINE
8
0
6
CONTINUOUS
10
-0.139369
20
-0.602073
30
0.0
11
-0.138004
21
-0.574979
31
0.0
0
LINE
8
0
6
CONTINUOUS
10
-0.151199
20
-0.574624
30
0.0
11
-0.152522
21
-0.601034
31
0.0
0
LINE
8
0
6
CONTINUOUS
10
-0.142133
20
-0.621853
30
0.0
11
-0.139369
21
-0.602073
31
0.0
0
LINE
8
0
6
CONTINUOUS
10
-0.152522
20
-0.601034
30
0.0
11
-0.155185
21
-0.620111
31
0.0
0
LINE
8
0
6
CONTINUOUS
10
-0.146004
20
-0.634203
30
0.0
11
-0.142133
21
-0.621853
31
0.0
0
LINE
8
0
6
CONTINUOUS
10
-0.155185
20
-0.620111
30
0.0
11
-0.158920
21
-0.631954
31
0.0
0
LINE
8
0
6
CONTINUOUS
10
-0.150478
20
-0.642463
30
0.0
11
-0.146004
21
-0.634203
31
0.0
0
LINE
8
0
6
CONTINUOUS
10
-0.152913
20
-0.646380
30
0.0
11
-0.150478
21
-0.642463
31
0.0
0
LINE
8
0
6
CONTINUOUS
10
-0.158920
20
-0.631954
30
0.0
11
-0.163261
21
-0.639927
31
0.0
0
LINE
8
0
6
CONTINUOUS
10
-0.161562
20
-0.636806
30
0.0
11
-0.165126
21
-0.640662
31
0.0
0
LINE
8
0
6
CONTINUOUS
10
-0.157727
20
-0.651593
30
0.0
11
-0.152913
21
-0.646380
31
0.0
0
LINE
8
0
6
CONTINUOUS
10
-0.162531
20
-0.652528
30
0.0
11
-0.157727
21
-0.651593
31
0.0
0
LINE
8
0
6
CONTINUOUS
10
-0.167161
20
-0.653167
30
0.0
11
-0.162531
21
-0.652528
31
0.0
0
LINE
8
0
6
CONTINUOUS
10
-0.164683
20
-0.640183
30
0.0
11
-0.167725
21
-0.639323
31
0.0
0
LINE
8
0
6
CONTINUOUS
10
-0.171189
20
-0.651560
30
0.0
11
-0.167161
21
-0.653167
31
0.0
0
LINE
8
0
6
CONTINUOUS
10
-0.175109
20
-0.648847
30
0.0
11
-0.171189
21
-0.651560
31
0.0
0
LINE
8
0
6
CONTINUOUS
10
-0.164963
20
-0.640104
30
0.0
11
-0.166548
21
-0.637459
31
0.0
0
LINE
8
0
6
CONTINUOUS
10
-0.178168
20
-0.643390
30
0.0
11
-0.175109
21
-0.648847
31
0.0
0
LINE
8
0
6
CONTINUOUS
10
-0.166548
20
-0.637459
30
0.0
11
-0.168449
21
-0.628355
31
0.0
0
LINE
8
0
6
CONTINUOUS
10
-0.180263
20
-0.633121
30
0.0
11
-0.178168
21
-0.643390
31
0.0
0
LINE
8
0
6
CONTINUOUS
10
-0.180581
20
-0.629585
30
0.0
11
-0.180263
21
-0.633121
31
0.0
0
LINE
8
0
6
CONTINUOUS
10
-0.181740
20
-0.613500
30
0.0
11
-0.180581
21
-0.629585
31
0.0
0
LINE
8
0
6
CONTINUOUS
10
-0.168353
20
-0.628815
30
0.0
11
-0.169310
21
-0.615552
31
0.0
0
LINE
8
0
6
CONTINUOUS
10
-0.182295
20
-0.586452
30
0.0
11
-0.181740
21
-0.613500
31
0.0
0
LINE
8
0
6
CONTINUOUS
10
-0.169310
20
-0.615552
30
0.0
11
-0.169877
21
-0.588147
31
0.0
0
LINE
8
0
6
CONTINUOUS
10
-0.182520
20
-0.565092
30
0.0
11
-0.182295
21
-0.586452
31
0.0
0
LINE
8
0
6
CONTINUOUS
10
-0.169877
20
-0.588147
30
0.0
11
-0.170109
21
-0.566331
31
0.0
0
LINE
8
0
6
CONTINUOUS
10
-0.182658
20
-0.516595
30
0.0
11
-0.182520
21
-0.565092
31
0.0
0
LINE
8
0
6
CONTINUOUS
10
-0.170109
20
-0.566331
30
0.0
11
-0.170250
21
-0.517338
31
0.0
0
LINE
8
0
6
CONTINUOUS
10
-0.182907
20
-0.488367
30
0.0
11
-0.182658
21
-0.516595
31
0.0
0
LINE
8
0
6
CONTINUOUS
10
-0.170250
20
-0.517338
30
0.0
11
-0.170503
21
-0.488669
31
0.0
0
LINE
8
0
6
CONTINUOUS
10
-0.183421
20
-0.454310
30
0.0
11
-0.182907
21
-0.488367
31
0.0
0
LINE
8
0
6
CONTINUOUS
10
-0.170503
20
-0.488669
30
0.0
11
-0.171022
21
-0.454290
31
0.0
0
LINE
8
0
6
CONTINUOUS
10
-0.184288
20
-0.413177
30
0.0
11
-0.184081
21
-0.423005
31
0.0
0
LINE
8
0
6
CONTINUOUS
10
-0.183443
20
-0.453272
30
0.0
11
-0.183421
21
-0.454310
31
0.0
0
LINE
8
0
6
CONTINUOUS
10
-0.171022
20
-0.454290
30
0.0
11
-0.171067
21
-0.452148
31
0.0
0
LINE
8
0
6
CONTINUOUS
10
-0.171657
20
-0.424148
30
0.0
11
-0.171893
21
-0.412947
31
0.0
0
LINE
8
0
6
CONTINUOUS
10
-0.185501
20
-0.365506
30
0.0
11
-0.184288
21
-0.413177
31
0.0
0
LINE
8
0
6
CONTINUOUS
10
-0.171893
20
-0.412947
30
0.0
11
-0.173111
21
-0.365127
31
0.0
0
LINE
8
0
6
CONTINUOUS
10
-0.186961
20
-0.313696
30
0.0
11
-0.185501
21
-0.365506
31
0.0
0
LINE
8
0
6
CONTINUOUS
10
-0.173111
20
-0.365127
30
0.0
11
-0.174574
21
-0.313183
31
0.0
0
LINE
8
0
6
CONTINUOUS
10
-0.188476
20
-0.261841
30
0.0
11
-0.186961
21
-0.313696
31
0.0
0
LINE
8
0
6
CONTINUOUS
10
-0.174574
20
-0.313183
30
0.0
11
-0.176094
21
-0.261168
31
0.0
0
LINE
8
0
6
CONTINUOUS
10
-0.189829
20
-0.213793
30
0.0
11
-0.188476
21
-0.261841
31
0.0
0
LINE
8
0
6
CONTINUOUS
10
-0.176094
20
-0.261168
30
0.0
11
-0.177452
21
-0.212912
31
0.0
0
LINE
8
0
6
CONTINUOUS
10
-0.190833
20
-0.171237
30
0.0
11
-0.189829
21
-0.213793
31
0.0
0
LINE
8
0
6
CONTINUOUS
10
-0.177452
20
-0.212912
30
0.0
11
-0.178461
21
-0.170105
31
0.0
0
LINE
8
0
6
CONTINUOUS
10
-0.191339
20
-0.133505
30
0.0
11
-0.190833
21
-0.171237
31
0.0
0
LINE
8
0
6
CONTINUOUS
10
-0.178461
20
-0.170105
30
0.0
11
-0.178971
21
-0.132136
31
0.0
0
LINE
8
0
6
CONTINUOUS
10
-0.191238
20
-0.097760
30
0.0
11
-0.191339
21
-0.133505
31
0.0
0
LINE
8
0
6
CONTINUOUS
10
-0.178971
20
-0.132136
30
0.0
11
-0.178869
21
-0.096254
31
0.0
0
LINE
8
0
6
CONTINUOUS
10
-0.190491
20
-0.060977
30
0.0
11
-0.191238
21
-0.097760
31
0.0
0
LINE
8
0
6
CONTINUOUS
10
-0.178869
20
-0.096254
30
0.0
11
-0.178122
21
-0.059469
31
0.0
0
LINE
8
0
6
CONTINUOUS
10
-0.189172
20
-0.021880
30
0.0
11
-0.190491
21
-0.060977
31
0.0
0
LINE
8
0
6
CONTINUOUS
10
-0.178122
20
-0.059469
30
0.0
11
-0.176807
21
-0.020482
31
0.0
0
LINE
8
0
6
CONTINUOUS
10
-0.187464
20
0.018927
30
0.0
11
-0.189172
21
-0.021880
31
0.0
0
LINE
8
0
6
CONTINUOUS
10
-0.176807
20
-0.020482
30
0.0
11
-0.175108
21
0.020086
31
0.0
0
LINE
8
0
6
CONTINUOUS
10
-0.185480
20
0.059398
30
0.0
11
-0.187464
21
0.018927
31
0.0
0
LINE
8
0
6
CONTINUOUS
10
-0.175108
20
0.020086
30
0.0
11
-0.173169
21
0.059844
31
0.0
0
LINE
8
0
6
CONTINUOUS
10
-0.169343
20
0.097003
30
0.0
11
-0.167717
21
0.102827
31
0.0
0
LINE
8
0
6
CONTINUOUS
10
-0.169285
20
0.142824
30
0.0
11
-0.181252
21
0.100070
31
0.0
0
LINE
8
0
6
CONTINUOUS
10
-0.169068
20
0.143229
30
0.0
11
-0.169285
21
0.142824
31
0.0
0
LINE
8
0
6
CONTINUOUS
10
-0.127228
20
-0.454705
30
0.0
11
-0.127228
21
-0.453010
31
0.0
0
LINE
8
0
6
CONTINUOUS
10
-0.127228
20
-0.423258
30
0.0
11
-0.127228
21
-0.421563
31
0.0
0
LINE
8
0
6
CONTINUOUS
10
-0.127228
20
-0.456884
30
0.0
11
-0.127228
21
-0.455318
31
0.0
0
LINE
8
0
6
CONTINUOUS
10
-0.127228
20
-0.459046
30
0.0
11
-0.127228
21
-0.456884
31
0.0
0
LINE
8
0
6
CONTINUOUS
10
-0.127228
20
-0.464046
30
0.0
11
-0.127228
21
-0.459046
31
0.0
0
LINE
8
0
6
CONTINUOUS
10
-0.127228
20
-0.470149
30
0.0
11
-0.127228
21
-0.467796
31
0.0
0
LINE
8
0
6
CONTINUOUS
10
-0.127228
20
-0.467796
30
0.0
11
-0.127228
21
-0.464046
31
0.0
0
LINE
8
0
6
CONTINUOUS
10
-0.170704
20
-0.429187
30
0.0
11
-0.170704
21
-0.433528
31
0.0
0
LINE
8
0
6
CONTINUOUS
10
-0.170704
20
-0.457370
30
0.0
11
-0.170704
21
-0.459561
31
0.0
0
LINE
8
0
6
CONTINUOUS
10
-0.127613
20
-0.455888
30
0.0
11
-0.127228
21
-0.455340
31
0.0
0
LINE
8
0
6
CONTINUOUS
10
-0.127613
20
-0.471766
30
0.0
11
-0.127228
21
-0.471031
31
0.0
0
LINE
8
0
6
CONTINUOUS
10
-0.127228
20
-0.471031
30
0.0
11
-0.127228
21
-0.470149
31
0.0
0
LINE
8
0
6
CONTINUOUS
10
-0.128382
20
-0.472134
30
0.0
11
-0.127613
21
-0.471766
31
0.0
0
LINE
8
0
6
CONTINUOUS
10
-0.169665
20
-0.472134
30
0.0
11
-0.151468
21
-0.472134
31
0.0
0
LINE
8
0
6
CONTINUOUS
10
-0.138268
20
-0.472134
30
0.0
11
-0.128382
21
-0.472134
31
0.0
0
LINE
8
0
6
CONTINUOUS
10
-0.170704
20
-0.459561
30
0.0
11
-0.170704
21
-0.464781
31
0.0
0
LINE
8
0
6
CONTINUOUS
10
-0.127228
20
-0.429557
30
0.0
11
-0.127228
21
-0.425957
31
0.0
0
LINE
8
0
6
CONTINUOUS
10
-0.127228
20
-0.433687
30
0.0
11
-0.127228
21
-0.429557
31
0.0
0
LINE
8
0
6
CONTINUOUS
10
-0.127228
20
-0.438134
30
0.0
11
-0.127228
21
-0.433687
31
0.0
0
LINE
8
0
6
CONTINUOUS
10
-0.127228
20
-0.425957
30
0.0
11
-0.127228
21
-0.423258
31
0.0
0
LINE
8
0
6
CONTINUOUS
10
-0.127228
20
-0.421563
30
0.0
11
-0.127228
21
-0.420928
31
0.0
0
LINE
8
0
6
CONTINUOUS
10
-0.127228
20
-0.420928
30
0.0
11
-0.127613
21
-0.420399
31
0.0
0
LINE
8
0
6
CONTINUOUS
10
-0.170704
20
-0.422569
30
0.0
11
-0.170704
21
-0.425428
31
0.0
0
LINE
8
0
6
CONTINUOUS
10
-0.170704
20
-0.420769
30
0.0
11
-0.170704
21
-0.422569
31
0.0
0
LINE
8
0
6
CONTINUOUS
10
-0.127613
20
-0.420399
30
0.0
11
-0.128382
21
-0.420134
31
0.0
0
LINE
8
0
6
CONTINUOUS
10
-0.127228
20
-0.453010
30
0.0
11
-0.127228
21
-0.450311
31
0.0
0
LINE
8
0
6
CONTINUOUS
10
-0.127228
20
-0.455340
30
0.0
11
-0.127228
21
-0.454705
31
0.0
0
LINE
8
0
6
CONTINUOUS
10
-0.170704
20
-0.420134
30
0.0
11
-0.170704
21
-0.420769
31
0.0
0
LINE
8
0
6
CONTINUOUS
10
-0.169665
20
-0.420134
30
0.0
11
-0.170704
21
-0.420134
31
0.0
0
LINE
8
0
6
CONTINUOUS
10
-0.127228
20
-0.450311
30
0.0
11
-0.127228
21
-0.446711
31
0.0
0
LINE
8
0
6
CONTINUOUS
10
-0.127228
20
-0.446711
30
0.0
11
-0.127228
21
-0.442581
31
0.0
0
LINE
8
0
6
CONTINUOUS
10
-0.127228
20
-0.442581
30
0.0
11
-0.127228
21
-0.438134
31
0.0
0
LINE
8
0
6
CONTINUOUS
10
-0.169665
20
-0.456134
30
0.0
11
-0.128382
21
-0.456134
31
0.0
0
LINE
8
0
6
CONTINUOUS
10
-0.170704
20
-0.447081
30
0.0
11
-0.170704
21
-0.450840
31
0.0
0
LINE
8
0
6
CONTINUOUS
10
-0.170704
20
-0.442740
30
0.0
11
-0.170704
21
-0.447081
31
0.0
0
LINE
8
0
6
CONTINUOUS
10
-0.170704
20
-0.438134
30
0.0
11
-0.170704
21
-0.442740
31
0.0
0
LINE
8
0
6
CONTINUOUS
10
-0.170704
20
-0.455499
30
0.0
11
-0.170704
21
-0.456134
31
0.0
0
LINE
8
0
6
CONTINUOUS
10
-0.170704
20
-0.456134
30
0.0
11
-0.169665
21
-0.456134
31
0.0
0
LINE
8
0
6
CONTINUOUS
10
-0.170704
20
-0.453699
30
0.0
11
-0.170704
21
-0.455499
31
0.0
0
LINE
8
0
6
CONTINUOUS
10
-0.170704
20
-0.450840
30
0.0
11
-0.170704
21
-0.453699
31
0.0
0
LINE
8
0
6
CONTINUOUS
10
-0.128382
20
-0.420134
30
0.0
11
-0.169665
21
-0.420134
31
0.0
0
LINE
8
0
6
CONTINUOUS
10
-0.170704
20
-0.433528
30
0.0
11
-0.170704
21
-0.438134
31
0.0
0
LINE
8
0
6
CONTINUOUS
10
-0.170704
20
-0.425428
30
0.0
11
-0.170704
21
-0.429187
31
0.0
0
LINE
8
0
6
CONTINUOUS
10
-0.170704
20
-0.471252
30
0.0
11
-0.170704
21
-0.472134
31
0.0
0
LINE
8
0
6
CONTINUOUS
10
-0.170704
20
-0.472134
30
0.0
11
-0.169665
21
-0.472134
31
0.0
0
LINE
8
0
6
CONTINUOUS
10
-0.170704
20
-0.468752
30
0.0
11
-0.170704
21
-0.471252
31
0.0
0
LINE
8
0
6
CONTINUOUS
10
-0.170704
20
-0.464781
30
0.0
11
-0.170704
21
-0.468752
31
0.0
0
LINE
8
0
6
CONTINUOUS
10
-0.170704
20
-0.456134
30
0.0
11
-0.170704
21
-0.457370
31
0.0
0
LINE
8
0
6
CONTINUOUS
10
-0.136230
20
-0.393484
30
0.0
11
-0.137374
21
-0.392786
31
0.0
0
LINE
8
0
6
CONTINUOUS
10
-0.137823
20
-0.392781
30
0.0
11
-0.144808
21
-0.392555
31
0.0
0
LINE
8
0
6
CONTINUOUS
10
-0.213028
20
-0.403547
30
0.0
11
-0.213331
21
-0.403245
31
0.0
0
LINE
8
0
6
CONTINUOUS
10
-0.144808
20
-0.392555
30
0.0
11
-0.151793
21
-0.392781
31
0.0
0
LINE
8
0
6
CONTINUOUS
10
-0.213331
20
-0.473023
30
0.0
11
-0.213028
21
-0.472722
31
0.0
0
LINE
8
0
6
CONTINUOUS
10
-0.214724
20
-0.473544
30
0.0
11
-0.214373
21
-0.473544
31
0.0
0
LINE
8
0
6
CONTINUOUS
10
-0.214373
20
-0.473544
30
0.0
11
-0.213331
21
-0.473023
31
0.0
0
LINE
8
0
6
CONTINUOUS
10
-0.193760
20
-0.451498
30
0.0
11
-0.193760
21
-0.449073
31
0.0
0
LINE
8
0
6
CONTINUOUS
10
-0.193760
20
-0.438134
30
0.0
11
-0.193760
21
-0.434139
31
0.0
0
LINE
8
0
6
CONTINUOUS
10
-0.193760
20
-0.434139
30
0.0
11
-0.193760
21
-0.430430
31
0.0
0
LINE
8
0
6
CONTINUOUS
10
-0.193760
20
-0.452149
30
0.0
11
-0.189016
21
-0.452149
31
0.0
0
LINE
8
0
6
CONTINUOUS
10
-0.173937
20
-0.452148
30
0.0
11
-0.170704
21
-0.452148
31
0.0
0
LINE
8
0
6
CONTINUOUS
10
-0.170704
20
-0.424148
30
0.0
11
-0.173937
21
-0.424148
31
0.0
0
LINE
8
0
6
CONTINUOUS
10
-0.189016
20
-0.424149
30
0.0
11
-0.193759
21
-0.424149
31
0.0
0
LINE
8
0
6
CONTINUOUS
10
-0.101908
20
-0.455424
30
0.0
11
-0.101908
21
-0.450491
31
0.0
0
LINE
8
0
6
CONTINUOUS
10
-0.102907
20
-0.466683
30
0.0
11
-0.102652
21
-0.466683
31
0.0
0
LINE
8
0
6
CONTINUOUS
10
-0.102156
20
-0.466366
30
0.0
11
-0.101908
21
-0.465734
31
0.0
0
LINE
8
0
6
CONTINUOUS
10
-0.101908
20
-0.465734
30
0.0
11
-0.101908
21
-0.464975
31
0.0
0
LINE
8
0
6
CONTINUOUS
10
-0.101908
20
-0.464975
30
0.0
11
-0.101908
21
-0.462951
31
0.0
0
LINE
8
0
6
CONTINUOUS
10
-0.102907
20
-0.423671
30
0.0
11
-0.127228
21
-0.423671
31
0.0
0
LINE
8
0
6
CONTINUOUS
10
-0.101908
20
-0.430629
30
0.0
11
-0.101908
21
-0.427403
31
0.0
0
LINE
8
0
6
CONTINUOUS
10
-0.127228
20
-0.466683
30
0.0
11
-0.102907
21
-0.466683
31
0.0
0
LINE
8
0
6
CONTINUOUS
10
-0.097005
20
-0.425392
30
0.0
11
-0.099586
21
-0.424962
31
0.0
0
LINE
8
0
6
CONTINUOUS
10
-0.093564
20
-0.426252
30
0.0
11
-0.097005
21
-0.425392
31
0.0
0
LINE
8
0
6
CONTINUOUS
10
-0.137374
20
-0.399432
30
0.0
11
-0.136516
21
-0.399432
31
0.0
0
LINE
8
0
6
CONTINUOUS
10
-0.138746
20
-0.399432
30
0.0
11
-0.137374
21
-0.399432
31
0.0
0
LINE
8
0
6
CONTINUOUS
10
-0.140519
20
-0.399432
30
0.0
11
-0.138746
21
-0.399432
31
0.0
0
LINE
8
0
6
CONTINUOUS
10
-0.142578
20
-0.399432
30
0.0
11
-0.140519
21
-0.399432
31
0.0
0
LINE
8
0
6
CONTINUOUS
10
-0.144808
20
-0.399432
30
0.0
11
-0.142578
21
-0.399432
31
0.0
0
LINE
8
0
6
CONTINUOUS
10
-0.153386
20
-0.399432
30
0.0
11
-0.153100
21
-0.399432
31
0.0
0
LINE
8
0
6
CONTINUOUS
10
-0.153386
20
-0.399135
30
0.0
11
-0.153386
21
-0.399432
31
0.0
0
LINE
8
0
6
CONTINUOUS
10
-0.153100
20
-0.399432
30
0.0
11
-0.152242
21
-0.399432
31
0.0
0
LINE
8
0
6
CONTINUOUS
10
-0.152242
20
-0.399432
30
0.0
11
-0.150870
21
-0.399432
31
0.0
0
LINE
8
0
6
CONTINUOUS
10
-0.150870
20
-0.399432
30
0.0
11
-0.149097
21
-0.399432
31
0.0
0
LINE
8
0
6
CONTINUOUS
10
-0.149097
20
-0.399432
30
0.0
11
-0.147038
21
-0.399432
31
0.0
0
LINE
8
0
6
CONTINUOUS
10
-0.147038
20
-0.399432
30
0.0
11
-0.144808
21
-0.399432
31
0.0
0
LINE
8
0
6
CONTINUOUS
10
-0.138536
20
-0.420134
30
0.0
11
-0.138536
21
-0.409478
31
0.0
0
LINE
8
0
6
CONTINUOUS
10
-0.151080
20
-0.409478
30
0.0
11
-0.151080
21
-0.420134
31
0.0
0
LINE
8
0
6
CONTINUOUS
10
-0.148723
20
-0.409257
30
0.0
11
-0.146846
21
-0.409257
31
0.0
0
LINE
8
0
6
CONTINUOUS
10
-0.138018
20
-0.409257
30
0.0
11
-0.137236
21
-0.409257
31
0.0
0
LINE
8
0
6
CONTINUOUS
10
-0.152642
20
-0.409257
30
0.0
11
-0.152380
21
-0.409257
31
0.0
0
LINE
8
0
6
CONTINUOUS
10
-0.152642
20
-0.408997
30
0.0
11
-0.152642
21
-0.409257
31
0.0
0
LINE
8
0
6
CONTINUOUS
10
-0.139273
20
-0.409257
30
0.0
11
-0.138018
21
-0.409257
31
0.0
0
LINE
8
0
6
CONTINUOUS
10
-0.136975
20
-0.409257
30
0.0
11
-0.136975
21
-0.408997
31
0.0
0
LINE
8
0
6
CONTINUOUS
10
-0.137236
20
-0.409257
30
0.0
11
-0.136975
21
-0.409257
31
0.0
0
LINE
8
0
6
CONTINUOUS
10
-0.144808
20
-0.409257
30
0.0
11
-0.142770
21
-0.409257
31
0.0
0
LINE
8
0
6
CONTINUOUS
10
-0.150344
20
-0.409257
30
0.0
11
-0.148723
21
-0.409257
31
0.0
0
LINE
8
0
6
CONTINUOUS
10
-0.151599
20
-0.409257
30
0.0
11
-0.150344
21
-0.409257
31
0.0
0
LINE
8
0
6
CONTINUOUS
10
-0.140894
20
-0.409257
30
0.0
11
-0.139273
21
-0.409257
31
0.0
0
LINE
8
0
6
CONTINUOUS
10
-0.142770
20
-0.409257
30
0.0
11
-0.140894
21
-0.409257
31
0.0
0
LINE
8
0
6
CONTINUOUS
10
-0.146846
20
-0.409257
30
0.0
11
-0.144808
21
-0.409257
31
0.0
0
LINE
8
0
6
CONTINUOUS
10
-0.152380
20
-0.409257
30
0.0
11
-0.151599
21
-0.409257
31
0.0
0
LINE
8
0
6
CONTINUOUS
10
-0.152642
20
-0.399659
30
0.0
11
-0.152642
21
-0.408997
31
0.0
0
LINE
8
0
6
CONTINUOUS
10
-0.136975
20
-0.408997
30
0.0
11
-0.136975
21
-0.399659
31
0.0
0
LINE
8
0
6
CONTINUOUS
10
-0.152642
20
-0.399432
30
0.0
11
-0.152642
21
-0.399659
31
0.0
0
LINE
8
0
6
CONTINUOUS
10
-0.136975
20
-0.399659
30
0.0
11
-0.136975
21
-0.399432
31
0.0
0
LINE
8
0
6
CONTINUOUS
10
-0.136230
20
-0.399432
30
0.0
11
-0.136230
21
-0.399135
31
0.0
0
LINE
8
0
6
CONTINUOUS
10
-0.136516
20
-0.399432
30
0.0
11
-0.136230
21
-0.399432
31
0.0
0
LINE
8
0
6
CONTINUOUS
10
-0.153386
20
-0.393750
30
0.0
11
-0.153386
21
-0.399135
31
0.0
0
LINE
8
0
6
CONTINUOUS
10
-0.138536
20
-0.409478
30
0.0
11
-0.138536
21
-0.409257
31
0.0
0
LINE
8
0
6
CONTINUOUS
10
-0.151080
20
-0.409257
30
0.0
11
-0.151080
21
-0.409478
31
0.0
0
LINE
8
0
6
CONTINUOUS
10
-0.218838
20
-0.472294
30
0.0
11
-0.218838
21
-0.473544
31
0.0
0
LINE
8
0
6
CONTINUOUS
10
-0.218838
20
-0.473544
30
0.0
11
-0.218076
21
-0.473544
31
0.0
0
LINE
8
0
6
CONTINUOUS
10
-0.218076
20
-0.402724
30
0.0
11
-0.218837
21
-0.402724
31
0.0
0
LINE
8
0
6
CONTINUOUS
10
-0.218838
20
-0.455735
30
0.0
11
-0.218838
21
-0.463129
31
0.0
0
LINE
8
0
6
CONTINUOUS
10
-0.218838
20
-0.429073
30
0.0
11
-0.218838
21
-0.438134
31
0.0
0
LINE
8
0
6
CONTINUOUS
10
-0.218838
20
-0.468753
30
0.0
11
-0.218838
21
-0.472294
31
0.0
0
LINE
8
0
6
CONTINUOUS
10
-0.218838
20
-0.438134
30
0.0
11
-0.218838
21
-0.447195
31
0.0
0
LINE
8
0
6
CONTINUOUS
10
-0.218838
20
-0.403974
30
0.0
11
-0.218838
21
-0.407515
31
0.0
0
LINE
8
0
6
CONTINUOUS
10
-0.218838
20
-0.402724
30
0.0
11
-0.218838
21
-0.403974
31
0.0
0
LINE
8
0
6
CONTINUOUS
10
-0.218076
20
-0.402724
30
0.0
11
-0.218838
21
-0.402724
31
0.0
0
LINE
8
0
6
CONTINUOUS
10
-0.218838
20
-0.463129
30
0.0
11
-0.218838
21
-0.468753
31
0.0
0
LINE
8
0
6
CONTINUOUS
10
-0.152242
20
-0.392786
30
0.0
11
-0.153386
21
-0.393484
31
0.0
0
LINE
8
0
6
CONTINUOUS
10
-0.136230
20
-0.393750
30
0.0
11
-0.136230
21
-0.393484
31
0.0
0
LINE
8
0
6
CONTINUOUS
10
-0.101908
20
-0.434930
30
0.0
11
-0.101908
21
-0.430629
31
0.0
0
LINE
8
0
6
CONTINUOUS
10
-0.101908
20
-0.439863
30
0.0
11
-0.101908
21
-0.434930
31
0.0
0
LINE
8
0
6
CONTINUOUS
10
-0.101908
20
-0.445177
30
0.0
11
-0.101908
21
-0.439863
31
0.0
0
LINE
8
0
6
CONTINUOUS
10
-0.101908
20
-0.427403
30
0.0
11
-0.101908
21
-0.425379
31
0.0
0
LINE
8
0
6
CONTINUOUS
10
-0.101908
20
-0.425379
30
0.0
11
-0.101908
21
-0.424620
31
0.0
0
LINE
8
0
6
CONTINUOUS
10
-0.101908
20
-0.424620
30
0.0
11
-0.102156
21
-0.423988
31
0.0
0
LINE
8
0
6
CONTINUOUS
10
-0.102156
20
-0.423988
30
0.0
11
-0.102652
21
-0.423671
31
0.0
0
LINE
8
0
6
CONTINUOUS
10
-0.101908
20
-0.462951
30
0.0
11
-0.101908
21
-0.459725
31
0.0
0
LINE
8
0
6
CONTINUOUS
10
-0.102652
20
-0.466683
30
0.0
11
-0.102156
21
-0.466366
31
0.0
0
LINE
8
0
6
CONTINUOUS
10
-0.101908
20
-0.459725
30
0.0
11
-0.101908
21
-0.455424
31
0.0
0
LINE
8
0
6
CONTINUOUS
10
-0.101908
20
-0.450491
30
0.0
11
-0.101908
21
-0.445177
31
0.0
0
LINE
8
0
6
CONTINUOUS
10
-0.218838
20
-0.413139
30
0.0
11
-0.218838
21
-0.420533
31
0.0
0
LINE
8
0
6
CONTINUOUS
10
-0.218838
20
-0.420533
30
0.0
11
-0.218838
21
-0.429073
31
0.0
0
LINE
8
0
6
CONTINUOUS
10
-0.218838
20
-0.407515
30
0.0
11
-0.218838
21
-0.413139
31
0.0
0
LINE
8
0
6
CONTINUOUS
10
-0.214373
20
-0.402724
30
0.0
11
-0.214800
21
-0.402724
31
0.0
0
LINE
8
0
6
CONTINUOUS
10
-0.193760
20
-0.430430
30
0.0
11
-0.193760
21
-0.427196
31
0.0
0
LINE
8
0
6
CONTINUOUS
10
-0.193760
20
-0.427196
30
0.0
11
-0.193760
21
-0.424770
31
0.0
0
LINE
8
0
6
CONTINUOUS
10
-0.193760
20
-0.424770
30
0.0
11
-0.193760
21
-0.423248
31
0.0
0
LINE
8
0
6
CONTINUOUS
10
-0.193760
20
-0.422678
30
0.0
11
-0.194161
21
-0.422279
31
0.0
0
LINE
8
0
6
CONTINUOUS
10
-0.193760
20
-0.423248
30
0.0
11
-0.193760
21
-0.422678
31
0.0
0
LINE
8
0
6
CONTINUOUS
10
-0.213331
20
-0.403245
30
0.0
11
-0.214373
21
-0.402724
31
0.0
0
LINE
8
0
6
CONTINUOUS
10
-0.214373
20
-0.402724
30
0.0
11
-0.214724
21
-0.402724
31
0.0
0
LINE
8
0
6
CONTINUOUS
10
-0.193760
20
-0.453020
30
0.0
11
-0.193760
21
-0.451498
31
0.0
0
LINE
8
0
6
CONTINUOUS
10
-0.193760
20
-0.453591
30
0.0
11
-0.193760
21
-0.453020
31
0.0
0
LINE
8
0
6
CONTINUOUS
10
-0.194161
20
-0.453990
30
0.0
11
-0.193760
21
-0.453591
31
0.0
0
LINE
8
0
6
CONTINUOUS
10
-0.193760
20
-0.449073
30
0.0
11
-0.193760
21
-0.445839
31
0.0
0
LINE
8
0
6
CONTINUOUS
10
-0.193760
20
-0.445839
30
0.0
11
-0.193760
21
-0.442129
31
0.0
0
LINE
8
0
6
CONTINUOUS
10
-0.193760
20
-0.442129
30
0.0
11
-0.193760
21
-0.438134
31
0.0
0
LINE
8
0
6
CONTINUOUS
10
-0.218838
20
-0.447195
30
0.0
11
-0.218838
21
-0.455735
31
0.0
0
LINE
8
0
6
CONTINUOUS
10
-0.102652
20
-0.423671
30
0.0
11
-0.102907
21
-0.423671
31
0.0
0
LINE
8
0
6
CONTINUOUS
10
-0.153386
20
-0.393484
30
0.0
11
-0.153386
21
-0.393750
31
0.0
0
LINE
8
0
6
CONTINUOUS
10
-0.136230
20
-0.399135
30
0.0
11
-0.136230
21
-0.393750
31
0.0
0
LINE
8
0
6
CONTINUOUS
10
-0.152073
20
-0.392781
30
0.0
11
-0.152242
21
-0.392786
31
0.0
0
LINE
8
0
6
CONTINUOUS
10
-0.151793
20
-0.392781
30
0.0
11
-0.152073
21
-0.392781
31
0.0
0
LINE
8
0
6
CONTINUOUS
10
-0.137374
20
-0.392786
30
0.0
11
-0.137544
21
-0.392781
31
0.0
0
LINE
8
0
6
CONTINUOUS
10
-0.137544
20
-0.392781
30
0.0
11
-0.137823
21
-0.392781
31
0.0
0
LINE
8
0
6
CONTINUOUS
10
-0.174682
20
-0.423008
30
0.0
11
-0.175044
21
-0.423008
31
0.0
0
LINE
8
0
6
CONTINUOUS
10
-0.173937
20
-0.431771
30
0.0
11
-0.173937
21
-0.429374
31
0.0
0
LINE
8
0
6
CONTINUOUS
10
-0.174610
20
-0.423008
30
0.0
11
-0.174682
21
-0.423008
31
0.0
0
LINE
8
0
6
CONTINUOUS
10
-0.173937
20
-0.423008
30
0.0
11
-0.174610
21
-0.423008
31
0.0
0
LINE
8
0
6
CONTINUOUS
10
-0.173937
20
-0.429374
30
0.0
11
-0.173937
21
-0.423008
31
0.0
0
LINE
8
0
6
CONTINUOUS
10
-0.175044
20
-0.423008
30
0.0
11
-0.181477
21
-0.423008
31
0.0
0
LINE
8
0
6
CONTINUOUS
10
-0.175113
20
-0.453275
30
0.0
11
-0.174759
21
-0.453275
31
0.0
0
LINE
8
0
6
CONTINUOUS
10
-0.174759
20
-0.453275
30
0.0
11
-0.174680
21
-0.453275
31
0.0
0
LINE
8
0
6
CONTINUOUS
10
-0.174680
20
-0.453275
30
0.0
11
-0.173937
21
-0.453275
31
0.0
0
LINE
8
0
6
CONTINUOUS
10
-0.173937
20
-0.453275
30
0.0
11
-0.173937
21
-0.446909
31
0.0
0
LINE
8
0
6
CONTINUOUS
10
-0.181477
20
-0.453275
30
0.0
11
-0.175113
21
-0.453275
31
0.0
0
LINE
8
0
6
CONTINUOUS
10
-0.173937
20
-0.423005
30
0.0
11
-0.174372
21
-0.423005
31
0.0
0
LINE
8
0
6
CONTINUOUS
10
-0.174372
20
-0.423005
30
0.0
11
-0.181477
21
-0.423005
31
0.0
0
LINE
8
0
6
CONTINUOUS
10
-0.173937
20
-0.446909
30
0.0
11
-0.173937
21
-0.444509
31
0.0
0
LINE
8
0
6
CONTINUOUS
10
-0.173937
20
-0.444509
30
0.0
11
-0.173937
21
-0.431771
31
0.0
0
LINE
8
0
6
CONTINUOUS
10
-0.187910
20
-0.423008
30
0.0
11
-0.188271
21
-0.423008
31
0.0
0
LINE
8
0
6
CONTINUOUS
10
-0.189016
20
-0.429374
30
0.0
11
-0.189016
21
-0.431771
31
0.0
0
LINE
8
0
6
CONTINUOUS
10
-0.188271
20
-0.423008
30
0.0
11
-0.188343
21
-0.423008
31
0.0
0
LINE
8
0
6
CONTINUOUS
10
-0.189016
20
-0.423008
30
0.0
11
-0.189016
21
-0.429374
31
0.0
0
LINE
8
0
6
CONTINUOUS
10
-0.188343
20
-0.423008
30
0.0
11
-0.189016
21
-0.423008
31
0.0
0
LINE
8
0
6
CONTINUOUS
10
-0.181477
20
-0.423008
30
0.0
11
-0.187910
21
-0.423008
31
0.0
0
LINE
8
0
6
CONTINUOUS
10
-0.188194
20
-0.453275
30
0.0
11
-0.187840
21
-0.453275
31
0.0
0
LINE
8
0
6
CONTINUOUS
10
-0.188274
20
-0.453275
30
0.0
11
-0.188194
21
-0.453275
31
0.0
0
LINE
8
0
6
CONTINUOUS
10
-0.189016
20
-0.446909
30
0.0
11
-0.189016
21
-0.453275
31
0.0
0
LINE
8
0
6
CONTINUOUS
10
-0.189016
20
-0.453275
30
0.0
11
-0.188274
21
-0.453275
31
0.0
0
LINE
8
0
6
CONTINUOUS
10
-0.187840
20
-0.453275
30
0.0
11
-0.181477
21
-0.453275
31
0.0
0
LINE
8
0
6
CONTINUOUS
10
-0.188581
20
-0.423005
30
0.0
11
-0.189016
21
-0.423005
31
0.0
0
LINE
8
0
6
CONTINUOUS
10
-0.181477
20
-0.423005
30
0.0
11
-0.188581
21
-0.423005
31
0.0
0
LINE
8
0
6
CONTINUOUS
10
-0.189016
20
-0.444509
30
0.0
11
-0.189016
21
-0.446909
31
0.0
0
LINE
8
0
6
CONTINUOUS
10
-0.189016
20
-0.431771
30
0.0
11
-0.189016
21
-0.444509
31
0.0
0
LINE
8
0
6
CONTINUOUS
10
-0.174759
20
-0.423005
30
0.0
11
-0.175113
21
-0.423005
31
0.0
0
LINE
8
0
6
CONTINUOUS
10
-0.174680
20
-0.423005
30
0.0
11
-0.174759
21
-0.423005
31
0.0
0
LINE
8
0
6
CONTINUOUS
10
-0.173937
20
-0.423005
30
0.0
11
-0.174680
21
-0.423005
31
0.0
0
LINE
8
0
6
CONTINUOUS
10
-0.175113
20
-0.423005
30
0.0
11
-0.181477
21
-0.423005
31
0.0
0
LINE
8
0
6
CONTINUOUS
10
-0.187840
20
-0.423005
30
0.0
11
-0.188194
21
-0.423005
31
0.0
0
LINE
8
0
6
CONTINUOUS
10
-0.188194
20
-0.423005
30
0.0
11
-0.188274
21
-0.423005
31
0.0
0
LINE
8
0
6
CONTINUOUS
10
-0.188274
20
-0.423005
30
0.0
11
-0.189016
21
-0.423005
31
0.0
0
LINE
8
0
6
CONTINUOUS
10
-0.181477
20
-0.423005
30
0.0
11
-0.187840
21
-0.423005
31
0.0
0
LINE
8
0
6
CONTINUOUS
10
-0.218076
20
-0.473544
30
0.0
11
-0.214724
21
-0.473544
31
0.0
0
LINE
8
0
6
CONTINUOUS
10
-0.214724
20
-0.402724
30
0.0
11
-0.218076
21
-0.402724
31
0.0
0
LINE
8
0
6
CONTINUOUS
10
-0.214800
20
-0.402724
30
0.0
11
-0.218076
21
-0.402724
31
0.0
0
LINE
8
0
6
CONTINUOUS
10
-0.213028
20
-0.472722
30
0.0
11
-0.194161
21
-0.453990
31
0.0
0
LINE
8
0
6
CONTINUOUS
10
-0.194161
20
-0.422279
30
0.0
11
-0.213028
21
-0.403547
31
0.0
0
LINE
8
0
6
CONTINUOUS
10
-0.094854
20
-0.424876
30
0.0
11
-0.095457
21
-0.426940
31
0.0
0
LINE
8
0
6
CONTINUOUS
10
-0.095457
20
-0.426940
30
0.0
11
-0.096317
21
-0.430295
31
0.0
0
LINE
8
0
6
CONTINUOUS
10
-0.100446
20
-0.466253
30
0.0
11
-0.099586
21
-0.467113
31
0.0
0
LINE
8
0
6
CONTINUOUS
10
-0.100446
20
-0.465478
30
0.0
11
-0.100446
21
-0.466253
31
0.0
0
LINE
8
0
6
CONTINUOUS
10
-0.100446
20
-0.463414
30
0.0
11
-0.100446
21
-0.465478
31
0.0
0
LINE
8
0
6
CONTINUOUS
10
-0.100446
20
-0.460059
30
0.0
11
-0.100446
21
-0.463414
31
0.0
0
LINE
8
0
6
CONTINUOUS
10
-0.100446
20
-0.445177
30
0.0
11
-0.100446
21
-0.450597
31
0.0
0
LINE
8
0
6
CONTINUOUS
10
-0.100446
20
-0.450597
30
0.0
11
-0.100446
21
-0.455672
31
0.0
0
LINE
8
0
6
CONTINUOUS
10
-0.100446
20
-0.455672
30
0.0
11
-0.100446
21
-0.460059
31
0.0
0
LINE
8
0
6
CONTINUOUS
10
-0.098897
20
-0.439758
30
0.0
11
-0.100446
21
-0.445177
31
0.0
0
LINE
8
0
6
CONTINUOUS
10
-0.097521
20
-0.434682
30
0.0
11
-0.098897
21
-0.439758
31
0.0
0
LINE
8
0
6
CONTINUOUS
10
-0.096317
20
-0.430295
30
0.0
11
-0.097521
21
-0.434682
31
0.0
0
LINE
8
0
6
CONTINUOUS
10
-0.099586
20
-0.467113
30
0.0
11
-0.099272
21
-0.467113
31
0.0
0
LINE
8
0
6
CONTINUOUS
10
-0.093317
20
-0.423241
30
0.0
11
-0.093564
21
-0.423241
31
0.0
0
LINE
8
0
6
CONTINUOUS
10
-0.094682
20
-0.424101
30
0.0
11
-0.094854
21
-0.424876
31
0.0
0
LINE
8
0
6
CONTINUOUS
10
-0.093564
20
-0.423241
30
0.0
11
-0.094682
21
-0.424101
31
0.0
0
LINE
8
0
6
CONTINUOUS
10
-0.099272
20
-0.467113
30
0.0
11
-0.073069
21
-0.468323
31
0.0
0
LINE
8
0
6
CONTINUOUS
10
-0.072791
20
-0.423241
30
0.0
11
-0.093317
21
-0.423241
31
0.0
0
LINE
8
0
6
CONTINUOUS
10
-0.066530
20
-0.434248
30
0.0
11
-0.067662
21
-0.429695
31
0.0
0
LINE
8
0
6
CONTINUOUS
10
-0.068538
20
-0.426174
30
0.0
11
-0.069073
21
-0.424026
31
0.0
0
LINE
8
0
6
CONTINUOUS
10
-0.057634
20
-0.493730
30
0.0
11
-0.055853
21
-0.500967
31
0.0
0
LINE
8
0
6
CONTINUOUS
10
-0.069265
20
-0.423253
30
0.0
11
-0.069717
21
-0.423251
31
0.0
0
LINE
8
0
6
CONTINUOUS
10
-0.069073
20
-0.424026
30
0.0
11
-0.069265
21
-0.423253
31
0.0
0
LINE
8
0
6
CONTINUOUS
10
-0.045175
20
-0.520099
30
0.0
11
-0.046051
21
-0.516574
31
0.0
0
LINE
8
0
6
CONTINUOUS
10
-0.044640
20
-0.522248
30
0.0
11
-0.045175
21
-0.520099
31
0.0
0
LINE
8
0
6
CONTINUOUS
10
-0.044448
20
-0.523022
30
0.0
11
-0.044640
21
-0.522248
31
0.0
0
LINE
8
0
6
CONTINUOUS
10
-0.044898
20
-0.522973
30
0.0
11
-0.044448
21
-0.523022
31
0.0
0
LINE
8
0
6
CONTINUOUS
10
-0.048489
20
-0.506774
30
0.0
11
-0.049900
21
-0.501102
31
0.0
0
LINE
8
0
6
CONTINUOUS
10
-0.046051
20
-0.516574
30
0.0
11
-0.047185
21
-0.512018
31
0.0
0
LINE
8
0
6
CONTINUOUS
10
-0.055853
20
-0.500967
30
0.0
11
-0.054473
21
-0.506582
31
0.0
0
LINE
8
0
6
CONTINUOUS
10
-0.054473
20
-0.506582
30
0.0
11
-0.053076
21
-0.512170
31
0.0
0
LINE
8
0
6
CONTINUOUS
10
-0.053065
20
-0.512294
30
0.0
11
-0.052172
21
-0.516422
31
0.0
0
LINE
8
0
6
CONTINUOUS
10
-0.052172
20
-0.516422
30
0.0
11
-0.050254
21
-0.519657
31
0.0
0
LINE
8
0
6
CONTINUOUS
10
-0.059491
20
-0.486052
30
0.0
11
-0.057634
21
-0.493730
31
0.0
0
LINE
8
0
6
CONTINUOUS
10
-0.070442
20
-0.469896
30
0.0
11
-0.067814
21
-0.471469
31
0.0
0
LINE
8
0
6
CONTINUOUS
10
-0.067814
20
-0.471469
30
0.0
11
-0.062153
21
-0.478724
31
0.0
0
LINE
8
0
6
CONTINUOUS
10
-0.062153
20
-0.478724
30
0.0
11
-0.059407
21
-0.486481
31
0.0
0
LINE
8
0
6
CONTINUOUS
10
-0.050254
20
-0.519657
30
0.0
11
-0.046858
21
-0.522090
31
0.0
0
LINE
8
0
6
CONTINUOUS
10
-0.046858
20
-0.522090
30
0.0
11
-0.045270
21
-0.522933
31
0.0
0
LINE
8
0
6
CONTINUOUS
10
-0.069717
20
-0.423251
30
0.0
11
-0.072791
21
-0.423241
31
0.0
0
LINE
8
0
6
CONTINUOUS
10
-0.045270
20
-0.522933
30
0.0
11
-0.044898
21
-0.522973
31
0.0
0
LINE
8
0
6
CONTINUOUS
10
-0.049900
20
-0.501102
30
0.0
11
-0.052678
21
-0.489934
31
0.0
0
LINE
8
0
6
CONTINUOUS
10
-0.061004
20
-0.456464
30
0.0
11
-0.062410
21
-0.450811
31
0.0
0
LINE
8
0
6
CONTINUOUS
10
-0.073069
20
-0.468323
30
0.0
11
-0.070442
21
-0.469896
31
0.0
0
LINE
8
0
6
CONTINUOUS
10
-0.062410
20
-0.450811
30
0.0
11
-0.063816
21
-0.445157
31
0.0
0
LINE
8
0
6
CONTINUOUS
10
0.007432
20
0.328469
30
0.0
11
0.009070
21
0.329624
31
0.0
0
LINE
8
0
6
CONTINUOUS
10
0.005580
20
0.327176
30
0.0
11
0.007432
21
0.328469
31
0.0
0
LINE
8
0
6
CONTINUOUS
10
0.005366
20
0.327038
30
0.0
11
0.005580
21
0.327176
31
0.0
0
LINE
8
0
6
CONTINUOUS
10
-0.021187
20
0.310793
30
0.0
11
-0.021596
21
0.311371
31
0.0
0
LINE
8
0
6
CONTINUOUS
10
-0.015318
20
0.314351
30
0.0
11
-0.014879
21
0.314664
31
0.0
0
LINE
8
0
6
CONTINUOUS
10
-0.008106
20
0.318789
30
0.0
11
-0.008437
21
0.319256
31
0.0
0
LINE
8
0
6
CONTINUOUS
10
-0.002282
20
0.322257
30
0.0
11
-0.001515
21
0.322788
31
0.0
0
LINE
8
0
6
CONTINUOUS
10
-0.002746
20
0.322911
30
0.0
11
-0.002282
21
0.322257
31
0.0
0
LINE
8
0
6
CONTINUOUS
10
0.004752
20
0.326787
30
0.0
11
0.006055
21
0.327700
31
0.0
0
LINE
8
0
6
CONTINUOUS
10
0.006704
20
0.328162
30
0.0
11
0.006117
21
0.328985
31
0.0
0
LINE
8
0
6
CONTINUOUS
10
0.006055
20
0.327700
30
0.0
11
0.006704
21
0.328162
31
0.0
0
LINE
8
0
6
CONTINUOUS
10
0.004097
20
0.326335
30
0.0
11
0.004752
21
0.326787
31
0.0
0
LINE
8
0
6
CONTINUOUS
10
0.003497
20
0.327178
30
0.0
11
0.004097
21
0.326335
31
0.0
0
LINE
8
0
6
CONTINUOUS
10
0.011300
20
0.331386
30
0.0
11
0.012576
21
0.332282
31
0.0
0
LINE
8
0
6
CONTINUOUS
10
0.012983
20
0.332575
30
0.0
11
0.012382
21
0.333431
31
0.0
0
LINE
8
0
6
CONTINUOUS
10
0.012576
20
0.332282
30
0.0
11
0.012983
21
0.332575
31
0.0
0
LINE
8
0
6
CONTINUOUS
10
0.010431
20
0.330783
30
0.0
11
0.011300
21
0.331386
31
0.0
0
LINE
8
0
6
CONTINUOUS
10
0.009858
20
0.331601
30
0.0
11
0.010431
21
0.330783
31
0.0
0
LINE
8
0
6
CONTINUOUS
10
-0.000813
20
0.322916
30
0.0
11
-0.000409
21
0.323191
31
0.0
0
LINE
8
0
6
CONTINUOUS
10
-0.001427
20
0.323783
30
0.0
11
-0.000813
21
0.322916
31
0.0
0
LINE
8
0
6
CONTINUOUS
10
-0.000409
20
0.323191
30
0.0
11
0.000866
21
0.324083
31
0.0
0
LINE
8
0
6
CONTINUOUS
10
0.000866
20
0.324083
30
0.0
11
0.001737
21
0.324700
31
0.0
0
LINE
8
0
6
CONTINUOUS
10
-0.001460
20
0.323750
30
0.0
11
-0.000881
21
0.322914
31
0.0
0
LINE
8
0
6
CONTINUOUS
10
0.013261
20
0.332804
30
0.0
11
0.013399
21
0.332893
31
0.0
0
LINE
8
0
6
CONTINUOUS
10
0.012711
20
0.333598
30
0.0
11
0.013261
21
0.332804
31
0.0
0
LINE
8
0
6
CONTINUOUS
10
0.014590
20
0.333725
30
0.0
11
0.015644
21
0.334468
31
0.0
0
LINE
8
0
6
CONTINUOUS
10
0.013399
20
0.332893
30
0.0
11
0.014590
21
0.333725
31
0.0
0
LINE
8
0
6
CONTINUOUS
10
0.007847
20
0.329209
30
0.0
11
0.009150
21
0.330123
31
0.0
0
LINE
8
0
6
CONTINUOUS
10
0.009150
20
0.330123
30
0.0
11
0.009799
21
0.330584
31
0.0
0
LINE
8
0
6
CONTINUOUS
10
0.007193
20
0.328757
30
0.0
11
0.007847
21
0.329209
31
0.0
0
LINE
8
0
6
CONTINUOUS
10
0.006606
20
0.329581
30
0.0
11
0.007193
21
0.328757
31
0.0
0
LINE
8
0
6
CONTINUOUS
10
0.007793
20
0.329763
30
0.0
11
0.009056
21
0.330648
31
0.0
0
LINE
8
0
6
CONTINUOUS
10
0.009684
20
0.331095
30
0.0
11
0.009086
21
0.331934
31
0.0
0
LINE
8
0
6
CONTINUOUS
10
0.009056
20
0.330648
30
0.0
11
0.009684
21
0.331095
31
0.0
0
LINE
8
0
6
CONTINUOUS
10
0.007159
20
0.329326
30
0.0
11
0.007793
21
0.329763
31
0.0
0
LINE
8
0
6
CONTINUOUS
10
0.005356
20
0.328620
30
0.0
11
0.006439
21
0.329379
31
0.0
0
LINE
8
0
6
CONTINUOUS
10
0.006979
20
0.329763
30
0.0
11
0.006389
21
0.330592
31
0.0
0
LINE
8
0
6
CONTINUOUS
10
0.006439
20
0.329379
30
0.0
11
0.006979
21
0.329763
31
0.0
0
LINE
8
0
6
CONTINUOUS
10
0.004813
20
0.328245
30
0.0
11
0.005356
21
0.328620
31
0.0
0
LINE
8
0
6
CONTINUOUS
10
0.003737
20
0.328018
30
0.0
11
0.004820
21
0.328777
31
0.0
0
LINE
8
0
6
CONTINUOUS
10
0.003193
20
0.327643
30
0.0
11
0.003737
21
0.328018
31
0.0
0
LINE
8
0
6
CONTINUOUS
10
0.002599
20
0.328478
30
0.0
11
0.003193
21
0.327643
31
0.0
0
LINE
8
0
6
CONTINUOUS
10
0.003840
20
0.328073
30
0.0
11
0.004923
21
0.328832
31
0.0
0
LINE
8
0
6
CONTINUOUS
10
0.005462
20
0.329215
30
0.0
11
0.004882
21
0.330032
31
0.0
0
LINE
8
0
6
CONTINUOUS
10
0.004923
20
0.328832
30
0.0
11
0.005462
21
0.329215
31
0.0
0
LINE
8
0
6
CONTINUOUS
10
0.003296
20
0.327697
30
0.0
11
0.003840
21
0.328073
31
0.0
0
LINE
8
0
6
CONTINUOUS
10
0.005356
20
0.328620
30
0.0
11
0.006439
21
0.329379
31
0.0
0
LINE
8
0
6
CONTINUOUS
10
0.006979
20
0.329763
30
0.0
11
0.006389
21
0.330592
31
0.0
0
LINE
8
0
6
CONTINUOUS
10
0.006439
20
0.329379
30
0.0
11
0.006979
21
0.329763
31
0.0
0
LINE
8
0
6
CONTINUOUS
10
0.004813
20
0.328245
30
0.0
11
0.005356
21
0.328620
31
0.0
0
LINE
8
0
6
CONTINUOUS
10
0.007793
20
0.329763
30
0.0
11
0.009056
21
0.330648
31
0.0
0
LINE
8
0
6
CONTINUOUS
10
0.009684
20
0.331095
30
0.0
11
0.009086
21
0.331934
31
0.0
0
LINE
8
0
6
CONTINUOUS
10
0.009056
20
0.330648
30
0.0
11
0.009684
21
0.331095
31
0.0
0
LINE
8
0
6
CONTINUOUS
10
0.007159
20
0.329326
30
0.0
11
0.007793
21
0.329763
31
0.0
0
LINE
8
0
6
CONTINUOUS
10
0.007847
20
0.329209
30
0.0
11
0.009150
21
0.330123
31
0.0
0
LINE
8
0
6
CONTINUOUS
10
0.009150
20
0.330123
30
0.0
11
0.009799
21
0.330584
31
0.0
0
LINE
8
0
6
CONTINUOUS
10
0.007193
20
0.328757
30
0.0
11
0.007847
21
0.329209
31
0.0
0
LINE
8
0
6
CONTINUOUS
10
0.006606
20
0.329581
30
0.0
11
0.007193
21
0.328757
31
0.0
0
LINE
8
0
6
CONTINUOUS
10
0.014231
20
0.333695
30
0.0
11
0.015535
21
0.334608
31
0.0
0
LINE
8
0
6
CONTINUOUS
10
0.016184
20
0.335070
30
0.0
11
0.015656
21
0.335810
31
0.0
0
LINE
8
0
6
CONTINUOUS
10
0.015535
20
0.334608
30
0.0
11
0.016184
21
0.335070
31
0.0
0
LINE
8
0
6
CONTINUOUS
10
0.013577
20
0.333243
30
0.0
11
0.014231
21
0.333695
31
0.0
0
LINE
8
0
6
CONTINUOUS
10
0.013003
20
0.334048
30
0.0
11
0.013577
21
0.333243
31
0.0
0
LINE
8
0
6
CONTINUOUS
10
0.014520
20
0.334475
30
0.0
11
0.015782
21
0.335360
31
0.0
0
LINE
8
0
6
CONTINUOUS
10
0.016411
20
0.335807
30
0.0
11
0.015783
21
0.336688
31
0.0
0
LINE
8
0
6
CONTINUOUS
10
0.015782
20
0.335360
30
0.0
11
0.016411
21
0.335807
31
0.0
0
LINE
8
0
6
CONTINUOUS
10
0.013886
20
0.334037
30
0.0
11
0.014520
21
0.334475
31
0.0
0
LINE
8
0
6
CONTINUOUS
10
0.020013
20
0.338362
30
0.0
11
0.021275
21
0.339247
31
0.0
0
LINE
8
0
6
CONTINUOUS
10
0.021904
20
0.339694
30
0.0
11
0.021264
21
0.340593
31
0.0
0
LINE
8
0
6
CONTINUOUS
10
0.021275
20
0.339247
30
0.0
11
0.021904
21
0.339694
31
0.0
0
LINE
8
0
6
CONTINUOUS
10
0.019379
20
0.337925
30
0.0
11
0.020013
21
0.338362
31
0.0
0
LINE
8
0
6
CONTINUOUS
10
0.012292
20
0.333481
30
0.0
11
0.013375
21
0.334240
31
0.0
0
LINE
8
0
6
CONTINUOUS
10
0.013914
20
0.334623
30
0.0
11
0.013309
21
0.335475
31
0.0
0
LINE
8
0
6
CONTINUOUS
10
0.013375
20
0.334240
30
0.0
11
0.013914
21
0.334623
31
0.0
0
LINE
8
0
6
CONTINUOUS
10
0.011748
20
0.333106
30
0.0
11
0.012292
21
0.333481
31
0.0
0
LINE
8
0
6
CONTINUOUS
10
0.018739
20
0.338029
30
0.0
11
0.019822
21
0.338788
31
0.0
0
LINE
8
0
6
CONTINUOUS
10
0.020361
20
0.339171
30
0.0
11
0.019746
21
0.340036
31
0.0
0
LINE
8
0
6
CONTINUOUS
10
0.019822
20
0.338788
30
0.0
11
0.020361
21
0.339171
31
0.0
0
LINE
8
0
6
CONTINUOUS
10
0.018195
20
0.337653
30
0.0
11
0.018739
21
0.338029
31
0.0
0
LINE
8
0
6
CONTINUOUS
10
0.024098
20
0.341804
30
0.0
11
0.025181
21
0.342562
31
0.0
0
LINE
8
0
6
CONTINUOUS
10
0.025721
20
0.342946
30
0.0
11
0.025097
21
0.343823
31
0.0
0
LINE
8
0
6
CONTINUOUS
10
0.025181
20
0.342562
30
0.0
11
0.025721
21
0.342946
31
0.0
0
LINE
8
0
6
CONTINUOUS
10
0.023555
20
0.341428
30
0.0
11
0.024098
21
0.341804
31
0.0
0
LINE
8
0
6
CONTINUOUS
10
0.028984
20
0.345750
30
0.0
11
0.030051
21
0.346499
31
0.0
0
LINE
8
0
6
CONTINUOUS
10
0.030426
20
0.346768
30
0.0
11
0.029796
21
0.347655
31
0.0
0
LINE
8
0
6
CONTINUOUS
10
0.030051
20
0.346499
30
0.0
11
0.030426
21
0.346768
31
0.0
0
LINE
8
0
6
CONTINUOUS
10
0.028291
20
0.345270
30
0.0
11
0.028984
21
0.345750
31
0.0
0
LINE
8
0
6
CONTINUOUS
10
0.027735
20
0.346053
30
0.0
11
0.028291
21
0.345270
31
0.0
0
LINE
8
0
6
CONTINUOUS
10
0.023848
20
0.342120
30
0.0
11
0.024916
21
0.342869
31
0.0
0
LINE
8
0
6
CONTINUOUS
10
0.025290
20
0.343138
30
0.0
11
0.024677
21
0.344002
31
0.0
0
LINE
8
0
6
CONTINUOUS
10
0.024916
20
0.342869
30
0.0
11
0.025290
21
0.343138
31
0.0
0
LINE
8
0
6
CONTINUOUS
10
0.023156
20
0.341640
30
0.0
11
0.023848
21
0.342120
31
0.0
0
LINE
8
0
6
CONTINUOUS
10
0.022590
20
0.342436
30
0.0
11
0.023156
21
0.341640
31
0.0
0
LINE
8
0
6
CONTINUOUS
10
0.017699
20
0.337796
30
0.0
11
0.018767
21
0.338545
31
0.0
0
LINE
8
0
6
CONTINUOUS
10
0.019142
20
0.338814
30
0.0
11
0.018542
21
0.339658
31
0.0
0
LINE
8
0
6
CONTINUOUS
10
0.018767
20
0.338545
30
0.0
11
0.019142
21
0.338814
31
0.0
0
LINE
8
0
6
CONTINUOUS
10
0.017007
20
0.337316
30
0.0
11
0.017699
21
0.337796
31
0.0
0
LINE
8
0
6
CONTINUOUS
10
0.016428
20
0.338130
30
0.0
11
0.017007
21
0.337316
31
0.0
0
LINE
8
0
6
CONTINUOUS
10
0.011018
20
0.333116
30
0.0
11
0.012085
21
0.333866
31
0.0
0
LINE
8
0
6
CONTINUOUS
10
0.012460
20
0.334135
30
0.0
11
0.011875
21
0.334959
31
0.0
0
LINE
8
0
6
CONTINUOUS
10
0.012085
20
0.333866
30
0.0
11
0.012460
21
0.334135
31
0.0
0
LINE
8
0
6
CONTINUOUS
10
0.010326
20
0.332636
30
0.0
11
0.011018
21
0.333116
31
0.0
0
LINE
8
0
6
CONTINUOUS
10
0.009732
20
0.333471
30
0.0
11
0.010326
21
0.332636
31
0.0
0
LINE
8
0
6
CONTINUOUS
10
-0.007358
20
0.318627
30
0.0
11
-0.006834
21
0.318986
31
0.0
0
LINE
8
0
6
CONTINUOUS
10
-0.007995
20
0.319526
30
0.0
11
-0.007358
21
0.318627
31
0.0
0
LINE
8
0
6
CONTINUOUS
10
-0.006834
20
0.318986
30
0.0
11
-0.005539
21
0.319893
31
0.0
0
LINE
8
0
6
CONTINUOUS
10
-0.005539
20
0.319893
30
0.0
11
-0.004767
21
0.320441
31
0.0
0
LINE
8
0
6
CONTINUOUS
10
-0.025265
20
0.307885
30
0.0
11
-0.024829
21
0.308184
31
0.0
0
LINE
8
0
6
CONTINUOUS
10
-0.025921
20
0.308813
30
0.0
11
-0.025265
21
0.307885
31
0.0
0
LINE
8
0
6
CONTINUOUS
10
-0.024829
20
0.308184
30
0.0
11
-0.023753
21
0.308938
31
0.0
0
LINE
8
0
6
CONTINUOUS
10
-0.023753
20
0.308938
30
0.0
11
-0.023112
21
0.309392
31
0.0
0
LINE
8
0
6
CONTINUOUS
10
-0.019143
20
0.311599
30
0.0
11
-0.018708
21
0.311898
31
0.0
0
LINE
8
0
6
CONTINUOUS
10
-0.018708
20
0.311898
30
0.0
11
-0.017631
21
0.312651
31
0.0
0
LINE
8
0
6
CONTINUOUS
10
-0.017631
20
0.312651
30
0.0
11
-0.016990
21
0.313106
31
0.0
0
LINE
8
0
6
CONTINUOUS
10
-0.013138
20
0.315187
30
0.0
11
-0.012631
21
0.315536
31
0.0
0
LINE
8
0
6
CONTINUOUS
10
-0.012631
20
0.315536
30
0.0
11
-0.011376
21
0.316414
31
0.0
0
LINE
8
0
6
CONTINUOUS
10
-0.011376
20
0.316414
30
0.0
11
-0.010628
21
0.316944
31
0.0
0
LINE
8
0
6
CONTINUOUS
10
-0.023386
20
0.309131
30
0.0
11
-0.022951
21
0.309430
31
0.0
0
LINE
8
0
6
CONTINUOUS
10
-0.024036
20
0.310050
30
0.0
11
-0.023386
21
0.309131
31
0.0
0
LINE
8
0
6
CONTINUOUS
10
-0.022951
20
0.309430
30
0.0
11
-0.021874
21
0.310184
31
0.0
0
LINE
8
0
6
CONTINUOUS
10
-0.021233
20
0.310638
30
0.0
11
-0.021767
21
0.311394
31
0.0
0
LINE
8
0
6
CONTINUOUS
10
-0.021874
20
0.310184
30
0.0
11
-0.021233
21
0.310638
31
0.0
0
LINE
8
0
6
CONTINUOUS
10
-0.017275
20
0.312860
30
0.0
11
-0.016840
21
0.313159
31
0.0
0
LINE
8
0
6
CONTINUOUS
10
-0.017905
20
0.313751
30
0.0
11
-0.017275
21
0.312860
31
0.0
0
LINE
8
0
6
CONTINUOUS
10
-0.016840
20
0.313159
30
0.0
11
-0.015763
21
0.313913
31
0.0
0
LINE
8
0
6
CONTINUOUS
10
-0.015763
20
0.313913
30
0.0
11
-0.015122
21
0.314367
31
0.0
0
LINE
8
0
6
CONTINUOUS
10
-0.010661
20
0.316890
30
0.0
11
-0.010154
21
0.317238
31
0.0
0
LINE
8
0
6
CONTINUOUS
10
-0.011304
20
0.317796
30
0.0
11
-0.010661
21
0.316890
31
0.0
0
LINE
8
0
6
CONTINUOUS
10
-0.010154
20
0.317238
30
0.0
11
-0.008899
21
0.318117
31
0.0
0
LINE
8
0
6
CONTINUOUS
10
-0.008899
20
0.318117
30
0.0
11
-0.008152
21
0.318647
31
0.0
0
LINE
8
0
6
CONTINUOUS
10
-0.004879
20
0.320326
30
0.0
11
-0.004355
21
0.320686
31
0.0
0
LINE
8
0
6
CONTINUOUS
10
-0.004355
20
0.320686
30
0.0
11
-0.003059
21
0.321593
31
0.0
0
LINE
8
0
6
CONTINUOUS
10
-0.002288
20
0.322140
30
0.0
11
-0.002855
21
0.322940
31
0.0
0
LINE
8
0
6
CONTINUOUS
10
-0.003059
20
0.321593
30
0.0
11
-0.002288
21
0.322140
31
0.0
0
LINE
8
0
6
CONTINUOUS
10
0.000625
20
0.324152
30
0.0
11
0.001149
21
0.324512
31
0.0
0
LINE
8
0
6
CONTINUOUS
10
0.000160
20
0.324807
30
0.0
11
0.000625
21
0.324152
31
0.0
0
LINE
8
0
6
CONTINUOUS
10
0.001149
20
0.324512
30
0.0
11
0.002444
21
0.325419
31
0.0
0
LINE
8
0
6
CONTINUOUS
10
0.003216
20
0.325966
30
0.0
11
0.002635
21
0.326786
31
0.0
0
LINE
8
0
6
CONTINUOUS
10
0.002444
20
0.325419
30
0.0
11
0.003216
21
0.325966
31
0.0
0
LINE
8
0
6
CONTINUOUS
10
-0.005804
20
0.320245
30
0.0
11
-0.005297
21
0.320593
31
0.0
0
LINE
8
0
6
CONTINUOUS
10
-0.006428
20
0.321126
30
0.0
11
-0.005804
21
0.320245
31
0.0
0
LINE
8
0
6
CONTINUOUS
10
-0.005297
20
0.320593
30
0.0
11
-0.004042
21
0.321472
31
0.0
0
LINE
8
0
6
CONTINUOUS
10
-0.003294
20
0.322002
30
0.0
11
-0.003852
21
0.322789
31
0.0
0
LINE
8
0
6
CONTINUOUS
10
-0.004042
20
0.321472
30
0.0
11
-0.003294
21
0.322002
31
0.0
0
LINE
8
0
6
CONTINUOUS
10
0.000252
20
0.324494
30
0.0
11
0.000760
21
0.324842
31
0.0
0
LINE
8
0
6
CONTINUOUS
10
0.000071
20
0.324749
30
0.0
11
0.000252
21
0.324494
31
0.0
0
LINE
8
0
6
CONTINUOUS
10
0.000760
20
0.324842
30
0.0
11
0.002015
21
0.325721
31
0.0
0
LINE
8
0
6
CONTINUOUS
10
0.002762
20
0.326251
30
0.0
11
0.002186
21
0.327064
31
0.0
0
LINE
8
0
6
CONTINUOUS
10
0.002015
20
0.325721
30
0.0
11
0.002762
21
0.326251
31
0.0
0
LINE
8
0
6
CONTINUOUS
10
-0.013611
20
0.315381
30
0.0
11
-0.013176
21
0.315680
31
0.0
0
LINE
8
0
6
CONTINUOUS
10
-0.014019
20
0.315958
30
0.0
11
-0.013611
21
0.315381
31
0.0
0
LINE
8
0
6
CONTINUOUS
10
-0.013176
20
0.315680
30
0.0
11
-0.012099
21
0.316434
31
0.0
0
LINE
8
0
6
CONTINUOUS
10
-0.011458
20
0.316889
30
0.0
11
-0.012016
21
0.317677
31
0.0
0
LINE
8
0
6
CONTINUOUS
10
-0.012099
20
0.316434
30
0.0
11
-0.011458
21
0.316889
31
0.0
0
LINE
8
0
6
CONTINUOUS
10
-0.008471
20
0.318966
30
0.0
11
-0.008035
21
0.319265
31
0.0
0
LINE
8
0
6
CONTINUOUS
10
-0.008606
20
0.319156
30
0.0
11
-0.008471
21
0.318966
31
0.0
0
LINE
8
0
6
CONTINUOUS
10
-0.008035
20
0.319265
30
0.0
11
-0.006959
21
0.320018
31
0.0
0
LINE
8
0
6
CONTINUOUS
10
-0.006318
20
0.320473
30
0.0
11
-0.006884
21
0.321274
31
0.0
0
LINE
8
0
6
CONTINUOUS
10
-0.006959
20
0.320018
30
0.0
11
-0.006318
21
0.320473
31
0.0
0
LINE
8
0
6
CONTINUOUS
10
-0.002074
20
0.323441
30
0.0
11
-0.001638
21
0.323740
31
0.0
0
LINE
8
0
6
CONTINUOUS
10
-0.001638
20
0.323740
30
0.0
11
-0.000562
21
0.324494
31
0.0
0
LINE
8
0
6
CONTINUOUS
10
0.000079
20
0.324948
30
0.0
11
-0.000497
21
0.325764
31
0.0
0
LINE
8
0
6
CONTINUOUS
10
-0.000562
20
0.324494
30
0.0
11
0.000079
21
0.324948
31
0.0
0
LINE
8
0
6
CONTINUOUS
10
-0.003477
20
0.322956
30
0.0
11
-0.002883
21
0.323367
31
0.0
0
LINE
8
0
6
CONTINUOUS
10
-0.004089
20
0.323819
30
0.0
11
-0.003477
21
0.322956
31
0.0
0
LINE
8
0
6
CONTINUOUS
10
-0.002883
20
0.323367
30
0.0
11
-0.001801
21
0.324125
31
0.0
0
LINE
8
0
6
CONTINUOUS
10
-0.001315
20
0.324472
30
0.0
11
-0.001880
21
0.325269
31
0.0
0
LINE
8
0
6
CONTINUOUS
10
-0.001801
20
0.324125
30
0.0
11
-0.001315
21
0.324472
31
0.0
0
LINE
8
0
6
CONTINUOUS
10
-0.009963
20
0.318427
30
0.0
11
-0.009368
21
0.318838
31
0.0
0
LINE
8
0
6
CONTINUOUS
10
-0.010597
20
0.319323
30
0.0
11
-0.009963
21
0.318427
31
0.0
0
LINE
8
0
6
CONTINUOUS
10
-0.009368
20
0.318838
30
0.0
11
-0.008287
21
0.319596
31
0.0
0
LINE
8
0
6
CONTINUOUS
10
-0.007800
20
0.319943
30
0.0
11
-0.008355
21
0.320726
31
0.0
0
LINE
8
0
6
CONTINUOUS
10
-0.008287
20
0.319596
30
0.0
11
-0.007800
21
0.319943
31
0.0
0
LINE
8
0
6
CONTINUOUS
10
-0.015702
20
0.314445
30
0.0
11
-0.015107
21
0.314856
31
0.0
0
LINE
8
0
6
CONTINUOUS
10
-0.016343
20
0.315349
30
0.0
11
-0.015702
21
0.314445
31
0.0
0
LINE
8
0
6
CONTINUOUS
10
-0.015107
20
0.314856
30
0.0
11
-0.014026
21
0.315614
31
0.0
0
LINE
8
0
6
CONTINUOUS
10
-0.013540
20
0.315961
30
0.0
11
-0.014081
21
0.316725
31
0.0
0
LINE
8
0
6
CONTINUOUS
10
-0.014026
20
0.315614
30
0.0
11
-0.013540
21
0.315961
31
0.0
0
LINE
8
0
6
CONTINUOUS
10
-0.020313
20
0.311261
30
0.0
11
-0.019719
21
0.311672
31
0.0
0
LINE
8
0
6
CONTINUOUS
10
-0.020961
20
0.312175
30
0.0
11
-0.020313
21
0.311261
31
0.0
0
LINE
8
0
6
CONTINUOUS
10
-0.019719
20
0.311672
30
0.0
11
-0.018637
21
0.312430
31
0.0
0
LINE
8
0
6
CONTINUOUS
10
-0.018151
20
0.312777
30
0.0
11
-0.018684
21
0.313529
31
0.0
0
LINE
8
0
6
CONTINUOUS
10
-0.018637
20
0.312430
30
0.0
11
-0.018151
21
0.312777
31
0.0
0
LINE
8
0
6
CONTINUOUS
10
0.020158
20
0.337890
30
0.0
11
0.020378
21
0.338052
31
0.0
0
LINE
8
0
6
CONTINUOUS
10
0.018935
20
0.337030
30
0.0
11
0.020158
21
0.337890
31
0.0
0
LINE
8
0
6
CONTINUOUS
10
0.017933
20
0.336333
30
0.0
11
0.018935
21
0.337030
31
0.0
0
LINE
8
0
6
CONTINUOUS
10
0.017372
20
0.337135
30
0.0
11
0.017933
21
0.336333
31
0.0
0
LINE
8
0
6
CONTINUOUS
10
0.034324
20
0.349555
30
0.0
11
0.033702
21
0.350445
31
0.0
0
LINE
8
0
6
CONTINUOUS
10
0.034141
20
0.349420
30
0.0
11
0.034324
21
0.349555
31
0.0
0
LINE
8
0
6
CONTINUOUS
10
0.033125
20
0.348706
30
0.0
11
0.034141
21
0.349420
31
0.0
0
LINE
8
0
6
CONTINUOUS
10
0.032292
20
0.348126
30
0.0
11
0.033125
21
0.348706
31
0.0
0
LINE
8
0
6
CONTINUOUS
10
0.031745
20
0.348908
30
0.0
11
0.032292
21
0.348126
31
0.0
0
LINE
8
0
6
CONTINUOUS
10
0.029501
20
0.345635
30
0.0
11
0.029684
21
0.345770
31
0.0
0
LINE
8
0
6
CONTINUOUS
10
0.028485
20
0.344921
30
0.0
11
0.029501
21
0.345635
31
0.0
0
LINE
8
0
6
CONTINUOUS
10
0.027652
20
0.344342
30
0.0
11
0.028485
21
0.344921
31
0.0
0
LINE
8
0
6
CONTINUOUS
10
0.027099
20
0.345133
30
0.0
11
0.027652
21
0.344342
31
0.0
0
LINE
8
0
6
CONTINUOUS
10
0.025194
20
0.342031
30
0.0
11
0.025407
21
0.342188
31
0.0
0
LINE
8
0
6
CONTINUOUS
10
0.024010
20
0.341198
30
0.0
11
0.025194
21
0.342031
31
0.0
0
LINE
8
0
6
CONTINUOUS
10
0.023039
20
0.340523
30
0.0
11
0.024010
21
0.341198
31
0.0
0
LINE
8
0
6
CONTINUOUS
10
0.022510
20
0.341279
30
0.0
11
0.023039
21
0.340523
31
0.0
0
LINE
8
0
6
CONTINUOUS
10
0.036581
20
0.351158
30
0.0
11
0.035938
21
0.352077
31
0.0
0
LINE
8
0
6
CONTINUOUS
10
0.036398
20
0.351023
30
0.0
11
0.036581
21
0.351158
31
0.0
0
LINE
8
0
6
CONTINUOUS
10
0.035382
20
0.350309
30
0.0
11
0.036398
21
0.351023
31
0.0
0
LINE
8
0
6
CONTINUOUS
10
0.034549
20
0.349729
30
0.0
11
0.035382
21
0.350309
31
0.0
0
LINE
8
0
6
CONTINUOUS
10
0.034010
20
0.350500
30
0.0
11
0.034549
21
0.349729
31
0.0
0
LINE
8
0
6
CONTINUOUS
10
0.031578
20
0.347133
30
0.0
11
0.030960
21
0.348016
31
0.0
0
LINE
8
0
6
CONTINUOUS
10
0.031395
20
0.346998
30
0.0
11
0.031578
21
0.347133
31
0.0
0
LINE
8
0
6
CONTINUOUS
10
0.030379
20
0.346284
30
0.0
11
0.031395
21
0.346998
31
0.0
0
LINE
8
0
6
CONTINUOUS
10
0.029546
20
0.345704
30
0.0
11
0.030379
21
0.346284
31
0.0
0
LINE
8
0
6
CONTINUOUS
10
0.026644
20
0.343082
30
0.0
11
0.025998
21
0.344005
31
0.0
0
LINE
8
0
6
CONTINUOUS
10
0.026431
20
0.342925
30
0.0
11
0.026644
21
0.343082
31
0.0
0
LINE
8
0
6
CONTINUOUS
10
0.025247
20
0.342092
30
0.0
11
0.026431
21
0.342925
31
0.0
0
LINE
8
0
6
CONTINUOUS
10
0.020843
20
0.338401
30
0.0
11
0.021063
21
0.338563
31
0.0
0
LINE
8
0
6
CONTINUOUS
10
0.017176
20
0.335874
30
0.0
11
0.018398
21
0.336734
31
0.0
0
LINE
8
0
6
CONTINUOUS
10
0.016173
20
0.335177
30
0.0
11
0.017176
21
0.335874
31
0.0
0
LINE
8
0
6
CONTINUOUS
10
0.031734
20
0.347291
30
0.0
11
0.031131
21
0.348152
31
0.0
0
LINE
8
0
6
CONTINUOUS
10
0.031551
20
0.347157
30
0.0
11
0.031734
21
0.347291
31
0.0
0
LINE
8
0
6
CONTINUOUS
10
0.031771
20
0.348663
30
0.0
11
0.032123
21
0.348160
31
0.0
0
LINE
8
0
6
CONTINUOUS
10
0.036460
20
0.351120
30
0.0
11
0.037399
21
0.351781
31
0.0
0
LINE
8
0
6
CONTINUOUS
10
0.012724
20
0.332781
30
0.0
11
0.013383
21
0.333250
31
0.0
0
LINE
8
0
6
CONTINUOUS
10
-0.034630
20
0.306291
30
0.0
11
-0.036612
21
0.306813
31
0.0
0
LINE
8
0
6
CONTINUOUS
10
-0.036612
20
0.306813
30
0.0
11
-0.038817
21
0.308047
31
0.0
0
LINE
8
0
6
CONTINUOUS
10
-0.038817
20
0.308047
30
0.0
11
-0.040028
21
0.309144
31
0.0
0
LINE
8
0
6
CONTINUOUS
10
-0.033353
20
0.306246
30
0.0
11
-0.034630
21
0.306291
31
0.0
0
LINE
8
0
6
CONTINUOUS
10
-0.032578
20
0.306218
30
0.0
11
-0.033353
21
0.306246
31
0.0
0
LINE
8
0
6
CONTINUOUS
10
0.032518
20
0.349574
30
0.0
11
0.031831
21
0.348979
31
0.0
0
LINE
8
0
6
CONTINUOUS
10
-0.010031
20
0.319775
30
0.0
11
-0.010096
21
0.319726
31
0.0
0
LINE
8
0
6
CONTINUOUS
10
-0.002427
20
0.325008
30
0.0
11
-0.001880
21
0.325269
31
0.0
0
LINE
8
0
6
CONTINUOUS
10
0.004181
20
0.329676
30
0.0
11
0.003093
21
0.328924
31
0.0
0
LINE
8
0
6
CONTINUOUS
10
0.028369
20
0.346615
30
0.0
11
0.027875
21
0.346171
31
0.0
0
LINE
8
0
6
CONTINUOUS
10
0.029400
20
0.347416
30
0.0
11
0.029768
21
0.347631
31
0.0
0
LINE
8
0
6
CONTINUOUS
10
0.141915
20
0.561717
30
0.0
11
0.141038
21
0.561548
31
0.0
0
LINE
8
0
6
CONTINUOUS
10
0.149150
20
0.563251
30
0.0
11
0.147318
21
0.562855
31
0.0
0
LINE
8
0
6
CONTINUOUS
10
0.150520
20
0.563528
30
0.0
11
0.149150
21
0.563251
31
0.0
0
LINE
8
0
6
CONTINUOUS
10
0.167605
20
0.567470
30
0.0
11
0.165778
21
0.567036
31
0.0
0
LINE
8
0
6
CONTINUOUS
10
0.183523
20
0.571731
30
0.0
11
0.183042
21
0.571611
31
0.0
0
LINE
8
0
6
CONTINUOUS
10
0.199215
20
0.576376
30
0.0
11
0.197402
21
0.575862
31
0.0
0
LINE
8
0
6
CONTINUOUS
10
0.155782
20
0.568663
30
0.0
11
0.153928
21
0.568392
31
0.0
0
LINE
8
0
6
CONTINUOUS
10
0.162537
20
0.569656
30
0.0
11
0.162249
21
0.569570
31
0.0
0
LINE
8
0
6
CONTINUOUS
10
0.165894
20
0.570481
30
0.0
11
0.164051
21
0.570144
31
0.0
0
LINE
8
0
6
CONTINUOUS
10
0.152305
20
0.566057
30
0.0
11
0.152204
21
0.566031
31
0.0
0
LINE
8
0
6
CONTINUOUS
10
0.174819
20
0.572058
30
0.0
11
0.172976
21
0.571721
31
0.0
0
LINE
8
0
6
CONTINUOUS
10
0.161994
20
0.567776
30
0.0
11
0.161476
21
0.567633
31
0.0
0
LINE
8
0
6
CONTINUOUS
10
0.182720
20
0.573460
30
0.0
11
0.180888
21
0.573059
31
0.0
0
LINE
8
0
6
CONTINUOUS
10
0.152201
20
0.564628
30
0.0
11
0.151601
21
0.564472
31
0.0
0
LINE
8
0
6
CONTINUOUS
10
0.189747
20
0.574714
30
0.0
11
0.187925
21
0.574253
31
0.0
0
LINE
8
0
6
CONTINUOUS
10
0.160864
20
0.566187
30
0.0
11
0.159367
21
0.565786
31
0.0
0
LINE
8
0
6
CONTINUOUS
10
0.178000
20
0.570701
30
0.0
11
0.177387
21
0.570561
31
0.0
0
LINE
8
0
6
CONTINUOUS
10
0.186250
20
0.572950
30
0.0
11
0.185372
21
0.572750
31
0.0
0
LINE
8
0
6
CONTINUOUS
10
0.195211
20
0.575651
30
0.0
11
0.193390
21
0.575191
31
0.0
0
LINE
8
0
6
CONTINUOUS
10
0.141920
20
0.561971
30
0.0
11
0.141509
21
0.561884
31
0.0
0
LINE
8
0
6
CONTINUOUS
10
0.142290
20
0.562885
30
0.0
11
0.142139
21
0.562847
31
0.0
0
LINE
8
0
6
CONTINUOUS
10
0.143578
20
0.566564
30
0.0
11
0.141778
21
0.566071
31
0.0
0
LINE
8
0
6
CONTINUOUS
10
0.145443
20
0.566774
30
0.0
11
0.143578
21
0.566564
31
0.0
0
LINE
8
0
6
CONTINUOUS
10
0.079508
20
0.554888
30
0.0
11
0.079992
21
0.554765
31
0.0
0
LINE
8
0
6
CONTINUOUS
10
0.077430
20
0.554810
30
0.0
11
0.075835
21
0.554609
31
0.0
0
LINE
8
0
6
CONTINUOUS
10
0.084353
20
0.556123
30
0.0
11
0.082770
21
0.555859
31
0.0
0
LINE
8
0
6
CONTINUOUS
10
0.096888
20
0.556241
30
0.0
11
0.097365
21
0.556154
31
0.0
0
LINE
8
0
6
CONTINUOUS
10
0.095427
20
0.556797
30
0.0
11
0.095904
21
0.556710
31
0.0
0
LINE
8
0
6
CONTINUOUS
10
0.094475
20
0.557683
30
0.0
11
0.092407
21
0.557546
31
0.0
0
LINE
8
0
6
CONTINUOUS
10
0.092407
20
0.557546
30
0.0
11
0.090836
21
0.557218
31
0.0
0
LINE
8
0
6
CONTINUOUS
10
0.105725
20
0.557072
30
0.0
11
0.106198
21
0.557010
31
0.0
0
LINE
8
0
6
CONTINUOUS
10
0.104789
20
0.557683
30
0.0
11
0.104633
21
0.557667
31
0.0
0
LINE
8
0
6
CONTINUOUS
10
0.103736
20
0.559277
30
0.0
11
0.102851
21
0.559199
31
0.0
0
LINE
8
0
6
CONTINUOUS
10
0.101671
20
0.559121
30
0.0
11
0.100100
21
0.558792
31
0.0
0
LINE
8
0
6
CONTINUOUS
10
0.111458
20
0.560923
30
0.0
11
0.109898
21
0.560533
31
0.0
0
LINE
8
0
6
CONTINUOUS
10
0.123791
20
0.562965
30
0.0
11
0.121742
21
0.562726
31
0.0
0
LINE
8
0
6
CONTINUOUS
10
0.125269
20
0.559036
30
0.0
11
0.125728
21
0.559048
31
0.0
0
LINE
8
0
6
CONTINUOUS
10
0.116195
20
0.557715
30
0.0
11
0.116653
21
0.557734
31
0.0
0
LINE
8
0
6
CONTINUOUS
10
0.107575
20
0.556614
30
0.0
11
0.107833
21
0.556594
31
0.0
0
LINE
8
0
6
CONTINUOUS
10
0.107363
20
0.556642
30
0.0
11
0.107575
21
0.556614
31
0.0
0
LINE
8
0
6
CONTINUOUS
10
0.107363
20
0.556642
30
0.0
11
0.106286
21
0.556532
31
0.0
0
LINE
8
0
6
CONTINUOUS
10
0.098889
20
0.555833
30
0.0
11
0.099357
21
0.555796
31
0.0
0
LINE
8
0
6
CONTINUOUS
10
0.090645
20
0.555094
30
0.0
11
0.091117
21
0.555035
31
0.0
0
LINE
8
0
6
CONTINUOUS
10
0.071916
20
0.553814
30
0.0
11
0.070321
21
0.553614
31
0.0
0
LINE
8
0
6
CONTINUOUS
10
0.131532
20
0.561005
30
0.0
11
0.131401
21
0.560974
31
0.0
0
LINE
8
0
6
CONTINUOUS
10
0.131138
20
0.563158
30
0.0
11
0.131008
21
0.563125
31
0.0
0
LINE
8
0
6
CONTINUOUS
10
0.134552
20
0.564852
30
0.0
11
0.135049
21
0.564657
31
0.0
0
LINE
8
0
6
CONTINUOUS
10
0.132773
20
0.564590
30
0.0
11
0.132512
21
0.564559
31
0.0
0
LINE
8
0
6
CONTINUOUS
10
0.134552
20
0.564852
30
0.0
11
0.132773
21
0.564590
31
0.0
0
LINE
8
0
6
CONTINUOUS
10
0.132512
20
0.564559
30
0.0
11
0.130963
21
0.564112
31
0.0
0
LINE
8
0
6
CONTINUOUS
10
0.063959
20
0.552350
30
0.0
11
0.062683
21
0.552271
31
0.0
0
LINE
8
0
6
CONTINUOUS
10
0.064834
20
0.552546
30
0.0
11
0.063559
21
0.552468
31
0.0
0
LINE
8
0
6
CONTINUOUS
10
0.127986
20
0.559171
30
0.0
11
0.128191
21
0.559197
31
0.0
0
LINE
8
0
6
CONTINUOUS
10
0.127312
20
0.559091
30
0.0
11
0.127986
21
0.559171
31
0.0
0
LINE
8
0
6
CONTINUOUS
10
0.127312
20
0.559091
30
0.0
11
0.125763
21
0.558858
31
0.0
0
LINE
8
0
6
CONTINUOUS
10
0.119130
20
0.557912
30
0.0
11
0.120009
21
0.558017
31
0.0
0
LINE
8
0
6
CONTINUOUS
10
0.108704
20
0.556444
30
0.0
11
0.107450
21
0.556244
31
0.0
0
LINE
8
0
6
CONTINUOUS
10
0.100087
20
0.555514
30
0.0
11
0.098829
21
0.555342
31
0.0
0
LINE
8
0
6
CONTINUOUS
10
0.075611
20
0.553449
30
0.0
11
0.074351
21
0.553285
31
0.0
0
LINE
8
0
6
CONTINUOUS
10
0.069626
20
0.553150
30
0.0
11
0.070532
21
0.553106
31
0.0
0
LINE
8
0
6
CONTINUOUS
10
0.067456
20
0.553057
30
0.0
11
0.066191
21
0.552919
31
0.0
0
LINE
8
0
6
CONTINUOUS
10
-0.024319
20
0.309739
30
0.0
11
-0.025465
21
0.309082
31
0.0
0
LINE
8
0
6
CONTINUOUS
10
-0.022456
20
0.311007
30
0.0
11
-0.023596
21
0.310342
31
0.0
0
LINE
8
0
6
CONTINUOUS
10
-0.019223
20
0.313256
30
0.0
11
-0.020365
21
0.312585
31
0.0
0
LINE
8
0
6
CONTINUOUS
10
-0.014629
20
0.316464
30
0.0
11
-0.014248
21
0.316636
31
0.0
0
LINE
8
0
6
CONTINUOUS
10
-0.014629
20
0.316464
30
0.0
11
-0.015763
21
0.315781
31
0.0
0
LINE
8
0
6
CONTINUOUS
10
0.010371
20
0.334028
30
0.0
11
0.009732
21
0.333471
31
0.0
0
LINE
8
0
6
CONTINUOUS
10
0.011442
20
0.334772
30
0.0
11
0.011875
21
0.334959
31
0.0
0
LINE
8
0
6
CONTINUOUS
10
0.017060
20
0.338695
30
0.0
11
0.016428
21
0.338130
31
0.0
0
LINE
8
0
6
CONTINUOUS
10
0.023220
20
0.343005
30
0.0
11
0.022606
21
0.342449
31
0.0
0
LINE
8
0
6
CONTINUOUS
10
0.035753
20
0.351945
30
0.0
11
0.035019
21
0.351334
31
0.0
0
LINE
8
0
6
CONTINUOUS
10
0.035753
20
0.351945
30
0.0
11
0.035883
21
0.352032
31
0.0
0
LINE
8
0
6
CONTINUOUS
10
-0.003657
20
0.322435
30
0.0
11
-0.002855
21
0.322940
31
0.0
0
LINE
8
0
6
CONTINUOUS
10
0.010697
20
0.332246
30
0.0
11
0.009858
21
0.331601
31
0.0
0
LINE
8
0
6
CONTINUOUS
10
-0.004669
20
0.322357
30
0.0
11
-0.003852
21
0.322789
31
0.0
0
LINE
8
0
6
CONTINUOUS
10
0.007147
20
0.330670
30
0.0
11
0.006577
21
0.330143
31
0.0
0
LINE
8
0
6
CONTINUOUS
10
0.007147
20
0.330670
30
0.0
11
0.006577
21
0.330143
31
0.0
0
LINE
8
0
6
CONTINUOUS
10
0.013888
20
0.335362
30
0.0
11
0.013323
21
0.334828
31
0.0
0
LINE
8
0
6
CONTINUOUS
10
0.020617
20
0.340171
30
0.0
11
0.019404
21
0.339217
31
0.0
0
LINE
8
0
6
CONTINUOUS
10
0.023416
20
0.342047
30
0.0
11
0.022510
21
0.341279
31
0.0
0
LINE
8
0
6
CONTINUOUS
10
-0.022142
20
0.311174
30
0.0
11
-0.021767
21
0.311394
31
0.0
0
LINE
8
0
6
CONTINUOUS
10
-0.018884
20
0.313420
30
0.0
11
-0.018684
21
0.313529
31
0.0
0
LINE
8
0
6
CONTINUOUS
10
-0.014248
20
0.316636
30
0.0
11
-0.014081
21
0.316725
31
0.0
0
LINE
8
0
6
CONTINUOUS
10
-0.012704
20
0.317289
30
0.0
11
-0.012016
21
0.317677
31
0.0
0
LINE
8
0
6
CONTINUOUS
10
-0.012704
20
0.317289
30
0.0
11
-0.013810
21
0.316578
31
0.0
0
LINE
8
0
6
CONTINUOUS
10
-0.007573
20
0.320887
30
0.0
11
-0.006884
21
0.321274
31
0.0
0
LINE
8
0
6
CONTINUOUS
10
0.005811
20
0.330263
30
0.0
11
0.006389
21
0.330592
31
0.0
0
LINE
8
0
6
CONTINUOUS
10
0.005811
20
0.330263
30
0.0
11
0.006389
21
0.330592
31
0.0
0
LINE
8
0
6
CONTINUOUS
10
0.027884
20
0.345779
30
0.0
11
0.027099
21
0.345133
31
0.0
0
LINE
8
0
6
CONTINUOUS
10
0.030772
20
0.347888
30
0.0
11
0.029799
21
0.347113
31
0.0
0
LINE
8
0
6
CONTINUOUS
10
0.110985
20
0.636103
30
0.0
11
0.109004
21
0.641261
31
0.0
0
LINE
8
0
6
CONTINUOUS
10
0.109004
20
0.641261
30
0.0
11
0.105475
21
0.644668
31
0.0
0
LINE
8
0
6
CONTINUOUS
10
0.108738
20
0.626162
30
0.0
11
0.108505
21
0.626026
31
0.0
0
LINE
8
0
6
CONTINUOUS
10
0.108505
20
0.626026
30
0.0
11
0.108217
21
0.624594
31
0.0
0
LINE
8
0
6
CONTINUOUS
10
0.105475
20
0.644668
30
0.0
11
0.105209
21
0.644716
31
0.0
0
LINE
8
0
6
CONTINUOUS
10
0.105209
20
0.644716
30
0.0
11
0.104449
21
0.645962
31
0.0
0
LINE
8
0
6
CONTINUOUS
10
0.108738
20
0.626162
30
0.0
11
0.110888
21
0.630577
31
0.0
0
LINE
8
0
6
CONTINUOUS
10
0.202707
20
0.576946
30
0.0
11
0.201826
21
0.576678
31
0.0
0
ENDSEC
0
EOF
