999
unknown String-ID: 20550
0
SECTION
2
HEADER
9
$ACADVER
1
AC1009
9
$DWGCODEPAGE
3
unknown String-ID: 20561
0
ENDSEC
0
SECTION
2
TABLES
0
TABLE
2
LAYER
70
1
0
LAYER
2
0
70
0
62
7
6
CONTINUOUS
0
ENDTAB
0
ENDSEC
0
SECTION
2
ENTITIES
0
LINE
8
0
6
CONTINUOUS
10
-0.191850
20
-0.447427
30
0.0
11
-0.191850
21
-0.460165
31
0.0
0
LINE
8
0
6
CONTINUOUS
10
-0.191850
20
-0.460165
30
0.0
11
-0.191850
21
-0.462566
31
0.0
0
LINE
8
0
6
CONTINUOUS
10
-0.190674
20
-0.468932
30
0.0
11
-0.184310
21
-0.468932
31
0.0
0
LINE
8
0
6
CONTINUOUS
10
-0.191850
20
-0.462566
30
0.0
11
-0.191850
21
-0.468932
31
0.0
0
LINE
8
0
6
CONTINUOUS
10
-0.191107
20
-0.468932
30
0.0
11
-0.191028
21
-0.468932
31
0.0
0
LINE
8
0
6
CONTINUOUS
10
-0.191028
20
-0.468932
30
0.0
11
-0.190674
21
-0.468932
31
0.0
0
LINE
8
0
6
CONTINUOUS
10
-0.176771
20
-0.460165
30
0.0
11
-0.176771
21
-0.454251
31
0.0
0
LINE
8
0
6
CONTINUOUS
10
-0.176771
20
-0.454248
30
0.0
11
-0.176771
21
-0.447427
31
0.0
0
LINE
8
0
6
CONTINUOUS
10
-0.176771
20
-0.462566
30
0.0
11
-0.176771
21
-0.460165
31
0.0
0
LINE
8
0
6
CONTINUOUS
10
-0.184310
20
-0.468932
30
0.0
11
-0.177947
21
-0.468932
31
0.0
0
LINE
8
0
6
CONTINUOUS
10
-0.176771
20
-0.468932
30
0.0
11
-0.176771
21
-0.462566
31
0.0
0
LINE
8
0
6
CONTINUOUS
10
-0.177593
20
-0.468932
30
0.0
11
-0.177513
21
-0.468932
31
0.0
0
LINE
8
0
6
CONTINUOUS
10
-0.177947
20
-0.468932
30
0.0
11
-0.177593
21
-0.468932
31
0.0
0
LINE
8
0
6
CONTINUOUS
10
-0.151526
20
-0.464041
30
0.0
11
-0.151526
21
-0.464864
31
0.0
0
LINE
8
0
6
CONTINUOUS
10
-0.176771
20
-0.441510
30
0.0
11
-0.176771
21
-0.439113
31
0.0
0
LINE
8
0
6
CONTINUOUS
10
-0.177443
20
-0.432747
30
0.0
11
-0.177812
21
-0.432747
31
0.0
0
LINE
8
0
6
CONTINUOUS
10
-0.177812
20
-0.432747
30
0.0
11
-0.184310
21
-0.432747
31
0.0
0
LINE
8
0
6
CONTINUOUS
10
-0.176771
20
-0.432747
30
0.0
11
-0.177443
21
-0.432747
31
0.0
0
LINE
8
0
6
CONTINUOUS
10
-0.176771
20
-0.439113
30
0.0
11
-0.176771
21
-0.432747
31
0.0
0
LINE
8
0
6
CONTINUOUS
10
-0.177206
20
-0.432747
30
0.0
11
-0.176771
21
-0.432747
31
0.0
0
LINE
8
0
6
CONTINUOUS
10
-0.176771
20
-0.432744
30
0.0
11
-0.177206
21
-0.432744
31
0.0
0
LINE
8
0
6
CONTINUOUS
10
-0.184310
20
-0.432747
30
0.0
11
-0.177206
21
-0.432747
31
0.0
0
LINE
8
0
6
CONTINUOUS
10
-0.177206
20
-0.432744
30
0.0
11
-0.184310
21
-0.432744
31
0.0
0
LINE
8
0
6
CONTINUOUS
10
-0.176771
20
-0.454248
30
0.0
11
-0.176771
21
-0.447428
31
0.0
0
LINE
8
0
6
CONTINUOUS
10
-0.176771
20
-0.447428
30
0.0
11
-0.176771
21
-0.441510
31
0.0
0
LINE
8
0
6
CONTINUOUS
10
-0.191850
20
-0.439113
30
0.0
11
-0.191850
21
-0.441510
31
0.0
0
LINE
8
0
6
CONTINUOUS
10
-0.190808
20
-0.432747
30
0.0
11
-0.191177
21
-0.432747
31
0.0
0
LINE
8
0
6
CONTINUOUS
10
-0.184310
20
-0.432747
30
0.0
11
-0.190808
21
-0.432747
31
0.0
0
LINE
8
0
6
CONTINUOUS
10
-0.191850
20
-0.432747
30
0.0
11
-0.191850
21
-0.439113
31
0.0
0
LINE
8
0
6
CONTINUOUS
10
-0.191177
20
-0.432747
30
0.0
11
-0.191850
21
-0.432747
31
0.0
0
LINE
8
0
6
CONTINUOUS
10
-0.191414
20
-0.432744
30
0.0
11
-0.191850
21
-0.432744
31
0.0
0
LINE
8
0
6
CONTINUOUS
10
-0.191850
20
-0.432747
30
0.0
11
-0.191414
21
-0.432747
31
0.0
0
LINE
8
0
6
CONTINUOUS
10
-0.184310
20
-0.432744
30
0.0
11
-0.191414
21
-0.432744
31
0.0
0
LINE
8
0
6
CONTINUOUS
10
-0.191414
20
-0.432747
30
0.0
11
-0.184310
21
-0.432747
31
0.0
0
LINE
8
0
6
CONTINUOUS
10
-0.191850
20
-0.441510
30
0.0
11
-0.191850
21
-0.454248
31
0.0
0
LINE
8
0
6
CONTINUOUS
10
-0.177513
20
-0.432744
30
0.0
11
-0.177875
21
-0.432744
31
0.0
0
LINE
8
0
6
CONTINUOUS
10
-0.177875
20
-0.432744
30
0.0
11
-0.184310
21
-0.432744
31
0.0
0
LINE
8
0
6
CONTINUOUS
10
-0.176771
20
-0.432744
30
0.0
11
-0.177513
21
-0.432744
31
0.0
0
LINE
8
0
6
CONTINUOUS
10
-0.190745
20
-0.432744
30
0.0
11
-0.191107
21
-0.432744
31
0.0
0
LINE
8
0
6
CONTINUOUS
10
-0.184310
20
-0.432744
30
0.0
11
-0.190745
21
-0.432744
31
0.0
0
LINE
8
0
6
CONTINUOUS
10
-0.191107
20
-0.432744
30
0.0
11
-0.191850
21
-0.432744
31
0.0
0
LINE
8
0
6
CONTINUOUS
10
-0.197432
20
-0.481801
30
0.0
11
-0.196790
21
-0.481801
31
0.0
0
LINE
8
0
6
CONTINUOUS
10
-0.196790
20
-0.413896
30
0.0
11
-0.197432
21
-0.413896
31
0.0
0
LINE
8
0
6
CONTINUOUS
10
-0.196790
20
-0.481801
30
0.0
11
-0.195832
21
-0.481491
31
0.0
0
LINE
8
0
6
CONTINUOUS
10
-0.195614
20
-0.414523
30
0.0
11
-0.196790
21
-0.413896
31
0.0
0
LINE
8
0
6
CONTINUOUS
10
-0.174271
20
-0.448055
30
0.0
11
-0.174271
21
-0.443051
31
0.0
0
LINE
8
0
6
CONTINUOUS
10
-0.174271
20
-0.457303
30
0.0
11
-0.174271
21
-0.453060
31
0.0
0
LINE
8
0
6
CONTINUOUS
10
-0.174271
20
-0.461133
30
0.0
11
-0.174271
21
-0.460137
31
0.0
0
LINE
8
0
6
CONTINUOUS
10
-0.194109
20
-0.461406
30
0.0
11
-0.191850
21
-0.461375
31
0.0
0
LINE
8
0
6
CONTINUOUS
10
-0.176771
20
-0.461167
30
0.0
11
-0.174271
21
-0.461133
31
0.0
0
LINE
8
0
6
CONTINUOUS
10
-0.174271
20
-0.434978
30
0.0
11
-0.176771
21
-0.434896
31
0.0
0
LINE
8
0
6
CONTINUOUS
10
-0.191850
20
-0.434403
30
0.0
11
-0.194108
21
-0.434329
31
0.0
0
LINE
8
0
6
CONTINUOUS
10
-0.174271
20
-0.453060
30
0.0
11
-0.174271
21
-0.448055
31
0.0
0
LINE
8
0
6
CONTINUOUS
10
-0.174271
20
-0.460137
30
0.0
11
-0.174271
21
-0.457303
31
0.0
0
LINE
8
0
6
CONTINUOUS
10
-0.195832
20
-0.481491
30
0.0
11
-0.195696
21
-0.479913
31
0.0
0
LINE
8
0
6
CONTINUOUS
10
-0.195493
20
-0.416109
30
0.0
11
-0.195614
21
-0.414523
31
0.0
0
LINE
8
0
6
CONTINUOUS
10
-0.155856
20
-0.464013
30
0.0
11
-0.149408
21
-0.464055
31
0.0
0
LINE
8
0
6
CONTINUOUS
10
-0.149408
20
-0.464055
30
0.0
11
-0.144899
21
-0.464073
31
0.0
0
LINE
8
0
6
CONTINUOUS
10
-0.144899
20
-0.464073
30
0.0
11
-0.140062
21
-0.464093
31
0.0
0
LINE
8
0
6
CONTINUOUS
10
-0.140062
20
-0.464093
30
0.0
11
-0.135029
21
-0.463483
31
0.0
0
LINE
8
0
6
CONTINUOUS
10
-0.145061
20
-0.425969
30
0.0
11
-0.149689
21
-0.427929
31
0.0
0
LINE
8
0
6
CONTINUOUS
10
-0.127173
20
-0.432228
30
0.0
11
-0.124176
21
-0.436263
31
0.0
0
LINE
8
0
6
CONTINUOUS
10
-0.156021
20
-0.453989
30
0.0
11
-0.153119
21
-0.457787
31
0.0
0
LINE
8
0
6
CONTINUOUS
10
-0.149308
20
-0.461071
30
0.0
11
-0.144993
21
-0.462977
31
0.0
0
LINE
8
0
6
CONTINUOUS
10
-0.173722
20
-0.463604
30
0.0
11
-0.159891
21
-0.463710
31
0.0
0
LINE
8
0
6
CONTINUOUS
10
-0.149509
20
-0.428207
30
0.0
11
-0.151901
21
-0.429726
31
0.0
0
LINE
8
0
6
CONTINUOUS
10
-0.157098
20
-0.431902
30
0.0
11
-0.173726
21
-0.432091
31
0.0
0
LINE
8
0
6
CONTINUOUS
10
-0.156217
20
-0.435144
30
0.0
11
-0.156900
21
-0.436339
31
0.0
0
LINE
8
0
6
CONTINUOUS
10
-0.154982
20
-0.433143
30
0.0
11
-0.156217
21
-0.435144
31
0.0
0
LINE
8
0
6
CONTINUOUS
10
-0.153258
20
-0.431250
30
0.0
11
-0.154982
21
-0.433143
31
0.0
0
LINE
8
0
6
CONTINUOUS
10
-0.152317
20
-0.430236
30
0.0
11
-0.153258
21
-0.431250
31
0.0
0
LINE
8
0
6
CONTINUOUS
10
-0.162973
20
-0.463731
30
0.0
11
-0.162301
21
-0.463761
31
0.0
0
LINE
8
0
6
CONTINUOUS
10
-0.154382
20
-0.431094
30
0.0
11
-0.157098
21
-0.431902
31
0.0
0
LINE
8
0
6
CONTINUOUS
10
-0.151901
20
-0.429726
30
0.0
11
-0.154382
21
-0.431094
31
0.0
0
LINE
8
0
6
CONTINUOUS
10
-0.156844
20
-0.452894
30
0.0
11
-0.156021
21
-0.453989
31
0.0
0
LINE
8
0
6
CONTINUOUS
10
-0.151310
20
-0.459737
30
0.0
11
-0.149308
21
-0.461071
31
0.0
0
LINE
8
0
6
CONTINUOUS
10
-0.149537
20
-0.428158
30
0.0
11
-0.152197
21
-0.429971
31
0.0
0
LINE
8
0
6
CONTINUOUS
10
-0.159891
20
-0.463710
30
0.0
11
-0.158869
21
-0.463736
31
0.0
0
LINE
8
0
6
CONTINUOUS
10
-0.174259
20
-0.463599
30
0.0
11
-0.173722
21
-0.463604
31
0.0
0
LINE
8
0
6
CONTINUOUS
10
-0.174259
20
-0.455842
30
0.0
11
-0.174259
21
-0.459029
31
0.0
0
LINE
8
0
6
CONTINUOUS
10
-0.174261
20
-0.440173
30
0.0
11
-0.174261
21
-0.443977
31
0.0
0
LINE
8
0
6
CONTINUOUS
10
-0.174261
20
-0.434312
30
0.0
11
-0.174262
21
-0.436857
31
0.0
0
LINE
8
0
6
CONTINUOUS
10
-0.173726
20
-0.432091
30
0.0
11
-0.174263
21
-0.432096
31
0.0
0
LINE
8
0
6
CONTINUOUS
10
-0.135030
20
-0.425805
30
0.0
11
-0.137514
21
-0.425341
31
0.0
0
LINE
8
0
6
CONTINUOUS
10
-0.130346
20
-0.427594
30
0.0
11
-0.135030
21
-0.425805
31
0.0
0
LINE
8
0
6
CONTINUOUS
10
-0.163159
20
-0.463685
30
0.0
11
-0.162303
21
-0.464006
31
0.0
0
LINE
8
0
6
CONTINUOUS
10
-0.171253
20
-0.430233
30
0.0
11
-0.171253
21
-0.432063
31
0.0
0
LINE
8
0
6
CONTINUOUS
10
-0.171223
20
-0.426092
30
0.0
11
-0.171240
21
-0.426607
31
0.0
0
LINE
8
0
6
CONTINUOUS
10
-0.123012
20
-0.454468
30
0.0
11
-0.120981
21
-0.449665
31
0.0
0
LINE
8
0
6
CONTINUOUS
10
-0.126111
20
-0.458475
30
0.0
11
-0.123012
21
-0.454468
31
0.0
0
LINE
8
0
6
CONTINUOUS
10
-0.120981
20
-0.449665
30
0.0
11
-0.120279
21
-0.444554
31
0.0
0
LINE
8
0
6
CONTINUOUS
10
-0.121030
20
-0.439498
30
0.0
11
-0.122683
21
-0.435590
31
0.0
0
LINE
8
0
6
CONTINUOUS
10
-0.144738
20
-0.425866
30
0.0
11
-0.145061
21
-0.425969
31
0.0
0
LINE
8
0
6
CONTINUOUS
10
-0.150912
20
-0.425157
30
0.0
11
-0.156934
21
-0.425180
31
0.0
0
LINE
8
0
6
CONTINUOUS
10
-0.170439
20
-0.425198
30
0.0
11
-0.171223
21
-0.426092
31
0.0
0
LINE
8
0
6
CONTINUOUS
10
-0.169633
20
-0.425147
30
0.0
11
-0.170439
21
-0.425198
31
0.0
0
LINE
8
0
6
CONTINUOUS
10
-0.156934
20
-0.425180
30
0.0
11
-0.161638
21
-0.425195
31
0.0
0
LINE
8
0
6
CONTINUOUS
10
-0.120279
20
-0.444554
30
0.0
11
-0.121030
21
-0.439498
31
0.0
0
LINE
8
0
6
CONTINUOUS
10
-0.126037
20
-0.430964
30
0.0
11
-0.126210
21
-0.430746
31
0.0
0
LINE
8
0
6
CONTINUOUS
10
-0.130216
20
-0.461637
30
0.0
11
-0.126111
21
-0.458475
31
0.0
0
LINE
8
0
6
CONTINUOUS
10
-0.171240
20
-0.426607
30
0.0
11
-0.171253
21
-0.430233
31
0.0
0
LINE
8
0
6
CONTINUOUS
10
-0.137514
20
-0.425341
30
0.0
11
-0.140021
21
-0.425147
31
0.0
0
LINE
8
0
6
CONTINUOUS
10
-0.144373
20
-0.425147
30
0.0
11
-0.150912
21
-0.425157
31
0.0
0
LINE
8
0
6
CONTINUOUS
10
-0.126210
20
-0.430746
30
0.0
11
-0.130346
21
-0.427594
31
0.0
0
LINE
8
0
6
CONTINUOUS
10
-0.169099
20
-0.425147
30
0.0
11
-0.169633
21
-0.425147
31
0.0
0
LINE
8
0
6
CONTINUOUS
10
-0.167831
20
-0.425147
30
0.0
11
-0.169099
21
-0.425147
31
0.0
0
LINE
8
0
6
CONTINUOUS
10
-0.167490
20
-0.425147
30
0.0
11
-0.167831
21
-0.425147
31
0.0
0
LINE
8
0
6
CONTINUOUS
10
-0.141259
20
-0.425147
30
0.0
11
-0.144373
21
-0.425147
31
0.0
0
LINE
8
0
6
CONTINUOUS
10
-0.135029
20
-0.463483
30
0.0
11
-0.130259
21
-0.461562
31
0.0
0
LINE
8
0
6
CONTINUOUS
10
-0.135029
20
-0.463483
30
0.0
11
-0.130248
21
-0.461581
31
0.0
0
LINE
8
0
6
CONTINUOUS
10
-0.135029
20
-0.463483
30
0.0
11
-0.130237
21
-0.461601
31
0.0
0
LINE
8
0
6
CONTINUOUS
10
-0.135029
20
-0.463483
30
0.0
11
-0.130226
21
-0.461620
31
0.0
0
LINE
8
0
6
CONTINUOUS
10
-0.131339
20
-0.462068
30
0.0
11
-0.130216
21
-0.461637
31
0.0
0
LINE
8
0
6
CONTINUOUS
10
-0.162303
20
-0.464006
30
0.0
11
-0.155856
21
-0.464013
31
0.0
0
LINE
8
0
6
CONTINUOUS
10
-0.157801
20
-0.449389
30
0.0
11
-0.155959
21
-0.453897
31
0.0
0
LINE
8
0
6
CONTINUOUS
10
-0.155959
20
-0.453897
30
0.0
11
-0.153074
21
-0.457705
31
0.0
0
LINE
8
0
6
CONTINUOUS
10
-0.153074
20
-0.457705
30
0.0
11
-0.149290
21
-0.460873
31
0.0
0
LINE
8
0
6
CONTINUOUS
10
-0.149290
20
-0.460873
30
0.0
11
-0.144936
21
-0.462768
31
0.0
0
LINE
8
0
6
CONTINUOUS
10
-0.144936
20
-0.462768
30
0.0
11
-0.140087
21
-0.463489
31
0.0
0
LINE
8
0
6
CONTINUOUS
10
-0.140087
20
-0.463489
30
0.0
11
-0.135170
21
-0.462899
31
0.0
0
LINE
8
0
6
CONTINUOUS
10
-0.131339
20
-0.461354
30
0.0
11
-0.130563
21
-0.461041
31
0.0
0
LINE
8
0
6
CONTINUOUS
10
-0.126586
20
-0.458047
30
0.0
11
-0.123518
21
-0.454112
31
0.0
0
LINE
8
0
6
CONTINUOUS
10
-0.121612
20
-0.449554
30
0.0
11
-0.120980
21
-0.444592
31
0.0
0
LINE
8
0
6
CONTINUOUS
10
-0.120980
20
-0.444592
30
0.0
11
-0.121658
21
-0.439646
31
0.0
0
LINE
8
0
6
CONTINUOUS
10
-0.121658
20
-0.439646
30
0.0
11
-0.123172
21
-0.435939
31
0.0
0
LINE
8
0
6
CONTINUOUS
10
-0.126501
20
-0.431295
30
0.0
11
-0.126607
21
-0.431161
31
0.0
0
LINE
8
0
6
CONTINUOUS
10
-0.130596
20
-0.428212
30
0.0
11
-0.135190
21
-0.426401
31
0.0
0
LINE
8
0
6
CONTINUOUS
10
-0.135190
20
-0.426401
30
0.0
11
-0.140071
21
-0.425799
31
0.0
0
LINE
8
0
6
CONTINUOUS
10
-0.140071
20
-0.425799
30
0.0
11
-0.144918
21
-0.426498
31
0.0
0
LINE
8
0
6
CONTINUOUS
10
-0.144918
20
-0.426498
30
0.0
11
-0.149371
21
-0.428433
31
0.0
0
LINE
8
0
6
CONTINUOUS
10
-0.149371
20
-0.428433
30
0.0
11
-0.153142
21
-0.431402
31
0.0
0
LINE
8
0
6
CONTINUOUS
10
-0.156069
20
-0.435261
30
0.0
11
-0.157758
21
-0.439734
31
0.0
0
LINE
8
0
6
CONTINUOUS
10
-0.217704
20
-0.481801
30
0.0
11
-0.197432
21
-0.481801
31
0.0
0
LINE
8
0
6
CONTINUOUS
10
-0.197432
20
-0.413896
30
0.0
11
-0.217704
21
-0.413896
31
0.0
0
LINE
8
0
6
CONTINUOUS
10
-0.195696
20
-0.479913
30
0.0
11
-0.194109
21
-0.461406
31
0.0
0
LINE
8
0
6
CONTINUOUS
10
-0.194108
20
-0.434329
30
0.0
11
-0.195493
21
-0.416109
31
0.0
0
LINE
8
0
6
CONTINUOUS
10
-0.123172
20
-0.435939
30
0.0
11
-0.115747
21
-0.430639
31
0.0
0
LINE
8
0
6
CONTINUOUS
10
-0.115747
20
-0.430639
30
0.0
11
-0.114856
21
-0.429523
31
0.0
0
LINE
8
0
6
CONTINUOUS
10
-0.114856
20
-0.429523
30
0.0
11
-0.114641
21
-0.428109
31
0.0
0
LINE
8
0
6
CONTINUOUS
10
-0.114641
20
-0.428109
30
0.0
11
-0.115158
21
-0.426778
31
0.0
0
LINE
8
0
6
CONTINUOUS
10
-0.116388
20
-0.425724
30
0.0
11
-0.117797
21
-0.425509
31
0.0
0
LINE
8
0
6
CONTINUOUS
10
-0.117797
20
-0.425509
30
0.0
11
-0.119125
21
-0.426030
31
0.0
0
LINE
8
0
6
CONTINUOUS
10
-0.115158
20
-0.426778
30
0.0
11
-0.116388
21
-0.425724
31
0.0
0
LINE
8
0
6
CONTINUOUS
10
-0.119125
20
-0.426030
30
0.0
11
-0.126501
21
-0.431295
31
0.0
0
LINE
8
0
6
CONTINUOUS
10
-0.116073
20
-0.430833
30
0.0
11
-0.115184
21
-0.429717
31
0.0
0
LINE
8
0
6
CONTINUOUS
10
-0.124005
20
-0.436494
30
0.0
11
-0.116073
21
-0.430833
31
0.0
0
LINE
8
0
6
CONTINUOUS
10
-0.124176
20
-0.436263
30
0.0
11
-0.124005
21
-0.436494
31
0.0
0
LINE
8
0
6
CONTINUOUS
10
-0.127345
20
-0.431998
30
0.0
11
-0.127173
21
-0.432228
31
0.0
0
LINE
8
0
6
CONTINUOUS
10
-0.196790
20
-0.413896
30
0.0
11
-0.197432
21
-0.413896
31
0.0
0
LINE
8
0
6
CONTINUOUS
10
-0.171253
20
-0.432063
30
0.0
11
-0.173726
21
-0.432091
31
0.0
0
LINE
8
0
6
CONTINUOUS
10
-0.195493
20
-0.416108
30
0.0
11
-0.195614
21
-0.414523
31
0.0
0
LINE
8
0
6
CONTINUOUS
10
-0.169099
20
-0.425147
30
0.0
11
-0.169633
21
-0.425147
31
0.0
0
LINE
8
0
6
CONTINUOUS
10
-0.167784
20
-0.425147
30
0.0
11
-0.169099
21
-0.425147
31
0.0
0
LINE
8
0
6
CONTINUOUS
10
-0.141480
20
-0.425147
30
0.0
11
-0.141259
21
-0.425147
31
0.0
0
LINE
8
0
6
CONTINUOUS
10
-0.140021
20
-0.425147
30
0.0
11
-0.141480
21
-0.425147
31
0.0
0
LINE
8
0
6
CONTINUOUS
10
-0.197432
20
-0.413896
30
0.0
11
-0.217704
21
-0.413896
31
0.0
0
LINE
8
0
6
CONTINUOUS
10
-0.194108
20
-0.434329
30
0.0
11
-0.195493
21
-0.416108
31
0.0
0
LINE
8
0
6
CONTINUOUS
10
-0.195696
20
-0.479912
30
0.0
11
-0.194109
21
-0.461406
31
0.0
0
LINE
8
0
6
CONTINUOUS
10
-0.116388
20
-0.425724
30
0.0
11
-0.117797
21
-0.425509
31
0.0
0
LINE
8
0
6
CONTINUOUS
10
-0.117797
20
-0.425509
30
0.0
11
-0.119125
21
-0.426030
31
0.0
0
LINE
8
0
6
CONTINUOUS
10
-0.119125
20
-0.426030
30
0.0
11
-0.126037
21
-0.430964
31
0.0
0
LINE
8
0
6
CONTINUOUS
10
-0.217704
20
-0.413896
30
0.0
11
-0.218771
21
-0.413896
31
0.0
0
LINE
8
0
6
CONTINUOUS
10
-0.218771
20
-0.481141
30
0.0
11
-0.218771
21
-0.481801
31
0.0
0
LINE
8
0
6
CONTINUOUS
10
-0.218771
20
-0.481801
30
0.0
11
-0.217704
21
-0.481801
31
0.0
0
LINE
8
0
6
CONTINUOUS
10
-0.218771
20
-0.479280
30
0.0
11
-0.218771
21
-0.481141
31
0.0
0
LINE
8
0
6
CONTINUOUS
10
-0.218771
20
-0.476105
30
0.0
11
-0.218771
21
-0.479280
31
0.0
0
LINE
8
0
6
CONTINUOUS
10
-0.218771
20
-0.471932
30
0.0
11
-0.218771
21
-0.476105
31
0.0
0
LINE
8
0
6
CONTINUOUS
10
-0.218771
20
-0.466881
30
0.0
11
-0.218771
21
-0.471932
31
0.0
0
LINE
8
0
6
CONTINUOUS
10
-0.218771
20
-0.460969
30
0.0
11
-0.218771
21
-0.466881
31
0.0
0
LINE
8
0
6
CONTINUOUS
10
-0.218771
20
-0.454658
30
0.0
11
-0.218771
21
-0.460969
31
0.0
0
LINE
8
0
6
CONTINUOUS
10
-0.218771
20
-0.448086
30
0.0
11
-0.218771
21
-0.454658
31
0.0
0
LINE
8
0
6
CONTINUOUS
10
-0.218771
20
-0.441392
30
0.0
11
-0.218771
21
-0.448086
31
0.0
0
LINE
8
0
6
CONTINUOUS
10
-0.218771
20
-0.435047
30
0.0
11
-0.218771
21
-0.441392
31
0.0
0
LINE
8
0
6
CONTINUOUS
10
-0.218771
20
-0.429164
30
0.0
11
-0.218771
21
-0.435047
31
0.0
0
LINE
8
0
6
CONTINUOUS
10
-0.218771
20
-0.423921
30
0.0
11
-0.218771
21
-0.429164
31
0.0
0
LINE
8
0
6
CONTINUOUS
10
-0.218771
20
-0.419704
30
0.0
11
-0.218771
21
-0.423921
31
0.0
0
LINE
8
0
6
CONTINUOUS
10
-0.218771
20
-0.413896
30
0.0
11
-0.218771
21
-0.414512
31
0.0
0
LINE
8
0
6
CONTINUOUS
10
-0.217704
20
-0.413896
30
0.0
11
-0.218771
21
-0.413896
31
0.0
0
LINE
8
0
6
CONTINUOUS
10
-0.218771
20
-0.414512
30
0.0
11
-0.218771
21
-0.416533
31
0.0
0
LINE
8
0
6
CONTINUOUS
10
-0.152842
20
-0.466244
30
0.0
11
-0.151676
21
-0.486769
31
0.0
0
LINE
8
0
6
CONTINUOUS
10
-0.132978
20
-0.487512
30
0.0
11
-0.131233
21
-0.487512
31
0.0
0
LINE
8
0
6
CONTINUOUS
10
-0.136165
20
-0.487512
30
0.0
11
-0.132978
21
-0.487512
31
0.0
0
LINE
8
0
6
CONTINUOUS
10
-0.140243
20
-0.487512
30
0.0
11
-0.136165
21
-0.487512
31
0.0
0
LINE
8
0
6
CONTINUOUS
10
-0.144508
20
-0.487512
30
0.0
11
-0.140243
21
-0.487512
31
0.0
0
LINE
8
0
6
CONTINUOUS
10
-0.148222
20
-0.487512
30
0.0
11
-0.144508
21
-0.487512
31
0.0
0
LINE
8
0
6
CONTINUOUS
10
-0.151634
20
-0.487512
30
0.0
11
-0.150742
21
-0.487512
31
0.0
0
LINE
8
0
6
CONTINUOUS
10
-0.151676
20
-0.486769
30
0.0
11
-0.151634
21
-0.487512
31
0.0
0
LINE
8
0
6
CONTINUOUS
10
-0.150742
20
-0.487512
30
0.0
11
-0.148222
21
-0.487512
31
0.0
0
LINE
8
0
6
CONTINUOUS
10
-0.140117
20
-0.464864
30
0.0
11
-0.144881
21
-0.464864
31
0.0
0
LINE
8
0
6
CONTINUOUS
10
-0.152842
20
-0.464864
30
0.0
11
-0.152842
21
-0.466244
31
0.0
0
LINE
8
0
6
CONTINUOUS
10
-0.151846
20
-0.464864
30
0.0
11
-0.152842
21
-0.464864
31
0.0
0
LINE
8
0
6
CONTINUOUS
10
-0.135561
20
-0.464864
30
0.0
11
-0.140117
21
-0.464864
31
0.0
0
LINE
8
0
6
CONTINUOUS
10
-0.130052
20
-0.464864
30
0.0
11
-0.132000
21
-0.464864
31
0.0
0
LINE
8
0
6
CONTINUOUS
10
-0.130052
20
-0.466244
30
0.0
11
-0.130052
21
-0.464864
31
0.0
0
LINE
8
0
6
CONTINUOUS
10
-0.152842
20
-0.464864
30
0.0
11
-0.151526
21
-0.464864
31
0.0
0
LINE
8
0
6
CONTINUOUS
10
-0.151846
20
-0.464864
30
0.0
11
-0.152842
21
-0.464864
31
0.0
0
LINE
8
0
6
CONTINUOUS
10
-0.151526
20
-0.464864
30
0.0
11
-0.151846
21
-0.464864
31
0.0
0
LINE
8
0
6
CONTINUOUS
10
-0.130052
20
-0.464864
30
0.0
11
-0.131339
21
-0.464864
31
0.0
0
LINE
8
0
6
CONTINUOUS
10
-0.131339
20
-0.464864
30
0.0
11
-0.130052
21
-0.464864
31
0.0
0
LINE
8
0
6
CONTINUOUS
10
-0.132000
20
-0.464864
30
0.0
11
-0.133065
21
-0.464864
31
0.0
0
LINE
8
0
6
CONTINUOUS
10
-0.150644
20
-0.464864
30
0.0
11
-0.151846
21
-0.464864
31
0.0
0
LINE
8
0
6
CONTINUOUS
10
-0.148150
20
-0.464864
30
0.0
11
-0.150644
21
-0.464864
31
0.0
0
LINE
8
0
6
CONTINUOUS
10
-0.135682
20
-0.540249
30
0.0
11
-0.134903
21
-0.487512
31
0.0
0
LINE
8
0
6
CONTINUOUS
10
-0.148105
20
-0.487512
30
0.0
11
-0.148878
21
-0.539953
31
0.0
0
LINE
8
0
6
CONTINUOUS
10
-0.136624
20
-0.571536
30
0.0
11
-0.135682
21
-0.540249
31
0.0
0
LINE
8
0
6
CONTINUOUS
10
-0.148878
20
-0.539953
30
0.0
11
-0.149804
21
-0.570805
31
0.0
0
LINE
8
0
6
CONTINUOUS
10
-0.138328
20
-0.592030
30
0.0
11
-0.136624
21
-0.571536
31
0.0
0
LINE
8
0
6
CONTINUOUS
10
-0.149804
20
-0.570805
30
0.0
11
-0.151441
21
-0.590537
31
0.0
0
LINE
8
0
6
CONTINUOUS
10
-0.141074
20
-0.608581
30
0.0
11
-0.138328
21
-0.592030
31
0.0
0
LINE
8
0
6
CONTINUOUS
10
-0.151441
20
-0.590537
30
0.0
11
-0.154066
21
-0.606347
31
0.0
0
LINE
8
0
6
CONTINUOUS
10
-0.144801
20
-0.622440
30
0.0
11
-0.141074
21
-0.608581
31
0.0
0
LINE
8
0
6
CONTINUOUS
10
-0.154066
20
-0.606347
30
0.0
11
-0.157651
21
-0.619676
31
0.0
0
LINE
8
0
6
CONTINUOUS
10
-0.149257
20
-0.632568
30
0.0
11
-0.144801
21
-0.622440
31
0.0
0
LINE
8
0
6
CONTINUOUS
10
-0.151872
20
-0.636312
30
0.0
11
-0.149257
21
-0.632568
31
0.0
0
LINE
8
0
6
CONTINUOUS
10
-0.157651
20
-0.619676
30
0.0
11
-0.161964
21
-0.629475
31
0.0
0
LINE
8
0
6
CONTINUOUS
10
-0.161304
20
-0.627976
30
0.0
11
-0.163829
21
-0.630873
31
0.0
0
LINE
8
0
6
CONTINUOUS
10
-0.156928
20
-0.642125
30
0.0
11
-0.151872
21
-0.636312
31
0.0
0
LINE
8
0
6
CONTINUOUS
10
-0.161786
20
-0.642831
30
0.0
11
-0.156928
21
-0.642125
31
0.0
0
LINE
8
0
6
CONTINUOUS
10
-0.166825
20
-0.643350
30
0.0
11
-0.161786
21
-0.642831
31
0.0
0
LINE
8
0
6
CONTINUOUS
10
-0.170714
20
-0.640334
30
0.0
11
-0.166825
21
-0.643350
31
0.0
0
LINE
8
0
6
CONTINUOUS
10
-0.162909
20
-0.629817
30
0.0
11
-0.163423
21
-0.629247
31
0.0
0
LINE
8
0
6
CONTINUOUS
10
-0.175050
20
-0.635495
30
0.0
11
-0.170714
21
-0.640334
31
0.0
0
LINE
8
0
6
CONTINUOUS
10
-0.163423
20
-0.629247
30
0.0
11
-0.166446
21
-0.620458
31
0.0
0
LINE
8
0
6
CONTINUOUS
10
-0.178436
20
-0.625631
30
0.0
11
-0.175050
21
-0.635495
31
0.0
0
LINE
8
0
6
CONTINUOUS
10
-0.166446
20
-0.620458
30
0.0
11
-0.168441
21
-0.608218
31
0.0
0
LINE
8
0
6
CONTINUOUS
10
-0.180694
20
-0.611811
30
0.0
11
-0.178436
21
-0.625631
31
0.0
0
LINE
8
0
6
CONTINUOUS
10
-0.168441
20
-0.608218
30
0.0
11
-0.169536
21
-0.593853
31
0.0
0
LINE
8
0
6
CONTINUOUS
10
-0.181914
20
-0.595942
30
0.0
11
-0.180694
21
-0.611811
31
0.0
0
LINE
8
0
6
CONTINUOUS
10
-0.169536
20
-0.593853
30
0.0
11
-0.170019
21
-0.579033
31
0.0
0
LINE
8
0
6
CONTINUOUS
10
-0.182435
20
-0.580086
30
0.0
11
-0.181914
21
-0.595942
31
0.0
0
LINE
8
0
6
CONTINUOUS
10
-0.170019
20
-0.579033
30
0.0
11
-0.170172
21
-0.564267
31
0.0
0
LINE
8
0
6
CONTINUOUS
10
-0.182597
20
-0.564715
30
0.0
11
-0.182435
21
-0.580086
31
0.0
0
LINE
8
0
6
CONTINUOUS
10
-0.170172
20
-0.564267
30
0.0
11
-0.170196
21
-0.547947
31
0.0
0
LINE
8
0
6
CONTINUOUS
10
-0.182622
20
-0.548104
30
0.0
11
-0.182597
21
-0.564715
31
0.0
0
LINE
8
0
6
CONTINUOUS
10
-0.170196
20
-0.547947
30
0.0
11
-0.170197
21
-0.526302
31
0.0
0
LINE
8
0
6
CONTINUOUS
10
-0.182623
20
-0.526351
30
0.0
11
-0.182622
21
-0.548104
31
0.0
0
LINE
8
0
6
CONTINUOUS
10
-0.170197
20
-0.526302
30
0.0
11
-0.170197
21
-0.494507
31
0.0
0
LINE
8
0
6
CONTINUOUS
10
-0.182623
20
-0.494520
30
0.0
11
-0.182623
21
-0.526351
31
0.0
0
LINE
8
0
6
CONTINUOUS
10
-0.170197
20
-0.494507
30
0.0
11
-0.170197
21
-0.463631
31
0.0
0
LINE
8
0
6
CONTINUOUS
10
-0.182623
20
-0.468929
30
0.0
11
-0.182623
21
-0.494520
31
0.0
0
LINE
8
0
6
CONTINUOUS
10
-0.170197
20
-0.425198
30
0.0
11
-0.170197
21
-0.396628
31
0.0
0
LINE
8
0
6
CONTINUOUS
10
-0.182623
20
-0.396628
30
0.0
11
-0.182623
21
-0.432744
31
0.0
0
LINE
8
0
6
CONTINUOUS
10
-0.170197
20
-0.396628
30
0.0
11
-0.170197
21
-0.339298
31
0.0
0
LINE
8
0
6
CONTINUOUS
10
-0.182623
20
-0.339299
30
0.0
11
-0.182623
21
-0.396628
31
0.0
0
LINE
8
0
6
CONTINUOUS
10
-0.170197
20
-0.339298
30
0.0
11
-0.170215
21
-0.287335
31
0.0
0
LINE
8
0
6
CONTINUOUS
10
-0.182641
20
-0.287339
30
0.0
11
-0.182623
21
-0.339299
31
0.0
0
LINE
8
0
6
CONTINUOUS
10
-0.170215
20
-0.287335
30
0.0
11
-0.170327
21
-0.246489
31
0.0
0
LINE
8
0
6
CONTINUOUS
10
-0.182753
20
-0.246506
30
0.0
11
-0.182641
21
-0.287339
31
0.0
0
LINE
8
0
6
CONTINUOUS
10
-0.170327
20
-0.246489
30
0.0
11
-0.170685
21
-0.217925
31
0.0
0
LINE
8
0
6
CONTINUOUS
10
-0.183110
20
-0.217983
30
0.0
11
-0.182753
21
-0.246506
31
0.0
0
LINE
8
0
6
CONTINUOUS
10
-0.170685
20
-0.217925
30
0.0
11
-0.171512
21
-0.198277
31
0.0
0
LINE
8
0
6
CONTINUOUS
10
-0.183934
20
-0.198409
30
0.0
11
-0.183110
21
-0.217983
31
0.0
0
LINE
8
0
6
CONTINUOUS
10
-0.171512
20
-0.198277
30
0.0
11
-0.173045
21
-0.181507
31
0.0
0
LINE
8
0
6
CONTINUOUS
10
-0.185463
20
-0.181682
30
0.0
11
-0.183934
21
-0.198409
31
0.0
0
LINE
8
0
6
CONTINUOUS
10
-0.173045
20
-0.181507
30
0.0
11
-0.175419
21
-0.162675
31
0.0
0
LINE
8
0
6
CONTINUOUS
10
-0.187842
20
-0.162804
30
0.0
11
-0.185463
21
-0.181682
31
0.0
0
LINE
8
0
6
CONTINUOUS
10
-0.175419
20
-0.162675
30
0.0
11
-0.178646
21
-0.138749
31
0.0
0
LINE
8
0
6
CONTINUOUS
10
-0.191086
20
-0.138758
30
0.0
11
-0.187842
21
-0.162804
31
0.0
0
LINE
8
0
6
CONTINUOUS
10
-0.178646
20
-0.138749
30
0.0
11
-0.182613
21
-0.108630
31
0.0
0
LINE
8
0
6
CONTINUOUS
10
-0.195076
20
-0.108458
30
0.0
11
-0.191086
21
-0.138758
31
0.0
0
LINE
8
0
6
CONTINUOUS
10
-0.182613
20
-0.108630
30
0.0
11
-0.186927
21
-0.072784
31
0.0
0
LINE
8
0
6
CONTINUOUS
10
-0.199421
20
-0.072350
30
0.0
11
-0.195076
21
-0.108458
31
0.0
0
LINE
8
0
6
CONTINUOUS
10
-0.186927
20
-0.072784
30
0.0
11
-0.190694
21
-0.032628
31
0.0
0
LINE
8
0
6
CONTINUOUS
10
-0.203223
20
-0.031788
30
0.0
11
-0.199421
21
-0.072350
31
0.0
0
LINE
8
0
6
CONTINUOUS
10
-0.190694
20
-0.032628
30
0.0
11
-0.192481
21
0.009564
31
0.0
0
LINE
8
0
6
CONTINUOUS
10
-0.205031
20
0.011082
30
0.0
11
-0.203223
21
-0.031788
31
0.0
0
LINE
8
0
6
CONTINUOUS
10
-0.192481
20
0.009564
30
0.0
11
-0.190339
21
0.050798
31
0.0
0
LINE
8
0
6
CONTINUOUS
10
-0.202802
20
0.053518
30
0.0
11
-0.205031
21
0.011082
31
0.0
0
LINE
8
0
6
CONTINUOUS
10
-0.190339
20
0.050798
30
0.0
11
-0.181681
21
0.090107
31
0.0
0
LINE
8
0
6
CONTINUOUS
10
-0.193729
20
0.094610
30
0.0
11
-0.202802
21
0.053518
31
0.0
0
LINE
8
0
6
CONTINUOUS
10
-0.181681
20
0.090107
30
0.0
11
-0.167784
21
0.121199
31
0.0
0
LINE
8
0
6
CONTINUOUS
10
-0.174248
20
0.138270
30
0.0
11
-0.193729
21
0.094610
31
0.0
0
LINE
8
0
6
CONTINUOUS
10
-0.173888
20
0.138859
30
0.0
11
-0.174248
21
0.138270
31
0.0
0
LINE
8
0
6
CONTINUOUS
10
0.115328
20
0.640534
30
0.0
11
0.108730
21
0.639371
31
0.0
0
LINE
8
0
6
CONTINUOUS
10
0.122513
20
0.641801
30
0.0
11
0.115328
21
0.640534
31
0.0
0
LINE
8
0
6
CONTINUOUS
10
0.128358
20
0.642832
30
0.0
11
0.122513
21
0.641801
31
0.0
0
LINE
8
0
6
CONTINUOUS
10
0.103732
20
0.638490
30
0.0
11
0.103872
21
0.637698
31
0.0
0
LINE
8
0
6
CONTINUOUS
10
0.131438
20
0.642558
30
0.0
11
0.131298
21
0.643350
31
0.0
0
LINE
8
0
6
CONTINUOUS
10
0.108730
20
0.639371
30
0.0
11
0.104486
21
0.638622
31
0.0
0
LINE
8
0
6
CONTINUOUS
10
0.120023
20
0.613909
30
0.0
11
0.127208
21
0.615176
31
0.0
0
LINE
8
0
6
CONTINUOUS
10
0.127208
20
0.615176
30
0.0
11
0.133053
21
0.616206
31
0.0
0
LINE
8
0
6
CONTINUOUS
10
0.108427
20
0.611864
30
0.0
11
0.109180
21
0.611997
31
0.0
0
LINE
8
0
6
CONTINUOUS
10
0.108277
20
0.612716
30
0.0
11
0.108427
21
0.611864
31
0.0
0
LINE
8
0
6
CONTINUOUS
10
0.135993
20
0.616725
30
0.0
11
0.135843
21
0.617577
31
0.0
0
LINE
8
0
6
CONTINUOUS
10
0.133053
20
0.616206
30
0.0
11
0.135993
21
0.616725
31
0.0
0
LINE
8
0
6
CONTINUOUS
10
0.109180
20
0.611997
30
0.0
11
0.113425
21
0.612745
31
0.0
0
LINE
8
0
6
CONTINUOUS
10
0.103872
20
0.637698
30
0.0
11
0.104153
21
0.636106
31
0.0
0
LINE
8
0
6
CONTINUOUS
10
0.107921
20
0.614737
30
0.0
11
0.108277
21
0.612716
31
0.0
0
LINE
8
0
6
CONTINUOUS
10
0.135843
20
0.617577
30
0.0
11
0.131438
21
0.642558
31
0.0
0
LINE
8
0
6
CONTINUOUS
10
0.112373
20
0.612560
30
0.0
11
0.112579
21
0.611344
31
0.0
0
LINE
8
0
6
CONTINUOUS
10
-0.176362
20
0.144563
30
0.0
11
-0.175284
21
0.141449
31
0.0
0
LINE
8
0
6
CONTINUOUS
10
-0.175284
20
0.141449
30
0.0
11
-0.173473
21
0.138073
31
0.0
0
LINE
8
0
6
CONTINUOUS
10
-0.173473
20
0.138073
30
0.0
11
-0.170973
21
0.134794
31
0.0
0
LINE
8
0
6
CONTINUOUS
10
-0.176683
20
0.148174
30
0.0
11
-0.176680
21
0.147123
31
0.0
0
LINE
8
0
6
CONTINUOUS
10
-0.170973
20
0.134794
30
0.0
11
-0.167784
21
0.132398
31
0.0
0
LINE
8
0
6
CONTINUOUS
10
-0.176680
20
0.147123
30
0.0
11
-0.176362
21
0.144563
31
0.0
0
LINE
8
0
6
CONTINUOUS
10
-0.146085
20
-0.425150
30
0.0
11
-0.146085
21
0.132479
31
0.0
0
LINE
8
0
6
CONTINUOUS
10
-0.146085
20
0.166262
30
0.0
11
-0.146085
21
0.516024
31
0.0
0
LINE
8
0
6
CONTINUOUS
10
-0.167784
20
0.516024
30
0.0
11
-0.167784
21
0.485806
31
0.0
0
LINE
8
0
6
CONTINUOUS
10
-0.167784
20
0.464845
30
0.0
11
-0.167784
21
0.165981
31
0.0
0
LINE
8
0
6
CONTINUOUS
10
-0.167784
20
0.132760
30
0.0
11
-0.167784
21
-0.425147
31
0.0
0
LINE
8
0
6
CONTINUOUS
10
-0.167521
20
0.523690
30
0.0
11
-0.167784
21
0.516024
31
0.0
0
LINE
8
0
6
CONTINUOUS
10
-0.146085
20
0.516024
30
0.0
11
-0.145895
21
0.521916
31
0.0
0
LINE
8
0
6
CONTINUOUS
10
-0.167092
20
0.530305
30
0.0
11
-0.167521
21
0.523690
31
0.0
0
LINE
8
0
6
CONTINUOUS
10
-0.145895
20
0.521916
30
0.0
11
-0.145533
21
0.527848
31
0.0
0
LINE
8
0
6
CONTINUOUS
10
-0.162916
20
0.548269
30
0.0
11
-0.165445
21
0.539488
31
0.0
0
LINE
8
0
6
CONTINUOUS
10
-0.144441
20
0.534437
30
0.0
11
-0.142497
21
0.540927
31
0.0
0
LINE
8
0
6
CONTINUOUS
10
-0.154537
20
0.564711
30
0.0
11
-0.159113
21
0.556724
31
0.0
0
LINE
8
0
6
CONTINUOUS
10
-0.139813
20
0.547131
30
0.0
11
-0.136355
21
0.552868
31
0.0
0
LINE
8
0
6
CONTINUOUS
10
-0.123737
20
0.592200
30
0.0
11
-0.133058
21
0.586529
31
0.0
0
LINE
8
0
6
CONTINUOUS
10
-0.142379
20
0.579129
30
0.0
11
-0.148824
21
0.572378
31
0.0
0
LINE
8
0
6
CONTINUOUS
10
-0.132454
20
0.558340
30
0.0
11
-0.127576
21
0.563264
31
0.0
0
LINE
8
0
6
CONTINUOUS
10
-0.120763
20
0.568914
30
0.0
11
-0.113950
21
0.572834
31
0.0
0
LINE
8
0
6
CONTINUOUS
10
-0.101634
20
0.599615
30
0.0
11
-0.112685
21
0.596620
31
0.0
0
LINE
8
0
6
CONTINUOUS
10
-0.106012
20
0.576234
30
0.0
11
-0.098075
21
0.578210
31
0.0
0
LINE
8
0
6
CONTINUOUS
10
0.104382
20
0.636146
30
0.0
11
-0.101634
21
0.599615
31
0.0
0
LINE
8
0
6
CONTINUOUS
10
-0.098075
20
0.578210
30
0.0
11
0.108150
21
0.614777
31
0.0
0
LINE
8
0
6
CONTINUOUS
10
-0.167784
20
0.485806
30
0.0
11
-0.206439
21
0.485806
31
0.0
0
LINE
8
0
6
CONTINUOUS
10
-0.206439
20
0.464845
30
0.0
11
-0.167784
21
0.464845
31
0.0
0
LINE
8
0
6
CONTINUOUS
10
-0.218771
20
0.503204
30
0.0
11
-0.218771
21
0.499612
31
0.0
0
LINE
8
0
6
CONTINUOUS
10
-0.218771
20
0.499612
30
0.0
11
-0.218771
21
0.494838
31
0.0
0
LINE
8
0
6
CONTINUOUS
10
-0.218771
20
0.482748
30
0.0
11
-0.218771
21
0.476038
31
0.0
0
LINE
8
0
6
CONTINUOUS
10
-0.206439
20
0.446275
30
0.0
11
-0.206439
21
0.447021
31
0.0
0
LINE
8
0
6
CONTINUOUS
10
-0.206917
20
0.446244
30
0.0
11
-0.206439
21
0.446275
31
0.0
0
LINE
8
0
6
CONTINUOUS
10
-0.206439
20
0.447021
30
0.0
11
-0.206439
21
0.449222
31
0.0
0
LINE
8
0
6
CONTINUOUS
10
-0.206439
20
0.449222
30
0.0
11
-0.206439
21
0.452768
31
0.0
0
LINE
8
0
6
CONTINUOUS
10
-0.206439
20
0.452768
30
0.0
11
-0.206439
21
0.457481
31
0.0
0
LINE
8
0
6
CONTINUOUS
10
-0.206439
20
0.457481
30
0.0
11
-0.206439
21
0.463124
31
0.0
0
LINE
8
0
6
CONTINUOUS
10
-0.206439
20
0.463124
30
0.0
11
-0.206439
21
0.469415
31
0.0
0
LINE
8
0
6
CONTINUOUS
10
-0.206439
20
0.469415
30
0.0
11
-0.206439
21
0.476038
31
0.0
0
LINE
8
0
6
CONTINUOUS
10
-0.206439
20
0.476038
30
0.0
11
-0.206439
21
0.482661
31
0.0
0
LINE
8
0
6
CONTINUOUS
10
-0.206439
20
0.482661
30
0.0
11
-0.206439
21
0.488952
31
0.0
0
LINE
8
0
6
CONTINUOUS
10
-0.206439
20
0.488952
30
0.0
11
-0.206439
21
0.494596
31
0.0
0
LINE
8
0
6
CONTINUOUS
10
-0.206439
20
0.494596
30
0.0
11
-0.206439
21
0.499308
31
0.0
0
LINE
8
0
6
CONTINUOUS
10
-0.218771
20
0.505434
30
0.0
11
-0.218771
21
0.503204
31
0.0
0
LINE
8
0
6
CONTINUOUS
10
-0.206439
20
0.499308
30
0.0
11
-0.206439
21
0.502854
31
0.0
0
LINE
8
0
6
CONTINUOUS
10
-0.206439
20
0.505802
30
0.0
11
-0.206916
21
0.505833
31
0.0
0
LINE
8
0
6
CONTINUOUS
10
-0.206439
20
0.505056
30
0.0
11
-0.206439
21
0.505802
31
0.0
0
LINE
8
0
6
CONTINUOUS
10
-0.206439
20
0.502854
30
0.0
11
-0.206439
21
0.505056
31
0.0
0
LINE
8
0
6
CONTINUOUS
10
-0.212169
20
0.445901
30
0.0
11
-0.206917
21
0.446244
31
0.0
0
LINE
8
0
6
CONTINUOUS
10
-0.206916
20
0.505833
30
0.0
11
-0.212169
21
0.506176
31
0.0
0
LINE
8
0
6
CONTINUOUS
10
-0.176134
20
0.154564
30
0.0
11
-0.176817
21
0.149370
31
0.0
0
LINE
8
0
6
CONTINUOUS
10
-0.176817
20
0.149370
30
0.0
11
-0.176640
21
0.148024
31
0.0
0
LINE
8
0
6
CONTINUOUS
10
-0.176640
20
0.148024
30
0.0
11
-0.176134
21
0.144177
31
0.0
0
LINE
8
0
6
CONTINUOUS
10
-0.176134
20
0.144177
30
0.0
11
-0.174129
21
0.139337
31
0.0
0
LINE
8
0
6
CONTINUOUS
10
-0.174129
20
0.139337
30
0.0
11
-0.170940
21
0.135182
31
0.0
0
LINE
8
0
6
CONTINUOUS
10
-0.170940
20
0.135182
30
0.0
11
-0.166784
21
0.131993
31
0.0
0
LINE
8
0
6
CONTINUOUS
10
-0.166784
20
0.131993
30
0.0
11
-0.161945
21
0.129988
31
0.0
0
LINE
8
0
6
CONTINUOUS
10
-0.161945
20
0.129988
30
0.0
11
-0.156751
21
0.129304
31
0.0
0
LINE
8
0
6
CONTINUOUS
10
-0.156751
20
0.129304
30
0.0
11
-0.151558
21
0.129988
31
0.0
0
LINE
8
0
6
CONTINUOUS
10
-0.151558
20
0.129988
30
0.0
11
-0.146719
21
0.131993
31
0.0
0
LINE
8
0
6
CONTINUOUS
10
-0.146719
20
0.131993
30
0.0
11
-0.142563
21
0.135182
31
0.0
0
LINE
8
0
6
CONTINUOUS
10
-0.142563
20
0.135182
30
0.0
11
-0.139374
21
0.139337
31
0.0
0
LINE
8
0
6
CONTINUOUS
10
-0.139374
20
0.139337
30
0.0
11
-0.137369
21
0.144177
31
0.0
0
LINE
8
0
6
CONTINUOUS
10
-0.137369
20
0.144177
30
0.0
11
-0.136686
21
0.149370
31
0.0
0
LINE
8
0
6
CONTINUOUS
10
-0.136686
20
0.149370
30
0.0
11
-0.137369
21
0.154564
31
0.0
0
LINE
8
0
6
CONTINUOUS
10
-0.137369
20
0.154564
30
0.0
11
-0.139374
21
0.159403
31
0.0
0
LINE
8
0
6
CONTINUOUS
10
-0.139374
20
0.159403
30
0.0
11
-0.142563
21
0.163559
31
0.0
0
LINE
8
0
6
CONTINUOUS
10
-0.142563
20
0.163559
30
0.0
11
-0.146719
21
0.166748
31
0.0
0
LINE
8
0
6
CONTINUOUS
10
-0.146719
20
0.166748
30
0.0
11
-0.151558
21
0.168752
31
0.0
0
LINE
8
0
6
CONTINUOUS
10
-0.151558
20
0.168752
30
0.0
11
-0.152893
21
0.168928
31
0.0
0
LINE
8
0
6
CONTINUOUS
10
-0.160610
20
0.168928
30
0.0
11
-0.161945
21
0.168752
31
0.0
0
LINE
8
0
6
CONTINUOUS
10
-0.161945
20
0.168752
30
0.0
11
-0.166784
21
0.166748
31
0.0
0
LINE
8
0
6
CONTINUOUS
10
-0.166784
20
0.166748
30
0.0
11
-0.170940
21
0.163559
31
0.0
0
LINE
8
0
6
CONTINUOUS
10
-0.170940
20
0.163559
30
0.0
11
-0.174129
21
0.159403
31
0.0
0
LINE
8
0
6
CONTINUOUS
10
-0.174129
20
0.159403
30
0.0
11
-0.176134
21
0.154564
31
0.0
0
LINE
8
0
6
CONTINUOUS
10
-0.160610
20
0.182153
30
0.0
11
-0.160610
21
0.168928
31
0.0
0
LINE
8
0
6
CONTINUOUS
10
-0.152893
20
0.168928
30
0.0
11
-0.152893
21
0.182153
31
0.0
0
LINE
8
0
6
CONTINUOUS
10
-0.152893
20
0.182153
30
0.0
11
-0.152893
21
0.182381
31
0.0
0
LINE
8
0
6
CONTINUOUS
10
-0.160610
20
0.182381
30
0.0
11
-0.160610
21
0.182153
31
0.0
0
LINE
8
0
6
CONTINUOUS
10
-0.160093
20
0.182818
30
0.0
11
-0.160610
21
0.182381
31
0.0
0
LINE
8
0
6
CONTINUOUS
10
-0.158681
20
0.183138
30
0.0
11
-0.160093
21
0.182818
31
0.0
0
LINE
8
0
6
CONTINUOUS
10
-0.156751
20
0.183255
30
0.0
11
-0.158681
21
0.183138
31
0.0
0
LINE
8
0
6
CONTINUOUS
10
-0.154822
20
0.183138
30
0.0
11
-0.156751
21
0.183255
31
0.0
0
LINE
8
0
6
CONTINUOUS
10
-0.153410
20
0.182818
30
0.0
11
-0.154822
21
0.183138
31
0.0
0
LINE
8
0
6
CONTINUOUS
10
-0.152893
20
0.182381
30
0.0
11
-0.153410
21
0.182818
31
0.0
0
LINE
8
0
6
CONTINUOUS
10
-0.218771
20
0.494838
30
0.0
11
-0.218771
21
0.489121
31
0.0
0
LINE
8
0
6
CONTINUOUS
10
-0.218771
20
0.489121
30
0.0
11
-0.218771
21
0.482748
31
0.0
0
LINE
8
0
6
CONTINUOUS
10
-0.218771
20
0.476038
30
0.0
11
-0.218771
21
0.469329
31
0.0
0
LINE
8
0
6
CONTINUOUS
10
-0.218771
20
0.469329
30
0.0
11
-0.218771
21
0.462956
31
0.0
0
LINE
8
0
6
CONTINUOUS
10
-0.218771
20
0.462956
30
0.0
11
-0.218771
21
0.457239
31
0.0
0
LINE
8
0
6
CONTINUOUS
10
-0.218771
20
0.457239
30
0.0
11
-0.218771
21
0.452465
31
0.0
0
LINE
8
0
6
CONTINUOUS
10
-0.218771
20
0.452465
30
0.0
11
-0.218771
21
0.448873
31
0.0
0
LINE
8
0
6
CONTINUOUS
10
-0.218771
20
0.448873
30
0.0
11
-0.218771
21
0.446643
31
0.0
0
LINE
8
0
6
CONTINUOUS
10
-0.218771
20
0.446643
30
0.0
11
-0.218771
21
0.445887
31
0.0
0
LINE
8
0
6
CONTINUOUS
10
-0.218771
20
0.445887
30
0.0
11
-0.212169
21
0.445901
31
0.0
0
LINE
8
0
6
CONTINUOUS
10
-0.218771
20
0.506190
30
0.0
11
-0.218771
21
0.505434
31
0.0
0
LINE
8
0
6
CONTINUOUS
10
-0.212169
20
0.506176
30
0.0
11
-0.218771
21
0.506190
31
0.0
0
LINE
8
0
6
CONTINUOUS
10
-0.143955
20
0.203037
30
0.0
11
-0.144227
21
0.202582
31
0.0
0
LINE
8
0
6
CONTINUOUS
10
-0.121287
20
0.189377
30
0.0
11
-0.123574
21
0.190755
31
0.0
0
LINE
8
0
6
CONTINUOUS
10
-0.142135
20
0.201940
30
0.0
11
-0.143492
21
0.202758
31
0.0
0
LINE
8
0
6
CONTINUOUS
10
-0.121032
20
0.188604
30
0.0
11
-0.120760
21
0.189060
31
0.0
0
LINE
8
0
6
CONTINUOUS
10
-0.120760
20
0.189060
30
0.0
11
-0.121287
21
0.189377
31
0.0
0
LINE
8
0
6
CONTINUOUS
10
-0.144227
20
0.202582
30
0.0
11
-0.146085
21
0.199467
31
0.0
0
LINE
8
0
6
CONTINUOUS
10
-0.138996
20
0.158490
30
0.0
11
-0.121032
21
0.188604
31
0.0
0
LINE
8
0
6
CONTINUOUS
10
-0.176362
20
0.144563
30
0.0
11
-0.175284
21
0.141449
31
0.0
0
LINE
8
0
6
CONTINUOUS
10
-0.175284
20
0.141449
30
0.0
11
-0.173473
21
0.138073
31
0.0
0
LINE
8
0
6
CONTINUOUS
10
-0.173473
20
0.138073
30
0.0
11
-0.170973
21
0.134794
31
0.0
0
LINE
8
0
6
CONTINUOUS
10
-0.176683
20
0.148174
30
0.0
11
-0.176680
21
0.147123
31
0.0
0
LINE
8
0
6
CONTINUOUS
10
-0.170973
20
0.134794
30
0.0
11
-0.167784
21
0.132398
31
0.0
0
LINE
8
0
6
CONTINUOUS
10
-0.176680
20
0.147123
30
0.0
11
-0.176362
21
0.144563
31
0.0
0
LINE
8
0
6
CONTINUOUS
10
-0.143955
20
0.203037
30
0.0
11
-0.144227
21
0.202582
31
0.0
0
LINE
8
0
6
CONTINUOUS
10
-0.121287
20
0.189377
30
0.0
11
-0.123574
21
0.190755
31
0.0
0
LINE
8
0
6
CONTINUOUS
10
-0.142135
20
0.201940
30
0.0
11
-0.143492
21
0.202758
31
0.0
0
LINE
8
0
6
CONTINUOUS
10
-0.121032
20
0.188604
30
0.0
11
-0.120760
21
0.189060
31
0.0
0
LINE
8
0
6
CONTINUOUS
10
-0.120760
20
0.189060
30
0.0
11
-0.121287
21
0.189377
31
0.0
0
LINE
8
0
6
CONTINUOUS
10
-0.144227
20
0.202582
30
0.0
11
-0.146085
21
0.199467
31
0.0
0
LINE
8
0
6
CONTINUOUS
10
-0.138996
20
0.158490
30
0.0
11
-0.121032
21
0.188604
31
0.0
0
LINE
8
0
6
CONTINUOUS
10
-0.112685
20
0.596620
30
0.0
11
-0.123737
21
0.592200
31
0.0
0
LINE
8
0
6
CONTINUOUS
10
-0.113950
20
0.572834
30
0.0
11
-0.106012
21
0.576234
31
0.0
0
LINE
8
0
6
CONTINUOUS
10
-0.133058
20
0.586529
30
0.0
11
-0.142379
21
0.579129
31
0.0
0
LINE
8
0
6
CONTINUOUS
10
-0.127576
20
0.563264
30
0.0
11
-0.120763
21
0.568914
31
0.0
0
LINE
8
0
6
CONTINUOUS
10
-0.148824
20
0.572378
30
0.0
11
-0.154537
21
0.564711
31
0.0
0
LINE
8
0
6
CONTINUOUS
10
-0.136355
20
0.552868
30
0.0
11
-0.132454
21
0.558340
31
0.0
0
LINE
8
0
6
CONTINUOUS
10
-0.159113
20
0.556724
30
0.0
11
-0.162916
21
0.548269
31
0.0
0
LINE
8
0
6
CONTINUOUS
10
-0.142497
20
0.540927
30
0.0
11
-0.139813
21
0.547131
31
0.0
0
LINE
8
0
6
CONTINUOUS
10
-0.165445
20
0.539488
30
0.0
11
-0.167092
21
0.530305
31
0.0
0
LINE
8
0
6
CONTINUOUS
10
-0.145533
20
0.527848
30
0.0
11
-0.144441
21
0.534437
31
0.0
0
LINE
8
0
6
CONTINUOUS
10
0.007365
20
0.318652
30
0.0
11
0.009003
21
0.319808
31
0.0
0
LINE
8
0
6
CONTINUOUS
10
0.005513
20
0.317359
30
0.0
11
0.007365
21
0.318652
31
0.0
0
LINE
8
0
6
CONTINUOUS
10
0.005299
20
0.317222
30
0.0
11
0.005513
21
0.317359
31
0.0
0
LINE
8
0
6
CONTINUOUS
10
-0.021254
20
0.300977
30
0.0
11
-0.021662
21
0.301555
31
0.0
0
LINE
8
0
6
CONTINUOUS
10
-0.015385
20
0.304534
30
0.0
11
-0.014946
21
0.304848
31
0.0
0
LINE
8
0
6
CONTINUOUS
10
-0.008173
20
0.308973
30
0.0
11
-0.008504
21
0.309440
31
0.0
0
LINE
8
0
6
CONTINUOUS
10
-0.002349
20
0.312441
30
0.0
11
-0.001582
21
0.312972
31
0.0
0
LINE
8
0
6
CONTINUOUS
10
-0.002813
20
0.313095
30
0.0
11
-0.002349
21
0.312441
31
0.0
0
LINE
8
0
6
CONTINUOUS
10
0.004685
20
0.316971
30
0.0
11
0.005988
21
0.317884
31
0.0
0
LINE
8
0
6
CONTINUOUS
10
0.006637
20
0.318346
30
0.0
11
0.006050
21
0.319169
31
0.0
0
LINE
8
0
6
CONTINUOUS
10
0.005988
20
0.317884
30
0.0
11
0.006637
21
0.318346
31
0.0
0
LINE
8
0
6
CONTINUOUS
10
0.004030
20
0.316519
30
0.0
11
0.004685
21
0.316971
31
0.0
0
LINE
8
0
6
CONTINUOUS
10
0.003430
20
0.317361
30
0.0
11
0.004030
21
0.316519
31
0.0
0
LINE
8
0
6
CONTINUOUS
10
0.011233
20
0.321570
30
0.0
11
0.012509
21
0.322466
31
0.0
0
LINE
8
0
6
CONTINUOUS
10
0.012916
20
0.322759
30
0.0
11
0.012315
21
0.323615
31
0.0
0
LINE
8
0
6
CONTINUOUS
10
0.012509
20
0.322466
30
0.0
11
0.012916
21
0.322759
31
0.0
0
LINE
8
0
6
CONTINUOUS
10
0.010364
20
0.320967
30
0.0
11
0.011233
21
0.321570
31
0.0
0
LINE
8
0
6
CONTINUOUS
10
0.009791
20
0.321784
30
0.0
11
0.010364
21
0.320967
31
0.0
0
LINE
8
0
6
CONTINUOUS
10
-0.000880
20
0.313100
30
0.0
11
-0.000476
21
0.313375
31
0.0
0
LINE
8
0
6
CONTINUOUS
10
-0.001494
20
0.313967
30
0.0
11
-0.000880
21
0.313100
31
0.0
0
LINE
8
0
6
CONTINUOUS
10
-0.000476
20
0.313375
30
0.0
11
0.000799
21
0.314267
31
0.0
0
LINE
8
0
6
CONTINUOUS
10
0.000799
20
0.314267
30
0.0
11
0.001670
21
0.314884
31
0.0
0
LINE
8
0
6
CONTINUOUS
10
-0.001527
20
0.313934
30
0.0
11
-0.000948
21
0.313098
31
0.0
0
LINE
8
0
6
CONTINUOUS
10
0.013194
20
0.322988
30
0.0
11
0.013332
21
0.323077
31
0.0
0
LINE
8
0
6
CONTINUOUS
10
0.012644
20
0.323781
30
0.0
11
0.013194
21
0.322988
31
0.0
0
LINE
8
0
6
CONTINUOUS
10
0.014523
20
0.323908
30
0.0
11
0.015577
21
0.324651
31
0.0
0
LINE
8
0
6
CONTINUOUS
10
0.013332
20
0.323077
30
0.0
11
0.014523
21
0.323908
31
0.0
0
LINE
8
0
6
CONTINUOUS
10
0.007780
20
0.319393
30
0.0
11
0.009084
21
0.320306
31
0.0
0
LINE
8
0
6
CONTINUOUS
10
0.009084
20
0.320306
30
0.0
11
0.009732
21
0.320768
31
0.0
0
LINE
8
0
6
CONTINUOUS
10
0.007126
20
0.318941
30
0.0
11
0.007780
21
0.319393
31
0.0
0
LINE
8
0
6
CONTINUOUS
10
0.006539
20
0.319764
30
0.0
11
0.007126
21
0.318941
31
0.0
0
LINE
8
0
6
CONTINUOUS
10
0.007726
20
0.319947
30
0.0
11
0.008989
21
0.320832
31
0.0
0
LINE
8
0
6
CONTINUOUS
10
0.009617
20
0.321279
30
0.0
11
0.009019
21
0.322118
31
0.0
0
LINE
8
0
6
CONTINUOUS
10
0.008989
20
0.320832
30
0.0
11
0.009617
21
0.321279
31
0.0
0
LINE
8
0
6
CONTINUOUS
10
0.007092
20
0.319509
30
0.0
11
0.007726
21
0.319947
31
0.0
0
LINE
8
0
6
CONTINUOUS
10
0.005290
20
0.318804
30
0.0
11
0.006373
21
0.319563
31
0.0
0
LINE
8
0
6
CONTINUOUS
10
0.006912
20
0.319947
30
0.0
11
0.006322
21
0.320776
31
0.0
0
LINE
8
0
6
CONTINUOUS
10
0.006373
20
0.319563
30
0.0
11
0.006912
21
0.319947
31
0.0
0
LINE
8
0
6
CONTINUOUS
10
0.004746
20
0.318429
30
0.0
11
0.005290
21
0.318804
31
0.0
0
LINE
8
0
6
CONTINUOUS
10
0.003670
20
0.318202
30
0.0
11
0.004753
21
0.318961
31
0.0
0
LINE
8
0
6
CONTINUOUS
10
0.003126
20
0.317827
30
0.0
11
0.003670
21
0.318202
31
0.0
0
LINE
8
0
6
CONTINUOUS
10
0.002532
20
0.318662
30
0.0
11
0.003126
21
0.317827
31
0.0
0
LINE
8
0
6
CONTINUOUS
10
0.003773
20
0.318256
30
0.0
11
0.004856
21
0.319015
31
0.0
0
LINE
8
0
6
CONTINUOUS
10
0.005396
20
0.319399
30
0.0
11
0.004815
21
0.320216
31
0.0
0
LINE
8
0
6
CONTINUOUS
10
0.004856
20
0.319015
30
0.0
11
0.005396
21
0.319399
31
0.0
0
LINE
8
0
6
CONTINUOUS
10
0.003230
20
0.317881
30
0.0
11
0.003773
21
0.318256
31
0.0
0
LINE
8
0
6
CONTINUOUS
10
0.005290
20
0.318804
30
0.0
11
0.006373
21
0.319563
31
0.0
0
LINE
8
0
6
CONTINUOUS
10
0.006912
20
0.319947
30
0.0
11
0.006322
21
0.320776
31
0.0
0
LINE
8
0
6
CONTINUOUS
10
0.006373
20
0.319563
30
0.0
11
0.006912
21
0.319947
31
0.0
0
LINE
8
0
6
CONTINUOUS
10
0.004746
20
0.318429
30
0.0
11
0.005290
21
0.318804
31
0.0
0
LINE
8
0
6
CONTINUOUS
10
0.007726
20
0.319947
30
0.0
11
0.008989
21
0.320832
31
0.0
0
LINE
8
0
6
CONTINUOUS
10
0.009617
20
0.321279
30
0.0
11
0.009019
21
0.322118
31
0.0
0
LINE
8
0
6
CONTINUOUS
10
0.008989
20
0.320832
30
0.0
11
0.009617
21
0.321279
31
0.0
0
LINE
8
0
6
CONTINUOUS
10
0.007092
20
0.319509
30
0.0
11
0.007726
21
0.319947
31
0.0
0
LINE
8
0
6
CONTINUOUS
10
0.007780
20
0.319393
30
0.0
11
0.009084
21
0.320306
31
0.0
0
LINE
8
0
6
CONTINUOUS
10
0.009084
20
0.320306
30
0.0
11
0.009732
21
0.320768
31
0.0
0
LINE
8
0
6
CONTINUOUS
10
0.007126
20
0.318941
30
0.0
11
0.007780
21
0.319393
31
0.0
0
LINE
8
0
6
CONTINUOUS
10
0.006539
20
0.319764
30
0.0
11
0.007126
21
0.318941
31
0.0
0
LINE
8
0
6
CONTINUOUS
10
0.014165
20
0.323879
30
0.0
11
0.015468
21
0.324792
31
0.0
0
LINE
8
0
6
CONTINUOUS
10
0.016117
20
0.325254
30
0.0
11
0.015589
21
0.325994
31
0.0
0
LINE
8
0
6
CONTINUOUS
10
0.015468
20
0.324792
30
0.0
11
0.016117
21
0.325254
31
0.0
0
LINE
8
0
6
CONTINUOUS
10
0.013510
20
0.323427
30
0.0
11
0.014165
21
0.323879
31
0.0
0
LINE
8
0
6
CONTINUOUS
10
0.012936
20
0.324232
30
0.0
11
0.013510
21
0.323427
31
0.0
0
LINE
8
0
6
CONTINUOUS
10
0.014453
20
0.324659
30
0.0
11
0.015715
21
0.325543
31
0.0
0
LINE
8
0
6
CONTINUOUS
10
0.016344
20
0.325991
30
0.0
11
0.015716
21
0.326871
31
0.0
0
LINE
8
0
6
CONTINUOUS
10
0.015715
20
0.325543
30
0.0
11
0.016344
21
0.325991
31
0.0
0
LINE
8
0
6
CONTINUOUS
10
0.013819
20
0.324221
30
0.0
11
0.014453
21
0.324659
31
0.0
0
LINE
8
0
6
CONTINUOUS
10
0.019946
20
0.328546
30
0.0
11
0.021208
21
0.329431
31
0.0
0
LINE
8
0
6
CONTINUOUS
10
0.021837
20
0.329878
30
0.0
11
0.021197
21
0.330776
31
0.0
0
LINE
8
0
6
CONTINUOUS
10
0.021208
20
0.329431
30
0.0
11
0.021837
21
0.329878
31
0.0
0
LINE
8
0
6
CONTINUOUS
10
0.019312
20
0.328109
30
0.0
11
0.019946
21
0.328546
31
0.0
0
LINE
8
0
6
CONTINUOUS
10
0.012225
20
0.323665
30
0.0
11
0.013308
21
0.324424
31
0.0
0
LINE
8
0
6
CONTINUOUS
10
0.013847
20
0.324807
30
0.0
11
0.013242
21
0.325659
31
0.0
0
LINE
8
0
6
CONTINUOUS
10
0.013308
20
0.324424
30
0.0
11
0.013847
21
0.324807
31
0.0
0
LINE
8
0
6
CONTINUOUS
10
0.011681
20
0.323289
30
0.0
11
0.012225
21
0.323665
31
0.0
0
LINE
8
0
6
CONTINUOUS
10
0.018672
20
0.328212
30
0.0
11
0.019755
21
0.328971
31
0.0
0
LINE
8
0
6
CONTINUOUS
10
0.020294
20
0.329355
30
0.0
11
0.019679
21
0.330220
31
0.0
0
LINE
8
0
6
CONTINUOUS
10
0.019755
20
0.328971
30
0.0
11
0.020294
21
0.329355
31
0.0
0
LINE
8
0
6
CONTINUOUS
10
0.018128
20
0.327837
30
0.0
11
0.018672
21
0.328212
31
0.0
0
LINE
8
0
6
CONTINUOUS
10
0.024032
20
0.331987
30
0.0
11
0.025115
21
0.332746
31
0.0
0
LINE
8
0
6
CONTINUOUS
10
0.025654
20
0.333130
30
0.0
11
0.025030
21
0.334007
31
0.0
0
LINE
8
0
6
CONTINUOUS
10
0.025115
20
0.332746
30
0.0
11
0.025654
21
0.333130
31
0.0
0
LINE
8
0
6
CONTINUOUS
10
0.023488
20
0.331612
30
0.0
11
0.024032
21
0.331987
31
0.0
0
LINE
8
0
6
CONTINUOUS
10
0.028917
20
0.335934
30
0.0
11
0.029984
21
0.336683
31
0.0
0
LINE
8
0
6
CONTINUOUS
10
0.030359
20
0.336952
30
0.0
11
0.029729
21
0.337839
31
0.0
0
LINE
8
0
6
CONTINUOUS
10
0.029984
20
0.336683
30
0.0
11
0.030359
21
0.336952
31
0.0
0
LINE
8
0
6
CONTINUOUS
10
0.028224
20
0.335454
30
0.0
11
0.028917
21
0.335934
31
0.0
0
LINE
8
0
6
CONTINUOUS
10
0.027668
20
0.336236
30
0.0
11
0.028224
21
0.335454
31
0.0
0
LINE
8
0
6
CONTINUOUS
10
0.023781
20
0.332304
30
0.0
11
0.024849
21
0.333053
31
0.0
0
LINE
8
0
6
CONTINUOUS
10
0.025224
20
0.333322
30
0.0
11
0.024610
21
0.334186
31
0.0
0
LINE
8
0
6
CONTINUOUS
10
0.024849
20
0.333053
30
0.0
11
0.025224
21
0.333322
31
0.0
0
LINE
8
0
6
CONTINUOUS
10
0.023089
20
0.331824
30
0.0
11
0.023781
21
0.332304
31
0.0
0
LINE
8
0
6
CONTINUOUS
10
0.022523
20
0.332620
30
0.0
11
0.023089
21
0.331824
31
0.0
0
LINE
8
0
6
CONTINUOUS
10
0.017633
20
0.327979
30
0.0
11
0.018700
21
0.328729
31
0.0
0
LINE
8
0
6
CONTINUOUS
10
0.019075
20
0.328998
30
0.0
11
0.018475
21
0.329842
31
0.0
0
LINE
8
0
6
CONTINUOUS
10
0.018700
20
0.328729
30
0.0
11
0.019075
21
0.328998
31
0.0
0
LINE
8
0
6
CONTINUOUS
10
0.016940
20
0.327499
30
0.0
11
0.017633
21
0.327979
31
0.0
0
LINE
8
0
6
CONTINUOUS
10
0.016361
20
0.328314
30
0.0
11
0.016940
21
0.327499
31
0.0
0
LINE
8
0
6
CONTINUOUS
10
0.010951
20
0.323300
30
0.0
11
0.012019
21
0.324049
31
0.0
0
LINE
8
0
6
CONTINUOUS
10
0.012393
20
0.324318
30
0.0
11
0.011808
21
0.325143
31
0.0
0
LINE
8
0
6
CONTINUOUS
10
0.012019
20
0.324049
30
0.0
11
0.012393
21
0.324318
31
0.0
0
LINE
8
0
6
CONTINUOUS
10
0.010259
20
0.322820
30
0.0
11
0.010951
21
0.323300
31
0.0
0
LINE
8
0
6
CONTINUOUS
10
0.009666
20
0.323655
30
0.0
11
0.010259
21
0.322820
31
0.0
0
LINE
8
0
6
CONTINUOUS
10
-0.007425
20
0.308810
30
0.0
11
-0.006901
21
0.309170
31
0.0
0
LINE
8
0
6
CONTINUOUS
10
-0.008062
20
0.309710
30
0.0
11
-0.007425
21
0.308810
31
0.0
0
LINE
8
0
6
CONTINUOUS
10
-0.006901
20
0.309170
30
0.0
11
-0.005605
21
0.310077
31
0.0
0
LINE
8
0
6
CONTINUOUS
10
-0.005605
20
0.310077
30
0.0
11
-0.004834
21
0.310624
31
0.0
0
LINE
8
0
6
CONTINUOUS
10
-0.025332
20
0.298069
30
0.0
11
-0.024896
21
0.298368
31
0.0
0
LINE
8
0
6
CONTINUOUS
10
-0.025988
20
0.298996
30
0.0
11
-0.025332
21
0.298069
31
0.0
0
LINE
8
0
6
CONTINUOUS
10
-0.024896
20
0.298368
30
0.0
11
-0.023820
21
0.299121
31
0.0
0
LINE
8
0
6
CONTINUOUS
10
-0.023820
20
0.299121
30
0.0
11
-0.023179
21
0.299576
31
0.0
0
LINE
8
0
6
CONTINUOUS
10
-0.019210
20
0.301783
30
0.0
11
-0.018774
21
0.302082
31
0.0
0
LINE
8
0
6
CONTINUOUS
10
-0.018774
20
0.302082
30
0.0
11
-0.017698
21
0.302835
31
0.0
0
LINE
8
0
6
CONTINUOUS
10
-0.017698
20
0.302835
30
0.0
11
-0.017057
21
0.303290
31
0.0
0
LINE
8
0
6
CONTINUOUS
10
-0.013205
20
0.305371
30
0.0
11
-0.012698
21
0.305719
31
0.0
0
LINE
8
0
6
CONTINUOUS
10
-0.012698
20
0.305719
30
0.0
11
-0.011443
21
0.306598
31
0.0
0
LINE
8
0
6
CONTINUOUS
10
-0.011443
20
0.306598
30
0.0
11
-0.010695
21
0.307128
31
0.0
0
LINE
8
0
6
CONTINUOUS
10
-0.023453
20
0.299315
30
0.0
11
-0.023018
21
0.299614
31
0.0
0
LINE
8
0
6
CONTINUOUS
10
-0.024103
20
0.300234
30
0.0
11
-0.023453
21
0.299315
31
0.0
0
LINE
8
0
6
CONTINUOUS
10
-0.023018
20
0.299614
30
0.0
11
-0.021941
21
0.300368
31
0.0
0
LINE
8
0
6
CONTINUOUS
10
-0.021300
20
0.300822
30
0.0
11
-0.021834
21
0.301577
31
0.0
0
LINE
8
0
6
CONTINUOUS
10
-0.021941
20
0.300368
30
0.0
11
-0.021300
21
0.300822
31
0.0
0
LINE
8
0
6
CONTINUOUS
10
-0.017342
20
0.303044
30
0.0
11
-0.016906
21
0.303343
31
0.0
0
LINE
8
0
6
CONTINUOUS
10
-0.017972
20
0.303935
30
0.0
11
-0.017342
21
0.303044
31
0.0
0
LINE
8
0
6
CONTINUOUS
10
-0.016906
20
0.303343
30
0.0
11
-0.015830
21
0.304096
31
0.0
0
LINE
8
0
6
CONTINUOUS
10
-0.015830
20
0.304096
30
0.0
11
-0.015189
21
0.304551
31
0.0
0
LINE
8
0
6
CONTINUOUS
10
-0.010728
20
0.307073
30
0.0
11
-0.010221
21
0.307422
31
0.0
0
LINE
8
0
6
CONTINUOUS
10
-0.011371
20
0.307980
30
0.0
11
-0.010728
21
0.307073
31
0.0
0
LINE
8
0
6
CONTINUOUS
10
-0.010221
20
0.307422
30
0.0
11
-0.008966
21
0.308300
31
0.0
0
LINE
8
0
6
CONTINUOUS
10
-0.008966
20
0.308300
30
0.0
11
-0.008219
21
0.308830
31
0.0
0
LINE
8
0
6
CONTINUOUS
10
-0.004946
20
0.310510
30
0.0
11
-0.004422
21
0.310870
31
0.0
0
LINE
8
0
6
CONTINUOUS
10
-0.004422
20
0.310870
30
0.0
11
-0.003126
21
0.311777
31
0.0
0
LINE
8
0
6
CONTINUOUS
10
-0.002355
20
0.312324
30
0.0
11
-0.002922
21
0.313124
31
0.0
0
LINE
8
0
6
CONTINUOUS
10
-0.003126
20
0.311777
30
0.0
11
-0.002355
21
0.312324
31
0.0
0
LINE
8
0
6
CONTINUOUS
10
0.000558
20
0.314336
30
0.0
11
0.001082
21
0.314696
31
0.0
0
LINE
8
0
6
CONTINUOUS
10
0.000093
20
0.314991
30
0.0
11
0.000558
21
0.314336
31
0.0
0
LINE
8
0
6
CONTINUOUS
10
0.001082
20
0.314696
30
0.0
11
0.002377
21
0.315603
31
0.0
0
LINE
8
0
6
CONTINUOUS
10
0.003149
20
0.316150
30
0.0
11
0.002568
21
0.316970
31
0.0
0
LINE
8
0
6
CONTINUOUS
10
0.002377
20
0.315603
30
0.0
11
0.003149
21
0.316150
31
0.0
0
LINE
8
0
6
CONTINUOUS
10
-0.005871
20
0.310428
30
0.0
11
-0.005363
21
0.310777
31
0.0
0
LINE
8
0
6
CONTINUOUS
10
-0.006495
20
0.311309
30
0.0
11
-0.005871
21
0.310428
31
0.0
0
LINE
8
0
6
CONTINUOUS
10
-0.005363
20
0.310777
30
0.0
11
-0.004109
21
0.311655
31
0.0
0
LINE
8
0
6
CONTINUOUS
10
-0.003361
20
0.312185
30
0.0
11
-0.003919
21
0.312973
31
0.0
0
LINE
8
0
6
CONTINUOUS
10
-0.004109
20
0.311655
30
0.0
11
-0.003361
21
0.312185
31
0.0
0
LINE
8
0
6
CONTINUOUS
10
0.000185
20
0.314677
30
0.0
11
0.000693
21
0.315026
31
0.0
0
LINE
8
0
6
CONTINUOUS
10
0.000004
20
0.314933
30
0.0
11
0.000185
21
0.314677
31
0.0
0
LINE
8
0
6
CONTINUOUS
10
0.000693
20
0.315026
30
0.0
11
0.001948
21
0.315904
31
0.0
0
LINE
8
0
6
CONTINUOUS
10
0.002695
20
0.316434
30
0.0
11
0.002119
21
0.317248
31
0.0
0
LINE
8
0
6
CONTINUOUS
10
0.001948
20
0.315904
30
0.0
11
0.002695
21
0.316434
31
0.0
0
LINE
8
0
6
CONTINUOUS
10
-0.013678
20
0.305565
30
0.0
11
-0.013243
21
0.305864
31
0.0
0
LINE
8
0
6
CONTINUOUS
10
-0.014086
20
0.306142
30
0.0
11
-0.013678
21
0.305565
31
0.0
0
LINE
8
0
6
CONTINUOUS
10
-0.013243
20
0.305864
30
0.0
11
-0.012166
21
0.306618
31
0.0
0
LINE
8
0
6
CONTINUOUS
10
-0.011525
20
0.307073
30
0.0
11
-0.012083
21
0.307861
31
0.0
0
LINE
8
0
6
CONTINUOUS
10
-0.012166
20
0.306618
30
0.0
11
-0.011525
21
0.307073
31
0.0
0
LINE
8
0
6
CONTINUOUS
10
-0.008538
20
0.309149
30
0.0
11
-0.008102
21
0.309448
31
0.0
0
LINE
8
0
6
CONTINUOUS
10
-0.008673
20
0.309340
30
0.0
11
-0.008538
21
0.309149
31
0.0
0
LINE
8
0
6
CONTINUOUS
10
-0.008102
20
0.309448
30
0.0
11
-0.007026
21
0.310202
31
0.0
0
LINE
8
0
6
CONTINUOUS
10
-0.006385
20
0.310657
30
0.0
11
-0.006951
21
0.311458
31
0.0
0
LINE
8
0
6
CONTINUOUS
10
-0.007026
20
0.310202
30
0.0
11
-0.006385
21
0.310657
31
0.0
0
LINE
8
0
6
CONTINUOUS
10
-0.002141
20
0.313625
30
0.0
11
-0.001705
21
0.313924
31
0.0
0
LINE
8
0
6
CONTINUOUS
10
-0.001705
20
0.313924
30
0.0
11
-0.000629
21
0.314677
31
0.0
0
LINE
8
0
6
CONTINUOUS
10
0.000012
20
0.315132
30
0.0
11
-0.000564
21
0.315948
31
0.0
0
LINE
8
0
6
CONTINUOUS
10
-0.000629
20
0.314677
30
0.0
11
0.000012
21
0.315132
31
0.0
0
LINE
8
0
6
CONTINUOUS
10
-0.003544
20
0.313140
30
0.0
11
-0.002950
21
0.313551
31
0.0
0
LINE
8
0
6
CONTINUOUS
10
-0.004156
20
0.314003
30
0.0
11
-0.003544
21
0.313140
31
0.0
0
LINE
8
0
6
CONTINUOUS
10
-0.002950
20
0.313551
30
0.0
11
-0.001868
21
0.314309
31
0.0
0
LINE
8
0
6
CONTINUOUS
10
-0.001382
20
0.314656
30
0.0
11
-0.001947
21
0.315453
31
0.0
0
LINE
8
0
6
CONTINUOUS
10
-0.001868
20
0.314309
30
0.0
11
-0.001382
21
0.314656
31
0.0
0
LINE
8
0
6
CONTINUOUS
10
-0.010030
20
0.308611
30
0.0
11
-0.009435
21
0.309022
31
0.0
0
LINE
8
0
6
CONTINUOUS
10
-0.010664
20
0.309506
30
0.0
11
-0.010030
21
0.308611
31
0.0
0
LINE
8
0
6
CONTINUOUS
10
-0.009435
20
0.309022
30
0.0
11
-0.008354
21
0.309780
31
0.0
0
LINE
8
0
6
CONTINUOUS
10
-0.007867
20
0.310127
30
0.0
11
-0.008422
21
0.310910
31
0.0
0
LINE
8
0
6
CONTINUOUS
10
-0.008354
20
0.309780
30
0.0
11
-0.007867
21
0.310127
31
0.0
0
LINE
8
0
6
CONTINUOUS
10
-0.015769
20
0.304628
30
0.0
11
-0.015174
21
0.305040
31
0.0
0
LINE
8
0
6
CONTINUOUS
10
-0.016410
20
0.305533
30
0.0
11
-0.015769
21
0.304628
31
0.0
0
LINE
8
0
6
CONTINUOUS
10
-0.015174
20
0.305040
30
0.0
11
-0.014093
21
0.305798
31
0.0
0
LINE
8
0
6
CONTINUOUS
10
-0.013607
20
0.306145
30
0.0
11
-0.014148
21
0.306909
31
0.0
0
LINE
8
0
6
CONTINUOUS
10
-0.014093
20
0.305798
30
0.0
11
-0.013607
21
0.306145
31
0.0
0
LINE
8
0
6
CONTINUOUS
10
-0.020380
20
0.301445
30
0.0
11
-0.019785
21
0.301856
31
0.0
0
LINE
8
0
6
CONTINUOUS
10
-0.021028
20
0.302359
30
0.0
11
-0.020380
21
0.301445
31
0.0
0
LINE
8
0
6
CONTINUOUS
10
-0.019785
20
0.301856
30
0.0
11
-0.018704
21
0.302614
31
0.0
0
LINE
8
0
6
CONTINUOUS
10
-0.018218
20
0.302961
30
0.0
11
-0.018751
21
0.303713
31
0.0
0
LINE
8
0
6
CONTINUOUS
10
-0.018704
20
0.302614
30
0.0
11
-0.018218
21
0.302961
31
0.0
0
LINE
8
0
6
CONTINUOUS
10
0.020091
20
0.328074
30
0.0
11
0.020311
21
0.328236
31
0.0
0
LINE
8
0
6
CONTINUOUS
10
0.018868
20
0.327214
30
0.0
11
0.020091
21
0.328074
31
0.0
0
LINE
8
0
6
CONTINUOUS
10
0.017866
20
0.326517
30
0.0
11
0.018868
21
0.327214
31
0.0
0
LINE
8
0
6
CONTINUOUS
10
0.017305
20
0.327318
30
0.0
11
0.017866
21
0.326517
31
0.0
0
LINE
8
0
6
CONTINUOUS
10
0.034257
20
0.339739
30
0.0
11
0.033635
21
0.340628
31
0.0
0
LINE
8
0
6
CONTINUOUS
10
0.034074
20
0.339604
30
0.0
11
0.034257
21
0.339739
31
0.0
0
LINE
8
0
6
CONTINUOUS
10
0.033059
20
0.338890
30
0.0
11
0.034074
21
0.339604
31
0.0
0
LINE
8
0
6
CONTINUOUS
10
0.032226
20
0.338310
30
0.0
11
0.033059
21
0.338890
31
0.0
0
LINE
8
0
6
CONTINUOUS
10
0.031678
20
0.339092
30
0.0
11
0.032226
21
0.338310
31
0.0
0
LINE
8
0
6
CONTINUOUS
10
0.029434
20
0.335819
30
0.0
11
0.029617
21
0.335954
31
0.0
0
LINE
8
0
6
CONTINUOUS
10
0.028418
20
0.335105
30
0.0
11
0.029434
21
0.335819
31
0.0
0
LINE
8
0
6
CONTINUOUS
10
0.027585
20
0.334526
30
0.0
11
0.028418
21
0.335105
31
0.0
0
LINE
8
0
6
CONTINUOUS
10
0.027032
20
0.335316
30
0.0
11
0.027585
21
0.334526
31
0.0
0
LINE
8
0
6
CONTINUOUS
10
0.025127
20
0.332214
30
0.0
11
0.025341
21
0.332372
31
0.0
0
LINE
8
0
6
CONTINUOUS
10
0.023943
20
0.331382
30
0.0
11
0.025127
21
0.332214
31
0.0
0
LINE
8
0
6
CONTINUOUS
10
0.022972
20
0.330706
30
0.0
11
0.023943
21
0.331382
31
0.0
0
LINE
8
0
6
CONTINUOUS
10
0.022443
20
0.331463
30
0.0
11
0.022972
21
0.330706
31
0.0
0
LINE
8
0
6
CONTINUOUS
10
0.036514
20
0.341342
30
0.0
11
0.035871
21
0.342261
31
0.0
0
LINE
8
0
6
CONTINUOUS
10
0.036331
20
0.341207
30
0.0
11
0.036514
21
0.341342
31
0.0
0
LINE
8
0
6
CONTINUOUS
10
0.035315
20
0.340492
30
0.0
11
0.036331
21
0.341207
31
0.0
0
LINE
8
0
6
CONTINUOUS
10
0.034482
20
0.339913
30
0.0
11
0.035315
21
0.340492
31
0.0
0
LINE
8
0
6
CONTINUOUS
10
0.033943
20
0.340684
30
0.0
11
0.034482
21
0.339913
31
0.0
0
LINE
8
0
6
CONTINUOUS
10
0.031511
20
0.337317
30
0.0
11
0.030893
21
0.338199
31
0.0
0
LINE
8
0
6
CONTINUOUS
10
0.031328
20
0.337182
30
0.0
11
0.031511
21
0.337317
31
0.0
0
LINE
8
0
6
CONTINUOUS
10
0.030312
20
0.336468
30
0.0
11
0.031328
21
0.337182
31
0.0
0
LINE
8
0
6
CONTINUOUS
10
0.029479
20
0.335888
30
0.0
11
0.030312
21
0.336468
31
0.0
0
LINE
8
0
6
CONTINUOUS
10
0.026578
20
0.333266
30
0.0
11
0.025931
21
0.334189
31
0.0
0
LINE
8
0
6
CONTINUOUS
10
0.026364
20
0.333108
30
0.0
11
0.026578
21
0.333266
31
0.0
0
LINE
8
0
6
CONTINUOUS
10
0.025180
20
0.332276
30
0.0
11
0.026364
21
0.333108
31
0.0
0
LINE
8
0
6
CONTINUOUS
10
0.020776
20
0.328585
30
0.0
11
0.020996
21
0.328747
31
0.0
0
LINE
8
0
6
CONTINUOUS
10
0.017109
20
0.326058
30
0.0
11
0.018331
21
0.326917
31
0.0
0
LINE
8
0
6
CONTINUOUS
10
0.016106
20
0.325360
30
0.0
11
0.017109
21
0.326058
31
0.0
0
LINE
8
0
6
CONTINUOUS
10
0.031667
20
0.337475
30
0.0
11
0.031064
21
0.338336
31
0.0
0
LINE
8
0
6
CONTINUOUS
10
0.031484
20
0.337340
30
0.0
11
0.031667
21
0.337475
31
0.0
0
LINE
8
0
6
CONTINUOUS
10
0.031704
20
0.338847
30
0.0
11
0.032056
21
0.338343
31
0.0
0
LINE
8
0
6
CONTINUOUS
10
0.036393
20
0.341303
30
0.0
11
0.037332
21
0.341965
31
0.0
0
LINE
8
0
6
CONTINUOUS
10
0.012657
20
0.322965
30
0.0
11
0.013316
21
0.323434
31
0.0
0
LINE
8
0
6
CONTINUOUS
10
-0.121207
20
0.189328
30
0.0
11
-0.116152
21
0.197049
31
0.0
0
LINE
8
0
6
CONTINUOUS
10
-0.136430
20
0.208809
30
0.0
11
-0.140448
21
0.200924
31
0.0
0
LINE
8
0
6
CONTINUOUS
10
-0.115146
20
0.198784
30
0.0
11
-0.115099
21
0.198864
31
0.0
0
LINE
8
0
6
CONTINUOUS
10
-0.135377
20
0.210623
30
0.0
11
-0.135424
21
0.210543
31
0.0
0
LINE
8
0
6
CONTINUOUS
10
-0.135424
20
0.210543
30
0.0
11
-0.136430
21
0.208809
31
0.0
0
LINE
8
0
6
CONTINUOUS
10
-0.116152
20
0.197049
30
0.0
11
-0.115146
21
0.198784
31
0.0
0
LINE
8
0
6
CONTINUOUS
10
-0.135766
20
0.210829
30
0.0
11
-0.134622
21
0.210147
31
0.0
0
LINE
8
0
6
CONTINUOUS
10
-0.050785
20
0.290920
30
0.0
11
-0.041946
21
0.301331
31
0.0
0
LINE
8
0
6
CONTINUOUS
10
-0.136214
20
0.211108
30
0.0
11
-0.135766
21
0.210829
31
0.0
0
LINE
8
0
6
CONTINUOUS
10
-0.135709
20
0.211757
30
0.0
11
-0.136214
21
0.211108
31
0.0
0
LINE
8
0
6
CONTINUOUS
10
-0.057631
20
0.299957
30
0.0
11
-0.059877
21
0.303168
31
0.0
0
LINE
8
0
6
CONTINUOUS
10
-0.052166
20
0.292139
30
0.0
11
-0.052348
21
0.292398
31
0.0
0
LINE
8
0
6
CONTINUOUS
10
-0.050922
20
0.286196
30
0.0
11
-0.050695
21
0.286512
31
0.0
0
LINE
8
0
6
CONTINUOUS
10
-0.049769
20
0.317190
30
0.0
11
-0.060856
21
0.305329
31
0.0
0
LINE
8
0
6
CONTINUOUS
10
-0.134622
20
0.210147
30
0.0
11
-0.132643
21
0.208982
31
0.0
0
LINE
8
0
6
CONTINUOUS
10
-0.132643
20
0.208982
30
0.0
11
-0.129409
21
0.207100
31
0.0
0
LINE
8
0
6
CONTINUOUS
10
-0.122416
20
0.203042
30
0.0
11
-0.121737
21
0.202648
31
0.0
0
LINE
8
0
6
CONTINUOUS
10
-0.121737
20
0.202648
30
0.0
11
-0.118891
21
0.201000
31
0.0
0
LINE
8
0
6
CONTINUOUS
10
-0.118891
20
0.201000
30
0.0
11
-0.116947
21
0.199884
31
0.0
0
LINE
8
0
6
CONTINUOUS
10
-0.116749
20
0.199771
30
0.0
11
-0.115485
21
0.199053
31
0.0
0
LINE
8
0
6
CONTINUOUS
10
-0.114264
20
0.198380
30
0.0
11
-0.113824
21
0.198989
31
0.0
0
LINE
8
0
6
CONTINUOUS
10
-0.114541
20
0.198523
30
0.0
11
-0.114264
21
0.198380
31
0.0
0
LINE
8
0
6
CONTINUOUS
10
-0.115485
20
0.199053
30
0.0
11
-0.114541
21
0.198523
31
0.0
0
LINE
8
0
6
CONTINUOUS
10
-0.061508
20
0.305207
30
0.0
11
-0.062650
21
0.305610
31
0.0
0
LINE
8
0
6
CONTINUOUS
10
-0.062650
20
0.305610
30
0.0
11
-0.063435
21
0.304601
31
0.0
0
LINE
8
0
6
CONTINUOUS
10
-0.050695
20
0.286512
30
0.0
11
-0.049966
21
0.287521
31
0.0
0
LINE
8
0
6
CONTINUOUS
10
-0.050457
20
0.289670
30
0.0
11
-0.050571
21
0.289839
31
0.0
0
LINE
8
0
6
CONTINUOUS
10
-0.050368
20
0.289280
30
0.0
11
-0.050457
21
0.289670
31
0.0
0
LINE
8
0
6
CONTINUOUS
10
-0.063435
20
0.304601
30
0.0
11
-0.063695
21
0.304267
31
0.0
0
LINE
8
0
6
CONTINUOUS
10
-0.051084
20
0.290567
30
0.0
11
-0.050785
21
0.290920
31
0.0
0
LINE
8
0
6
CONTINUOUS
10
-0.060856
20
0.305329
30
0.0
11
-0.061169
21
0.304994
31
0.0
0
LINE
8
0
6
CONTINUOUS
10
-0.128756
20
0.206721
30
0.0
11
-0.122416
21
0.203042
31
0.0
0
LINE
8
0
6
CONTINUOUS
10
-0.129409
20
0.207100
30
0.0
11
-0.128756
21
0.206721
31
0.0
0
LINE
8
0
6
CONTINUOUS
10
-0.116947
20
0.199884
30
0.0
11
-0.116749
21
0.199771
31
0.0
0
LINE
8
0
6
CONTINUOUS
10
-0.113824
20
0.198989
30
0.0
11
-0.050922
21
0.286196
31
0.0
0
LINE
8
0
6
CONTINUOUS
10
-0.063695
20
0.304267
30
0.0
11
-0.135709
21
0.211757
31
0.0
0
LINE
8
0
6
CONTINUOUS
10
-0.061255
20
0.305118
30
0.0
11
-0.061508
21
0.305207
31
0.0
0
LINE
8
0
6
CONTINUOUS
10
-0.061062
20
0.304849
30
0.0
11
-0.061255
21
0.305118
31
0.0
0
LINE
8
0
6
CONTINUOUS
10
-0.060588
20
0.304178
30
0.0
11
-0.061062
21
0.304849
31
0.0
0
LINE
8
0
6
CONTINUOUS
10
-0.059877
20
0.303168
30
0.0
11
-0.060588
21
0.304178
31
0.0
0
LINE
8
0
6
CONTINUOUS
10
-0.051447
20
0.291105
30
0.0
11
-0.052166
21
0.292139
31
0.0
0
LINE
8
0
6
CONTINUOUS
10
-0.051376
20
0.291003
30
0.0
11
-0.051447
21
0.291105
31
0.0
0
LINE
8
0
6
CONTINUOUS
10
-0.050571
20
0.289839
30
0.0
11
-0.050925
21
0.290352
31
0.0
0
LINE
8
0
6
CONTINUOUS
10
-0.049966
20
0.287521
30
0.0
11
-0.050368
21
0.289280
31
0.0
0
LINE
8
0
6
CONTINUOUS
10
-0.050925
20
0.290352
30
0.0
11
-0.051376
21
0.291003
31
0.0
0
LINE
8
0
6
CONTINUOUS
10
0.041308
20
0.347312
30
0.0
11
0.040833
21
0.348315
31
0.0
0
LINE
8
0
6
CONTINUOUS
10
0.040396
20
0.346555
30
0.0
11
0.041308
21
0.347312
31
0.0
0
LINE
8
0
6
CONTINUOUS
10
0.037753
20
0.344791
30
0.0
11
0.040396
21
0.346555
31
0.0
0
LINE
8
0
6
CONTINUOUS
10
0.020741
20
0.332628
30
0.0
11
0.027641
21
0.337490
31
0.0
0
LINE
8
0
6
CONTINUOUS
10
0.013045
20
0.327218
30
0.0
11
0.020741
21
0.332628
31
0.0
0
LINE
8
0
6
CONTINUOUS
10
0.004937
20
0.321530
30
0.0
11
0.013045
21
0.327218
31
0.0
0
LINE
8
0
6
CONTINUOUS
10
-0.023661
20
0.301636
30
0.0
11
-0.017939
21
0.305683
31
0.0
0
LINE
8
0
6
CONTINUOUS
10
-0.028030
20
0.298617
30
0.0
11
-0.023661
21
0.301636
31
0.0
0
LINE
8
0
6
CONTINUOUS
10
-0.030843
20
0.296767
30
0.0
11
-0.028030
21
0.298617
31
0.0
0
LINE
8
0
6
CONTINUOUS
10
-0.032476
20
0.296940
30
0.0
11
-0.031696
21
0.296152
31
0.0
0
LINE
8
0
6
CONTINUOUS
10
-0.031696
20
0.296152
30
0.0
11
-0.030843
21
0.296767
31
0.0
0
LINE
8
0
6
CONTINUOUS
10
0.040334
20
0.358193
30
0.0
11
0.036215
21
0.363625
31
0.0
0
LINE
8
0
6
CONTINUOUS
10
-0.041946
20
0.301331
30
0.0
11
-0.041590
21
0.300781
31
0.0
0
LINE
8
0
6
CONTINUOUS
10
0.036215
20
0.363625
30
0.0
11
0.033966
21
0.366056
31
0.0
0
LINE
8
0
6
CONTINUOUS
10
0.031568
20
0.368376
30
0.0
11
0.029027
21
0.370548
31
0.0
0
LINE
8
0
6
CONTINUOUS
10
0.026860
20
0.371952
30
0.0
11
0.026736
21
0.371968
31
0.0
0
LINE
8
0
6
CONTINUOUS
10
0.026736
20
0.371968
30
0.0
11
0.025852
21
0.372044
31
0.0
0
LINE
8
0
6
CONTINUOUS
10
0.025852
20
0.372044
30
0.0
11
0.025435
21
0.372058
31
0.0
0
LINE
8
0
6
CONTINUOUS
10
-0.049898
20
0.318263
30
0.0
11
-0.049926
21
0.318141
31
0.0
0
LINE
8
0
6
CONTINUOUS
10
-0.049668
20
0.319120
30
0.0
11
-0.049898
21
0.318263
31
0.0
0
LINE
8
0
6
CONTINUOUS
10
-0.049538
20
0.319517
30
0.0
11
-0.049668
21
0.319120
31
0.0
0
LINE
8
0
6
CONTINUOUS
10
0.033966
20
0.366056
30
0.0
11
0.031568
21
0.368376
31
0.0
0
LINE
8
0
6
CONTINUOUS
10
-0.037345
20
0.303347
30
0.0
11
-0.032444
21
0.306733
31
0.0
0
LINE
8
0
6
CONTINUOUS
10
-0.009494
20
0.322727
30
0.0
11
-0.000376
21
0.329110
31
0.0
0
LINE
8
0
6
CONTINUOUS
10
0.025139
20
0.347046
30
0.0
11
0.031607
21
0.351620
31
0.0
0
LINE
8
0
6
CONTINUOUS
10
-0.032444
20
0.306733
30
0.0
11
-0.025940
21
0.311251
31
0.0
0
LINE
8
0
6
CONTINUOUS
10
0.031607
20
0.351620
30
0.0
11
0.036466
21
0.355073
31
0.0
0
LINE
8
0
6
CONTINUOUS
10
-0.000376
20
0.329110
30
0.0
11
0.008736
21
0.335502
31
0.0
0
LINE
8
0
6
CONTINUOUS
10
-0.041450
20
0.300580
30
0.0
11
-0.040398
21
0.301261
31
0.0
0
LINE
8
0
6
CONTINUOUS
10
-0.041590
20
0.300781
30
0.0
11
-0.041450
21
0.300580
31
0.0
0
LINE
8
0
6
CONTINUOUS
10
-0.025940
20
0.311251
30
0.0
11
-0.018160
21
0.316672
31
0.0
0
LINE
8
0
6
CONTINUOUS
10
0.008736
20
0.335502
30
0.0
11
0.017385
21
0.341583
31
0.0
0
LINE
8
0
6
CONTINUOUS
10
0.036466
20
0.355073
30
0.0
11
0.039472
21
0.357233
31
0.0
0
LINE
8
0
6
CONTINUOUS
10
-0.040398
20
0.301261
30
0.0
11
-0.037345
21
0.303347
31
0.0
0
LINE
8
0
6
CONTINUOUS
10
0.039472
20
0.357233
30
0.0
11
0.040474
21
0.357992
31
0.0
0
LINE
8
0
6
CONTINUOUS
10
0.040474
20
0.357992
30
0.0
11
0.040334
21
0.358193
31
0.0
0
LINE
8
0
6
CONTINUOUS
10
0.017385
20
0.341583
30
0.0
11
0.025139
21
0.347046
31
0.0
0
LINE
8
0
6
CONTINUOUS
10
-0.018160
20
0.316672
30
0.0
11
-0.009494
21
0.322727
31
0.0
0
LINE
8
0
6
CONTINUOUS
10
0.041238
20
0.356901
30
0.0
11
0.040672
21
0.357710
31
0.0
0
LINE
8
0
6
CONTINUOUS
10
-0.031651
20
0.296852
30
0.0
11
-0.028888
21
0.298740
31
0.0
0
LINE
8
0
6
CONTINUOUS
10
-0.032603
20
0.296236
30
0.0
11
-0.031651
21
0.296852
31
0.0
0
LINE
8
0
6
CONTINUOUS
10
-0.028888
20
0.298740
30
0.0
11
-0.024452
21
0.301804
31
0.0
0
LINE
8
0
6
CONTINUOUS
10
0.042035
20
0.354951
30
0.0
11
0.041238
21
0.356901
31
0.0
0
LINE
8
0
6
CONTINUOUS
10
0.042442
20
0.352457
30
0.0
11
0.042035
21
0.354951
31
0.0
0
LINE
8
0
6
CONTINUOUS
10
0.042256
20
0.350416
30
0.0
11
0.042442
21
0.352457
31
0.0
0
LINE
8
0
6
CONTINUOUS
10
-0.041324
20
0.300400
30
0.0
11
-0.041252
21
0.300298
31
0.0
0
LINE
8
0
6
CONTINUOUS
10
0.040672
20
0.357710
30
0.0
11
0.040600
21
0.357812
31
0.0
0
LINE
8
0
6
CONTINUOUS
10
0.025435
20
0.372058
30
0.0
11
0.025247
21
0.371946
31
0.0
0
LINE
8
0
6
CONTINUOUS
10
-0.049369
20
0.319655
30
0.0
11
-0.049538
21
0.319517
31
0.0
0
LINE
8
0
6
CONTINUOUS
10
-0.027017
20
0.339495
30
0.0
11
-0.034553
21
0.333226
31
0.0
0
LINE
8
0
6
CONTINUOUS
10
0.025247
20
0.371946
30
0.0
11
0.015659
21
0.367097
31
0.0
0
LINE
8
0
6
CONTINUOUS
10
-0.041911
20
0.326652
30
0.0
11
-0.049369
21
0.319655
31
0.0
0
LINE
8
0
6
CONTINUOUS
10
0.027836
20
0.371405
30
0.0
11
0.026860
21
0.371952
31
0.0
0
LINE
8
0
6
CONTINUOUS
10
-0.049926
20
0.318141
30
0.0
11
-0.049769
21
0.317190
31
0.0
0
LINE
8
0
6
CONTINUOUS
10
0.007494
20
0.362689
30
0.0
11
-0.000894
21
0.357785
31
0.0
0
LINE
8
0
6
CONTINUOUS
10
-0.000894
20
0.357785
30
0.0
11
-0.009261
21
0.352487
31
0.0
0
LINE
8
0
6
CONTINUOUS
10
0.015659
20
0.367097
30
0.0
11
0.007494
21
0.362689
31
0.0
0
LINE
8
0
6
CONTINUOUS
10
0.029027
20
0.370548
30
0.0
11
0.027836
21
0.371405
31
0.0
0
LINE
8
0
6
CONTINUOUS
10
-0.010997
20
0.310521
30
0.0
11
-0.003263
21
0.315924
31
0.0
0
LINE
8
0
6
CONTINUOUS
10
-0.041084
20
0.300837
30
0.0
11
-0.040958
21
0.300657
31
0.0
0
LINE
8
0
6
CONTINUOUS
10
0.040235
20
0.357556
30
0.0
11
0.040108
21
0.357736
31
0.0
0
LINE
8
0
6
CONTINUOUS
10
-0.034553
20
0.333226
30
0.0
11
-0.041911
21
0.326652
31
0.0
0
LINE
8
0
6
CONTINUOUS
10
-0.019301
20
0.345450
30
0.0
11
-0.027017
21
0.339495
31
0.0
0
LINE
8
0
6
CONTINUOUS
10
-0.003263
20
0.315924
30
0.0
11
0.004937
21
0.321530
31
0.0
0
LINE
8
0
6
CONTINUOUS
10
0.033396
20
0.341559
30
0.0
11
0.037753
21
0.344791
31
0.0
0
LINE
8
0
6
CONTINUOUS
10
-0.017939
20
0.305683
30
0.0
11
-0.010997
21
0.310521
31
0.0
0
LINE
8
0
6
CONTINUOUS
10
0.027641
20
0.337490
30
0.0
11
0.030996
21
0.339862
31
0.0
0
LINE
8
0
6
CONTINUOUS
10
0.033352
20
0.341528
30
0.0
11
0.033396
21
0.341559
31
0.0
0
LINE
8
0
6
CONTINUOUS
10
-0.011525
20
0.310799
30
0.0
11
-0.003683
21
0.316278
31
0.0
0
LINE
8
0
6
CONTINUOUS
10
0.020643
20
0.333343
30
0.0
11
0.027660
21
0.338288
31
0.0
0
LINE
8
0
6
CONTINUOUS
10
0.040631
20
0.347507
30
0.0
11
0.041538
21
0.348193
31
0.0
0
LINE
8
0
6
CONTINUOUS
10
0.041538
20
0.348193
30
0.0
11
0.042256
21
0.350416
31
0.0
0
LINE
8
0
6
CONTINUOUS
10
-0.018566
20
0.305893
30
0.0
11
-0.011525
21
0.310799
31
0.0
0
LINE
8
0
6
CONTINUOUS
10
0.037911
20
0.345552
30
0.0
11
0.040631
21
0.347507
31
0.0
0
LINE
8
0
6
CONTINUOUS
10
0.012815
20
0.327840
30
0.0
11
0.020643
21
0.333343
31
0.0
0
LINE
8
0
6
CONTINUOUS
10
-0.024452
20
0.301804
30
0.0
11
-0.018566
21
0.305893
31
0.0
0
LINE
8
0
6
CONTINUOUS
10
0.004569
20
0.322055
30
0.0
11
0.012815
21
0.327840
31
0.0
0
LINE
8
0
6
CONTINUOUS
10
0.033514
20
0.342426
30
0.0
11
0.037911
21
0.345552
31
0.0
0
LINE
8
0
6
CONTINUOUS
10
-0.003683
20
0.316278
30
0.0
11
0.004569
21
0.322055
31
0.0
0
LINE
8
0
6
CONTINUOUS
10
0.027660
20
0.338288
30
0.0
11
0.033514
21
0.342426
31
0.0
0
LINE
8
0
6
CONTINUOUS
10
-0.012115
20
0.350514
30
0.0
11
-0.013177
21
0.349772
31
0.0
0
LINE
8
0
6
CONTINUOUS
10
-0.011162
20
0.351179
30
0.0
11
-0.012115
21
0.350514
31
0.0
0
LINE
8
0
6
CONTINUOUS
10
-0.010365
20
0.351732
30
0.0
11
-0.011162
21
0.351179
31
0.0
0
LINE
8
0
6
CONTINUOUS
10
-0.009764
20
0.352148
30
0.0
11
-0.010365
21
0.351732
31
0.0
0
LINE
8
0
6
CONTINUOUS
10
-0.009390
20
0.352403
30
0.0
11
-0.009764
21
0.352148
31
0.0
0
LINE
8
0
6
CONTINUOUS
10
-0.009261
20
0.352487
30
0.0
11
-0.009390
21
0.352403
31
0.0
0
LINE
8
0
6
CONTINUOUS
10
-0.019179
20
0.345543
30
0.0
11
-0.019301
21
0.345450
31
0.0
0
LINE
8
0
6
CONTINUOUS
10
-0.018810
20
0.345808
30
0.0
11
-0.019179
21
0.345543
31
0.0
0
LINE
8
0
6
CONTINUOUS
10
-0.018215
20
0.346231
30
0.0
11
-0.018810
21
0.345808
31
0.0
0
LINE
8
0
6
CONTINUOUS
10
-0.017422
20
0.346792
30
0.0
11
-0.018215
21
0.346231
31
0.0
0
LINE
8
0
6
CONTINUOUS
10
-0.016472
20
0.347461
30
0.0
11
-0.017422
21
0.346792
31
0.0
0
LINE
8
0
6
CONTINUOUS
10
-0.015412
20
0.348207
30
0.0
11
-0.016472
21
0.347461
31
0.0
0
LINE
8
0
6
CONTINUOUS
10
-0.014295
20
0.348990
30
0.0
11
-0.015412
21
0.348207
31
0.0
0
LINE
8
0
6
CONTINUOUS
10
-0.013177
20
0.349772
30
0.0
11
-0.014295
21
0.348990
31
0.0
0
LINE
8
0
6
CONTINUOUS
10
-0.040776
20
0.288350
30
0.0
11
-0.040090
21
0.286348
31
0.0
0
LINE
8
0
6
CONTINUOUS
10
-0.031899
20
0.288911
30
0.0
11
-0.032138
21
0.289649
31
0.0
0
LINE
8
0
6
CONTINUOUS
10
-0.031817
20
0.288656
30
0.0
11
-0.031899
21
0.288911
31
0.0
0
LINE
8
0
6
CONTINUOUS
10
-0.032698
20
0.288038
30
0.0
11
-0.031817
21
0.288656
31
0.0
0
LINE
8
0
6
CONTINUOUS
10
-0.040064
20
0.286267
30
0.0
11
-0.039689
21
0.284810
31
0.0
0
LINE
8
0
6
CONTINUOUS
10
-0.039689
20
0.284817
30
0.0
11
-0.039557
21
0.284462
31
0.0
0
LINE
8
0
6
CONTINUOUS
10
-0.032667
20
0.296254
30
0.0
11
-0.032645
21
0.296402
31
0.0
0
LINE
8
0
6
CONTINUOUS
10
-0.032741
20
0.291499
30
0.0
11
-0.032849
21
0.293905
31
0.0
0
LINE
8
0
6
CONTINUOUS
10
-0.032849
20
0.293905
30
0.0
11
-0.032726
21
0.295104
31
0.0
0
LINE
8
0
6
CONTINUOUS
10
-0.032726
20
0.295104
30
0.0
11
-0.032667
21
0.296254
31
0.0
0
LINE
8
0
6
CONTINUOUS
10
-0.038200
20
0.284183
30
0.0
11
-0.032698
21
0.288038
31
0.0
0
LINE
8
0
6
CONTINUOUS
10
-0.039179
20
0.283497
30
0.0
11
-0.038200
21
0.284183
31
0.0
0
LINE
8
0
6
CONTINUOUS
10
-0.041673
20
0.296394
30
0.0
11
-0.041603
21
0.292578
31
0.0
0
LINE
8
0
6
CONTINUOUS
10
-0.039562
20
0.284470
30
0.0
11
-0.039280
21
0.283752
31
0.0
0
LINE
8
0
6
CONTINUOUS
10
-0.039689
20
0.284810
30
0.0
11
-0.039562
21
0.284470
31
0.0
0
LINE
8
0
6
CONTINUOUS
10
-0.040056
20
0.286254
30
0.0
11
-0.039689
21
0.284817
31
0.0
0
LINE
8
0
6
CONTINUOUS
10
-0.040090
20
0.286348
30
0.0
11
-0.040043
21
0.286211
31
0.0
0
LINE
8
0
6
CONTINUOUS
10
-0.032733
20
0.291333
30
0.0
11
-0.032741
21
0.291499
31
0.0
0
LINE
8
0
6
CONTINUOUS
10
-0.040859
20
0.300546
30
0.0
11
-0.041673
21
0.296394
31
0.0
0
LINE
8
0
6
CONTINUOUS
10
0.030893
20
0.338199
30
0.0
11
0.031798
21
0.338921
31
0.0
0
LINE
8
0
6
CONTINUOUS
10
0.033743
20
0.340474
30
0.0
11
0.033966
21
0.340651
31
0.0
0
LINE
8
0
6
CONTINUOUS
10
-0.021771
20
0.301488
30
0.0
11
-0.020822
21
0.302069
31
0.0
0
LINE
8
0
6
CONTINUOUS
10
0.021415
20
0.330470
30
0.0
11
0.022508
21
0.331370
31
0.0
0
LINE
8
0
6
CONTINUOUS
10
0.025855
20
0.334126
30
0.0
11
0.027130
21
0.335176
31
0.0
0
LINE
8
0
6
CONTINUOUS
10
0.012352
20
0.323562
30
0.0
11
0.013043
21
0.324081
31
0.0
0
LINE
8
0
6
CONTINUOUS
10
0.016079
20
0.326362
30
0.0
11
0.017321
21
0.327295
31
0.0
0
LINE
8
0
6
CONTINUOUS
10
-0.006436
20
0.310730
30
0.0
11
-0.006196
21
0.310887
31
0.0
0
LINE
8
0
6
CONTINUOUS
10
-0.002873
20
0.313055
30
0.0
11
-0.001488
21
0.313959
31
0.0
0
LINE
8
0
6
CONTINUOUS
10
0.009502
20
0.321440
30
0.0
11
0.009851
21
0.321699
31
0.0
0
LINE
8
0
6
CONTINUOUS
10
0.006513
20
0.319296
30
0.0
11
0.006985
21
0.319627
31
0.0
0
LINE
8
0
6
CONTINUOUS
10
0.006040
20
0.318965
30
0.0
11
0.006513
21
0.319296
31
0.0
0
LINE
8
0
6
CONTINUOUS
10
0.002738
20
0.316730
30
0.0
11
0.003515
21
0.317243
31
0.0
0
LINE
8
0
6
CONTINUOUS
10
0.041308
20
0.347312
30
0.0
11
0.040396
21
0.346555
31
0.0
0
LINE
8
0
6
CONTINUOUS
10
0.040243
20
0.345896
30
0.0
11
0.041308
21
0.347312
31
0.0
0
LINE
8
0
6
CONTINUOUS
10
0.040396
20
0.346555
30
0.0
11
0.037753
21
0.344791
31
0.0
0
LINE
8
0
6
CONTINUOUS
10
0.027641
20
0.337490
30
0.0
11
0.020741
21
0.332628
31
0.0
0
LINE
8
0
6
CONTINUOUS
10
0.020741
20
0.332628
30
0.0
11
0.013045
21
0.327218
31
0.0
0
LINE
8
0
6
CONTINUOUS
10
0.013045
20
0.327218
30
0.0
11
0.004937
21
0.321530
31
0.0
0
LINE
8
0
6
CONTINUOUS
10
-0.017939
20
0.305683
30
0.0
11
-0.023661
21
0.301636
31
0.0
0
LINE
8
0
6
CONTINUOUS
10
-0.023661
20
0.301636
30
0.0
11
-0.028030
21
0.298617
31
0.0
0
LINE
8
0
6
CONTINUOUS
10
-0.028030
20
0.298617
30
0.0
11
-0.030843
21
0.296767
31
0.0
0
LINE
8
0
6
CONTINUOUS
10
-0.030843
20
0.296767
30
0.0
11
-0.031696
21
0.296152
31
0.0
0
LINE
8
0
6
CONTINUOUS
10
-0.031696
20
0.296152
30
0.0
11
-0.030002
21
0.296670
31
0.0
0
LINE
8
0
6
CONTINUOUS
10
0.033396
20
0.341559
30
0.0
11
0.027641
21
0.337490
31
0.0
0
LINE
8
0
6
CONTINUOUS
10
0.004937
20
0.321530
30
0.0
11
-0.003263
21
0.315924
31
0.0
0
LINE
8
0
6
CONTINUOUS
10
-0.003263
20
0.315924
30
0.0
11
-0.010997
21
0.310521
31
0.0
0
LINE
8
0
6
CONTINUOUS
10
-0.010997
20
0.310521
30
0.0
11
-0.017939
21
0.305683
31
0.0
0
LINE
8
0
6
CONTINUOUS
10
0.037753
20
0.344791
30
0.0
11
0.033396
21
0.341559
31
0.0
0
LINE
8
0
6
CONTINUOUS
10
0.036694
20
0.342891
30
0.0
11
0.040243
21
0.345896
31
0.0
0
LINE
8
0
6
CONTINUOUS
10
-0.030002
20
0.296670
30
0.0
11
-0.025973
21
0.298975
31
0.0
0
LINE
8
0
6
CONTINUOUS
10
0.202642
20
0.567119
30
0.0
11
0.210711
21
0.569689
31
0.0
0
LINE
8
0
6
CONTINUOUS
10
0.054303
20
0.542110
30
0.0
11
0.062617
21
0.542449
31
0.0
0
LINE
8
0
6
CONTINUOUS
10
0.195314
20
0.564865
30
0.0
11
0.195625
21
0.564950
31
0.0
0
LINE
8
0
6
CONTINUOUS
10
0.146124
20
0.552756
30
0.0
11
0.147258
21
0.552995
31
0.0
0
LINE
8
0
6
CONTINUOUS
10
0.159156
20
0.555502
30
0.0
11
0.159373
21
0.555548
31
0.0
0
LINE
8
0
6
CONTINUOUS
10
0.119947
20
0.548169
30
0.0
11
0.120963
21
0.548314
31
0.0
0
LINE
8
0
6
CONTINUOUS
10
0.138047
20
0.551093
30
0.0
11
0.139142
21
0.551318
31
0.0
0
LINE
8
0
6
CONTINUOUS
10
0.137054
20
0.550918
30
0.0
11
0.137596
21
0.551014
31
0.0
0
LINE
8
0
6
CONTINUOUS
10
0.136333
20
0.550791
30
0.0
11
0.137054
21
0.550918
31
0.0
0
LINE
8
0
6
CONTINUOUS
10
0.135470
20
0.550639
30
0.0
11
0.136333
21
0.550791
31
0.0
0
LINE
8
0
6
CONTINUOUS
10
0.130658
20
0.549790
30
0.0
11
0.131521
21
0.549942
31
0.0
0
LINE
8
0
6
CONTINUOUS
10
0.129938
20
0.549663
30
0.0
11
0.130658
21
0.549790
31
0.0
0
LINE
8
0
6
CONTINUOUS
10
0.129395
20
0.549568
30
0.0
11
0.129938
21
0.549663
31
0.0
0
LINE
8
0
6
CONTINUOUS
10
0.128126
20
0.549367
30
0.0
11
0.128945
21
0.549488
31
0.0
0
LINE
8
0
6
CONTINUOUS
10
0.111526
20
0.545562
30
0.0
11
0.111534
21
0.545518
31
0.0
0
LINE
8
0
6
CONTINUOUS
10
0.114508
20
0.546051
30
0.0
11
0.115771
21
0.546256
31
0.0
0
LINE
8
0
6
CONTINUOUS
10
0.115771
20
0.546256
30
0.0
11
0.114508
21
0.546051
31
0.0
0
LINE
8
0
6
CONTINUOUS
10
0.114915
20
0.546092
30
0.0
11
0.115771
21
0.546256
31
0.0
0
LINE
8
0
6
CONTINUOUS
10
0.112796
20
0.545723
30
0.0
11
0.114915
21
0.546092
31
0.0
0
LINE
8
0
6
CONTINUOUS
10
0.120973
20
0.547208
30
0.0
11
0.120786
21
0.548288
31
0.0
0
LINE
8
0
6
CONTINUOUS
10
0.119711
20
0.547003
30
0.0
11
0.120973
21
0.547208
31
0.0
0
LINE
8
0
6
CONTINUOUS
10
0.120973
20
0.547208
30
0.0
11
0.119711
21
0.547003
31
0.0
0
LINE
8
0
6
CONTINUOUS
10
0.120117
20
0.547044
30
0.0
11
0.120973
21
0.547208
31
0.0
0
LINE
8
0
6
CONTINUOUS
10
0.123174
20
0.547289
30
0.0
11
0.124102
21
0.547451
31
0.0
0
LINE
8
0
6
CONTINUOUS
10
0.131234
20
0.548446
30
0.0
11
0.130991
21
0.549849
31
0.0
0
LINE
8
0
6
CONTINUOUS
10
0.129971
20
0.548241
30
0.0
11
0.131234
21
0.548446
31
0.0
0
LINE
8
0
6
CONTINUOUS
10
0.128383
20
0.547965
30
0.0
11
0.129971
21
0.548241
31
0.0
0
LINE
8
0
6
CONTINUOUS
10
0.126997
20
0.547708
30
0.0
11
0.128260
21
0.547913
31
0.0
0
LINE
8
0
6
CONTINUOUS
10
0.129971
20
0.548241
30
0.0
11
0.128383
21
0.547965
31
0.0
0
LINE
8
0
6
CONTINUOUS
10
0.131234
20
0.548446
30
0.0
11
0.129971
21
0.548241
31
0.0
0
LINE
8
0
6
CONTINUOUS
10
0.130378
20
0.548282
30
0.0
11
0.131234
21
0.548446
31
0.0
0
LINE
8
0
6
CONTINUOUS
10
0.128260
20
0.547913
30
0.0
11
0.130378
21
0.548282
31
0.0
0
LINE
8
0
6
CONTINUOUS
10
0.146350
20
0.551658
30
0.0
11
0.146159
21
0.552764
31
0.0
0
LINE
8
0
6
CONTINUOUS
10
0.145350
20
0.551469
30
0.0
11
0.145495
21
0.551494
31
0.0
0
LINE
8
0
6
CONTINUOUS
10
0.131401
20
0.549921
30
0.0
11
0.131595
21
0.548799
31
0.0
0
LINE
8
0
6
CONTINUOUS
10
0.135832
20
0.549537
30
0.0
11
0.135637
21
0.550668
31
0.0
0
LINE
8
0
6
CONTINUOUS
10
0.135867
20
0.549794
30
0.0
11
0.135713
21
0.550682
31
0.0
0
LINE
8
0
6
CONTINUOUS
10
0.138817
20
0.549783
30
0.0
11
0.140411
21
0.550051
31
0.0
0
LINE
8
0
6
CONTINUOUS
10
0.136792
20
0.549444
30
0.0
11
0.138817
21
0.549783
31
0.0
0
LINE
8
0
6
CONTINUOUS
10
0.136360
20
0.549373
30
0.0
11
0.136792
21
0.549444
31
0.0
0
LINE
8
0
6
CONTINUOUS
10
0.136129
20
0.550755
30
0.0
11
0.136360
21
0.549373
31
0.0
0
LINE
8
0
6
CONTINUOUS
10
0.155769
20
0.553295
30
0.0
11
0.155760
21
0.553343
31
0.0
0
LINE
8
0
6
CONTINUOUS
10
0.146832
20
0.551785
30
0.0
11
0.147451
21
0.551889
31
0.0
0
LINE
8
0
6
CONTINUOUS
10
0.146400
20
0.551714
30
0.0
11
0.146832
21
0.551785
31
0.0
0
LINE
8
0
6
CONTINUOUS
10
0.146222
20
0.552777
30
0.0
11
0.146400
21
0.551714
31
0.0
0
LINE
8
0
6
CONTINUOUS
10
0.145406
20
0.551205
30
0.0
11
0.145361
21
0.551470
31
0.0
0
LINE
8
0
6
CONTINUOUS
10
0.143812
20
0.550937
30
0.0
11
0.145406
21
0.551205
31
0.0
0
LINE
8
0
6
CONTINUOUS
10
0.066549
20
0.540784
30
0.0
11
0.067795
21
0.541022
31
0.0
0
LINE
8
0
6
CONTINUOUS
10
0.066124
20
0.543103
30
0.0
11
0.066549
21
0.540784
31
0.0
0
LINE
8
0
6
CONTINUOUS
10
0.067795
20
0.541022
30
0.0
11
0.069912
21
0.541408
31
0.0
0
LINE
8
0
6
CONTINUOUS
10
0.069912
20
0.541408
30
0.0
11
0.070782
21
0.541557
31
0.0
0
LINE
8
0
6
CONTINUOUS
10
0.067795
20
0.541022
30
0.0
11
0.066549
21
0.540784
31
0.0
0
LINE
8
0
6
CONTINUOUS
10
0.069912
20
0.541408
30
0.0
11
0.067795
21
0.541022
31
0.0
0
LINE
8
0
6
CONTINUOUS
10
0.070782
20
0.541557
30
0.0
11
0.069912
21
0.541408
31
0.0
0
LINE
8
0
6
CONTINUOUS
10
0.069536
20
0.541319
30
0.0
11
0.070782
21
0.541557
31
0.0
0
LINE
8
0
6
CONTINUOUS
10
0.067419
20
0.540933
30
0.0
11
0.069536
21
0.541319
31
0.0
0
LINE
8
0
6
CONTINUOUS
10
0.074693
20
0.541238
30
0.0
11
0.075939
21
0.541475
31
0.0
0
LINE
8
0
6
CONTINUOUS
10
0.075939
20
0.541475
30
0.0
11
0.078056
21
0.541862
31
0.0
0
LINE
8
0
6
CONTINUOUS
10
0.078056
20
0.541862
30
0.0
11
0.078926
21
0.542011
31
0.0
0
LINE
8
0
6
CONTINUOUS
10
0.075939
20
0.541475
30
0.0
11
0.074693
21
0.541238
31
0.0
0
LINE
8
0
6
CONTINUOUS
10
0.078056
20
0.541862
30
0.0
11
0.075939
21
0.541475
31
0.0
0
LINE
8
0
6
CONTINUOUS
10
0.078926
20
0.542011
30
0.0
11
0.078056
21
0.541862
31
0.0
0
LINE
8
0
6
CONTINUOUS
10
0.077680
20
0.541773
30
0.0
11
0.078926
21
0.542011
31
0.0
0
LINE
8
0
6
CONTINUOUS
10
0.075563
20
0.541386
30
0.0
11
0.077680
21
0.541773
31
0.0
0
LINE
8
0
6
CONTINUOUS
10
0.082889
20
0.541879
30
0.0
11
0.084136
21
0.542117
31
0.0
0
LINE
8
0
6
CONTINUOUS
10
0.084136
20
0.542117
30
0.0
11
0.086253
21
0.542503
31
0.0
0
LINE
8
0
6
CONTINUOUS
10
0.086253
20
0.542503
30
0.0
11
0.087123
21
0.542652
31
0.0
0
LINE
8
0
6
CONTINUOUS
10
0.084136
20
0.542117
30
0.0
11
0.082889
21
0.541879
31
0.0
0
LINE
8
0
6
CONTINUOUS
10
0.086253
20
0.542503
30
0.0
11
0.084136
21
0.542117
31
0.0
0
LINE
8
0
6
CONTINUOUS
10
0.087123
20
0.542652
30
0.0
11
0.086253
21
0.542503
31
0.0
0
LINE
8
0
6
CONTINUOUS
10
0.085876
20
0.542414
30
0.0
11
0.087123
21
0.542652
31
0.0
0
LINE
8
0
6
CONTINUOUS
10
0.083760
20
0.542028
30
0.0
11
0.085876
21
0.542414
31
0.0
0
LINE
8
0
6
CONTINUOUS
10
0.090857
20
0.542560
30
0.0
11
0.092103
21
0.542797
31
0.0
0
LINE
8
0
6
CONTINUOUS
10
0.092103
20
0.542797
30
0.0
11
0.094220
21
0.543184
31
0.0
0
LINE
8
0
6
CONTINUOUS
10
0.094220
20
0.543184
30
0.0
11
0.095090
21
0.543332
31
0.0
0
LINE
8
0
6
CONTINUOUS
10
0.092103
20
0.542797
30
0.0
11
0.090857
21
0.542560
31
0.0
0
LINE
8
0
6
CONTINUOUS
10
0.094220
20
0.543184
30
0.0
11
0.092103
21
0.542797
31
0.0
0
LINE
8
0
6
CONTINUOUS
10
0.095090
20
0.543332
30
0.0
11
0.094220
21
0.543184
31
0.0
0
LINE
8
0
6
CONTINUOUS
10
0.093843
20
0.543095
30
0.0
11
0.095090
21
0.543332
31
0.0
0
LINE
8
0
6
CONTINUOUS
10
0.091727
20
0.542708
30
0.0
11
0.093843
21
0.543095
31
0.0
0
LINE
8
0
6
CONTINUOUS
10
0.099165
20
0.543325
30
0.0
11
0.100412
21
0.543562
31
0.0
0
LINE
8
0
6
CONTINUOUS
10
0.100412
20
0.543562
30
0.0
11
0.102528
21
0.543949
31
0.0
0
LINE
8
0
6
CONTINUOUS
10
0.102528
20
0.543949
30
0.0
11
0.103399
21
0.544097
31
0.0
0
LINE
8
0
6
CONTINUOUS
10
0.100412
20
0.543562
30
0.0
11
0.099165
21
0.543325
31
0.0
0
LINE
8
0
6
CONTINUOUS
10
0.102528
20
0.543949
30
0.0
11
0.100412
21
0.543562
31
0.0
0
LINE
8
0
6
CONTINUOUS
10
0.103399
20
0.544097
30
0.0
11
0.102528
21
0.543949
31
0.0
0
LINE
8
0
6
CONTINUOUS
10
0.102152
20
0.543860
30
0.0
11
0.103399
21
0.544097
31
0.0
0
LINE
8
0
6
CONTINUOUS
10
0.100035
20
0.543473
30
0.0
11
0.102152
21
0.543860
31
0.0
0
LINE
8
0
6
CONTINUOUS
10
0.107671
20
0.544856
30
0.0
11
0.108918
21
0.545093
31
0.0
0
LINE
8
0
6
CONTINUOUS
10
0.108918
20
0.545093
30
0.0
11
0.111035
21
0.545480
31
0.0
0
LINE
8
0
6
CONTINUOUS
10
0.111035
20
0.545480
30
0.0
11
0.111905
21
0.545628
31
0.0
0
LINE
8
0
6
CONTINUOUS
10
0.108918
20
0.545093
30
0.0
11
0.107671
21
0.544856
31
0.0
0
LINE
8
0
6
CONTINUOUS
10
0.111035
20
0.545480
30
0.0
11
0.108918
21
0.545093
31
0.0
0
LINE
8
0
6
CONTINUOUS
10
0.111905
20
0.545628
30
0.0
11
0.111035
21
0.545480
31
0.0
0
LINE
8
0
6
CONTINUOUS
10
0.110658
20
0.545391
30
0.0
11
0.111905
21
0.545628
31
0.0
0
LINE
8
0
6
CONTINUOUS
10
0.108542
20
0.545004
30
0.0
11
0.110658
21
0.545391
31
0.0
0
LINE
8
0
6
CONTINUOUS
10
0.115966
20
0.546020
30
0.0
11
0.117213
21
0.546257
31
0.0
0
LINE
8
0
6
CONTINUOUS
10
0.117213
20
0.546257
30
0.0
11
0.119329
21
0.546644
31
0.0
0
LINE
8
0
6
CONTINUOUS
10
0.120200
20
0.546793
30
0.0
11
0.119947
21
0.548169
31
0.0
0
LINE
8
0
6
CONTINUOUS
10
0.119329
20
0.546644
30
0.0
11
0.120200
21
0.546793
31
0.0
0
LINE
8
0
6
CONTINUOUS
10
0.117213
20
0.546257
30
0.0
11
0.115966
21
0.546020
31
0.0
0
LINE
8
0
6
CONTINUOUS
10
0.119329
20
0.546644
30
0.0
11
0.117213
21
0.546257
31
0.0
0
LINE
8
0
6
CONTINUOUS
10
0.120200
20
0.546793
30
0.0
11
0.119329
21
0.546644
31
0.0
0
LINE
8
0
6
CONTINUOUS
10
0.118953
20
0.546555
30
0.0
11
0.120200
21
0.546793
31
0.0
0
LINE
8
0
6
CONTINUOUS
10
0.116836
20
0.546168
30
0.0
11
0.118953
21
0.546555
31
0.0
0
LINE
8
0
6
CONTINUOUS
10
0.124150
20
0.547189
30
0.0
11
0.125397
21
0.547426
31
0.0
0
LINE
8
0
6
CONTINUOUS
10
0.125397
20
0.547426
30
0.0
11
0.127513
21
0.547813
31
0.0
0
LINE
8
0
6
CONTINUOUS
10
0.128384
20
0.547962
30
0.0
11
0.128126
21
0.549367
31
0.0
0
LINE
8
0
6
CONTINUOUS
10
0.127513
20
0.547813
30
0.0
11
0.128384
21
0.547962
31
0.0
0
LINE
8
0
6
CONTINUOUS
10
0.125397
20
0.547426
30
0.0
11
0.124150
21
0.547189
31
0.0
0
LINE
8
0
6
CONTINUOUS
10
0.127513
20
0.547813
30
0.0
11
0.125397
21
0.547426
31
0.0
0
LINE
8
0
6
CONTINUOUS
10
0.128384
20
0.547962
30
0.0
11
0.127513
21
0.547813
31
0.0
0
LINE
8
0
6
CONTINUOUS
10
0.127137
20
0.547724
30
0.0
11
0.128384
21
0.547962
31
0.0
0
LINE
8
0
6
CONTINUOUS
10
0.125020
20
0.547338
30
0.0
11
0.127137
21
0.547724
31
0.0
0
LINE
8
0
6
CONTINUOUS
10
0.103792
20
0.544830
30
0.0
11
0.103915
21
0.544161
31
0.0
0
LINE
8
0
6
CONTINUOUS
10
0.110531
20
0.545361
30
0.0
11
0.111529
21
0.545543
31
0.0
0
LINE
8
0
6
CONTINUOUS
10
0.115636
20
0.546276
30
0.0
11
0.115690
21
0.545980
31
0.0
0
LINE
8
0
6
CONTINUOUS
10
0.063918
20
0.540325
30
0.0
11
0.065164
21
0.540563
31
0.0
0
LINE
8
0
6
CONTINUOUS
10
0.063492
20
0.542652
30
0.0
11
0.063918
21
0.540325
31
0.0
0
LINE
8
0
6
CONTINUOUS
10
0.065164
20
0.540563
30
0.0
11
0.066543
21
0.540815
31
0.0
0
LINE
8
0
6
CONTINUOUS
10
0.065164
20
0.540563
30
0.0
11
0.063918
21
0.540325
31
0.0
0
LINE
8
0
6
CONTINUOUS
10
0.066543
20
0.540815
30
0.0
11
0.065164
21
0.540563
31
0.0
0
LINE
8
0
6
CONTINUOUS
10
0.064788
20
0.540474
30
0.0
11
0.066547
21
0.540795
31
0.0
0
LINE
8
0
6
CONTINUOUS
10
0.072404
20
0.540827
30
0.0
11
0.073651
21
0.541064
31
0.0
0
LINE
8
0
6
CONTINUOUS
10
0.073651
20
0.541064
30
0.0
11
0.074690
21
0.541254
31
0.0
0
LINE
8
0
6
CONTINUOUS
10
0.073651
20
0.541064
30
0.0
11
0.072404
21
0.540827
31
0.0
0
LINE
8
0
6
CONTINUOUS
10
0.074690
20
0.541254
30
0.0
11
0.073651
21
0.541064
31
0.0
0
LINE
8
0
6
CONTINUOUS
10
0.073275
20
0.540975
30
0.0
11
0.075391
21
0.541362
31
0.0
0
LINE
8
0
6
CONTINUOUS
10
0.080543
20
0.541472
30
0.0
11
0.081789
21
0.541709
31
0.0
0
LINE
8
0
6
CONTINUOUS
10
0.081789
20
0.541709
30
0.0
11
0.082884
21
0.541909
31
0.0
0
LINE
8
0
6
CONTINUOUS
10
0.081789
20
0.541709
30
0.0
11
0.080543
21
0.541472
31
0.0
0
LINE
8
0
6
CONTINUOUS
10
0.082884
20
0.541909
30
0.0
11
0.081789
21
0.541709
31
0.0
0
LINE
8
0
6
CONTINUOUS
10
0.083529
20
0.542007
30
0.0
11
0.084776
21
0.542245
31
0.0
0
LINE
8
0
6
CONTINUOUS
10
0.081413
20
0.541621
30
0.0
11
0.082887
21
0.541890
31
0.0
0
LINE
8
0
6
CONTINUOUS
10
0.088908
20
0.542204
30
0.0
11
0.090154
21
0.542442
31
0.0
0
LINE
8
0
6
CONTINUOUS
10
0.090154
20
0.542442
30
0.0
11
0.090855
21
0.542570
31
0.0
0
LINE
8
0
6
CONTINUOUS
10
0.090154
20
0.542442
30
0.0
11
0.088908
21
0.542204
31
0.0
0
LINE
8
0
6
CONTINUOUS
10
0.090855
20
0.542570
30
0.0
11
0.090154
21
0.542442
31
0.0
0
LINE
8
0
6
CONTINUOUS
10
0.089778
20
0.542353
30
0.0
11
0.091895
21
0.542739
31
0.0
0
LINE
8
0
6
CONTINUOUS
10
0.097264
20
0.542991
30
0.0
11
0.098511
21
0.543229
31
0.0
0
LINE
8
0
6
CONTINUOUS
10
0.098511
20
0.543229
30
0.0
11
0.099161
21
0.543348
31
0.0
0
LINE
8
0
6
CONTINUOUS
10
0.098511
20
0.543229
30
0.0
11
0.097264
21
0.542991
31
0.0
0
LINE
8
0
6
CONTINUOUS
10
0.099161
20
0.543348
30
0.0
11
0.098511
21
0.543229
31
0.0
0
LINE
8
0
6
CONTINUOUS
10
0.098135
20
0.543140
30
0.0
11
0.099165
21
0.543328
31
0.0
0
LINE
8
0
6
CONTINUOUS
10
0.106426
20
0.544090
30
0.0
11
0.107672
21
0.544328
31
0.0
0
LINE
8
0
6
CONTINUOUS
10
0.106330
20
0.544613
30
0.0
11
0.106426
21
0.544090
31
0.0
0
LINE
8
0
6
CONTINUOUS
10
0.107672
20
0.544328
30
0.0
11
0.109789
21
0.544714
31
0.0
0
LINE
8
0
6
CONTINUOUS
10
0.110659
20
0.544863
30
0.0
11
0.110567
21
0.545367
31
0.0
0
LINE
8
0
6
CONTINUOUS
10
0.109789
20
0.544714
30
0.0
11
0.110659
21
0.544863
31
0.0
0
LINE
8
0
6
CONTINUOUS
10
0.107672
20
0.544328
30
0.0
11
0.106426
21
0.544090
31
0.0
0
LINE
8
0
6
CONTINUOUS
10
0.109789
20
0.544714
30
0.0
11
0.107672
21
0.544328
31
0.0
0
LINE
8
0
6
CONTINUOUS
10
0.110659
20
0.544863
30
0.0
11
0.109789
21
0.544714
31
0.0
0
LINE
8
0
6
CONTINUOUS
10
0.109413
20
0.544625
30
0.0
11
0.110659
21
0.544863
31
0.0
0
LINE
8
0
6
CONTINUOUS
10
0.107296
20
0.544239
30
0.0
11
0.109413
21
0.544625
31
0.0
0
LINE
8
0
6
CONTINUOUS
10
0.063042
20
0.540129
30
0.0
11
0.064289
21
0.540366
31
0.0
0
LINE
8
0
6
CONTINUOUS
10
0.062616
20
0.542455
30
0.0
11
0.063042
21
0.540129
31
0.0
0
LINE
8
0
6
CONTINUOUS
10
0.064289
20
0.540366
30
0.0
11
0.066405
21
0.540753
31
0.0
0
LINE
8
0
6
CONTINUOUS
10
0.066405
20
0.540753
30
0.0
11
0.067275
21
0.540902
31
0.0
0
LINE
8
0
6
CONTINUOUS
10
0.064289
20
0.540366
30
0.0
11
0.063042
21
0.540129
31
0.0
0
LINE
8
0
6
CONTINUOUS
10
0.066405
20
0.540753
30
0.0
11
0.064289
21
0.540366
31
0.0
0
LINE
8
0
6
CONTINUOUS
10
0.067275
20
0.540902
30
0.0
11
0.066405
21
0.540753
31
0.0
0
LINE
8
0
6
CONTINUOUS
10
0.066029
20
0.540664
30
0.0
11
0.067275
21
0.540902
31
0.0
0
LINE
8
0
6
CONTINUOUS
10
0.063912
20
0.540277
30
0.0
11
0.066029
21
0.540664
31
0.0
0
LINE
8
0
6
CONTINUOUS
10
0.071649
20
0.540703
30
0.0
11
0.072896
21
0.540941
31
0.0
0
LINE
8
0
6
CONTINUOUS
10
0.071481
20
0.541619
30
0.0
11
0.071649
21
0.540703
31
0.0
0
LINE
8
0
6
CONTINUOUS
10
0.072896
20
0.540941
30
0.0
11
0.071649
21
0.540703
31
0.0
0
LINE
8
0
6
CONTINUOUS
10
0.083535
20
0.542004
30
0.0
11
0.084782
21
0.542242
31
0.0
0
LINE
8
0
6
CONTINUOUS
10
0.081419
20
0.541618
30
0.0
11
0.082888
21
0.541886
31
0.0
0
LINE
8
0
6
CONTINUOUS
10
0.090325
20
0.542450
30
0.0
11
0.092441
21
0.542837
31
0.0
0
LINE
8
0
6
CONTINUOUS
10
0.073112
20
0.540938
30
0.0
11
0.074358
21
0.541175
31
0.0
0
LINE
8
0
6
CONTINUOUS
10
0.074358
20
0.541175
30
0.0
11
0.073112
21
0.540938
31
0.0
0
LINE
8
0
6
CONTINUOUS
10
0.076098
20
0.541473
30
0.0
11
0.077345
21
0.541711
31
0.0
0
LINE
8
0
6
CONTINUOUS
10
0.073982
20
0.541087
30
0.0
11
0.076098
21
0.541473
31
0.0
0
LINE
8
0
6
CONTINUOUS
10
0.092807
20
0.542879
30
0.0
11
0.094053
21
0.543116
31
0.0
0
LINE
8
0
6
CONTINUOUS
10
0.092798
20
0.542924
30
0.0
11
0.092807
21
0.542879
31
0.0
0
LINE
8
0
6
CONTINUOUS
10
0.094053
20
0.543116
30
0.0
11
0.095579
21
0.543395
31
0.0
0
LINE
8
0
6
CONTINUOUS
10
0.094053
20
0.543116
30
0.0
11
0.092807
21
0.542879
31
0.0
0
LINE
8
0
6
CONTINUOUS
10
0.095579
20
0.543395
30
0.0
11
0.094053
21
0.543116
31
0.0
0
LINE
8
0
6
CONTINUOUS
10
0.093677
20
0.543027
30
0.0
11
0.095794
21
0.543414
31
0.0
0
LINE
8
0
6
CONTINUOUS
10
0.077194
20
0.541681
30
0.0
11
0.078852
21
0.541984
31
0.0
0
LINE
8
0
6
CONTINUOUS
10
0.131292
20
0.552140
30
0.0
11
0.132871
21
0.552423
31
0.0
0
LINE
8
0
6
CONTINUOUS
10
0.130896
20
0.554296
30
0.0
11
0.131292
21
0.552140
31
0.0
0
LINE
8
0
6
CONTINUOUS
10
0.132871
20
0.552423
30
0.0
11
0.134896
21
0.552798
31
0.0
0
LINE
8
0
6
CONTINUOUS
10
0.135340
20
0.552890
30
0.0
11
0.134982
21
0.554841
31
0.0
0
LINE
8
0
6
CONTINUOUS
10
0.134896
20
0.552798
30
0.0
11
0.135340
21
0.552890
31
0.0
0
LINE
8
0
6
CONTINUOUS
10
0.131331
20
0.551186
30
0.0
11
0.132910
21
0.551469
31
0.0
0
LINE
8
0
6
CONTINUOUS
10
0.130941
20
0.553309
30
0.0
11
0.131331
21
0.551186
31
0.0
0
LINE
8
0
6
CONTINUOUS
10
0.132910
20
0.551469
30
0.0
11
0.134934
21
0.551844
31
0.0
0
LINE
8
0
6
CONTINUOUS
10
0.134934
20
0.551844
30
0.0
11
0.135379
21
0.551935
31
0.0
0
LINE
8
0
6
CONTINUOUS
10
0.131647
20
0.550444
30
0.0
11
0.133226
21
0.550727
31
0.0
0
LINE
8
0
6
CONTINUOUS
10
0.133226
20
0.550727
30
0.0
11
0.135250
21
0.551102
31
0.0
0
LINE
8
0
6
CONTINUOUS
10
0.135695
20
0.551194
30
0.0
11
0.135333
21
0.553163
31
0.0
0
LINE
8
0
6
CONTINUOUS
10
0.135250
20
0.551102
30
0.0
11
0.135695
21
0.551194
31
0.0
0
LINE
8
0
6
CONTINUOUS
10
0.131731
20
0.549743
30
0.0
11
0.133311
21
0.550026
31
0.0
0
LINE
8
0
6
CONTINUOUS
10
0.131344
20
0.551851
30
0.0
11
0.131731
21
0.549743
31
0.0
0
LINE
8
0
6
CONTINUOUS
10
0.133311
20
0.550026
30
0.0
11
0.135335
21
0.550401
31
0.0
0
LINE
8
0
6
CONTINUOUS
10
0.135335
20
0.550401
30
0.0
11
0.135780
21
0.550492
31
0.0
0
LINE
8
0
6
CONTINUOUS
10
0.131687
20
0.549038
30
0.0
11
0.133266
21
0.549321
31
0.0
0
LINE
8
0
6
CONTINUOUS
10
0.131299
20
0.551149
30
0.0
11
0.131687
21
0.549038
31
0.0
0
LINE
8
0
6
CONTINUOUS
10
0.133266
20
0.549321
30
0.0
11
0.135291
21
0.549696
31
0.0
0
LINE
8
0
6
CONTINUOUS
10
0.135291
20
0.549696
30
0.0
11
0.135735
21
0.549787
31
0.0
0
LINE
8
0
6
CONTINUOUS
10
0.131720
20
0.548789
30
0.0
11
0.133299
21
0.549073
31
0.0
0
LINE
8
0
6
CONTINUOUS
10
0.131438
20
0.550325
30
0.0
11
0.131720
21
0.548789
31
0.0
0
LINE
8
0
6
CONTINUOUS
10
0.133299
20
0.549073
30
0.0
11
0.135324
21
0.549447
31
0.0
0
LINE
8
0
6
CONTINUOUS
10
0.135324
20
0.549447
30
0.0
11
0.135768
21
0.549539
31
0.0
0
LINE
8
0
6
CONTINUOUS
10
0.131740
20
0.548521
30
0.0
11
0.133320
21
0.548804
31
0.0
0
LINE
8
0
6
CONTINUOUS
10
0.131458
20
0.550053
30
0.0
11
0.131740
21
0.548521
31
0.0
0
LINE
8
0
6
CONTINUOUS
10
0.133320
20
0.548804
30
0.0
11
0.135344
21
0.549179
31
0.0
0
LINE
8
0
6
CONTINUOUS
10
0.135344
20
0.549179
30
0.0
11
0.135788
21
0.549271
31
0.0
0
LINE
8
0
6
CONTINUOUS
10
0.070681
20
0.541476
30
0.0
11
0.072234
21
0.541754
31
0.0
0
LINE
8
0
6
CONTINUOUS
10
0.070254
20
0.543798
30
0.0
11
0.070681
21
0.541476
31
0.0
0
LINE
8
0
6
CONTINUOUS
10
0.072260
20
0.541759
30
0.0
11
0.074285
21
0.542134
31
0.0
0
LINE
8
0
6
CONTINUOUS
10
0.074729
20
0.542226
30
0.0
11
0.074412
21
0.543954
31
0.0
0
LINE
8
0
6
CONTINUOUS
10
0.074285
20
0.542134
30
0.0
11
0.074729
21
0.542226
31
0.0
0
LINE
8
0
6
CONTINUOUS
10
0.078853
20
0.541978
30
0.0
11
0.080399
21
0.542255
31
0.0
0
LINE
8
0
6
CONTINUOUS
10
0.078570
20
0.543519
30
0.0
11
0.078853
21
0.541978
31
0.0
0
LINE
8
0
6
CONTINUOUS
10
0.080433
20
0.542261
30
0.0
11
0.082457
21
0.542636
31
0.0
0
LINE
8
0
6
CONTINUOUS
10
0.082901
20
0.542728
30
0.0
11
0.082568
21
0.544545
31
0.0
0
LINE
8
0
6
CONTINUOUS
10
0.082457
20
0.542636
30
0.0
11
0.082901
21
0.542728
31
0.0
0
LINE
8
0
6
CONTINUOUS
10
0.087336
20
0.542652
30
0.0
11
0.088915
21
0.542935
31
0.0
0
LINE
8
0
6
CONTINUOUS
10
0.088915
20
0.542935
30
0.0
11
0.090940
21
0.543310
31
0.0
0
LINE
8
0
6
CONTINUOUS
10
0.091384
20
0.543402
30
0.0
11
0.091051
21
0.545218
31
0.0
0
LINE
8
0
6
CONTINUOUS
10
0.090940
20
0.543310
30
0.0
11
0.091384
21
0.543402
31
0.0
0
LINE
8
0
6
CONTINUOUS
10
0.095581
20
0.543383
30
0.0
11
0.097141
21
0.543663
31
0.0
0
LINE
8
0
6
CONTINUOUS
10
0.097161
20
0.543666
30
0.0
11
0.099185
21
0.544041
31
0.0
0
LINE
8
0
6
CONTINUOUS
10
0.099630
20
0.544133
30
0.0
11
0.099291
21
0.545979
31
0.0
0
LINE
8
0
6
CONTINUOUS
10
0.099185
20
0.544041
30
0.0
11
0.099630
21
0.544133
31
0.0
0
LINE
8
0
6
CONTINUOUS
10
0.104057
20
0.544181
30
0.0
11
0.105636
21
0.544465
31
0.0
0
LINE
8
0
6
CONTINUOUS
10
0.105636
20
0.544465
30
0.0
11
0.107660
21
0.544839
31
0.0
0
LINE
8
0
6
CONTINUOUS
10
0.108105
20
0.544931
30
0.0
11
0.107766
21
0.546777
31
0.0
0
LINE
8
0
6
CONTINUOUS
10
0.107660
20
0.544839
30
0.0
11
0.108105
21
0.544931
31
0.0
0
LINE
8
0
6
CONTINUOUS
10
0.115612
20
0.546271
30
0.0
11
0.116400
21
0.546417
31
0.0
0
LINE
8
0
6
CONTINUOUS
10
0.116845
20
0.546509
30
0.0
11
0.116586
21
0.547918
31
0.0
0
LINE
8
0
6
CONTINUOUS
10
0.116400
20
0.546417
30
0.0
11
0.116845
21
0.546509
31
0.0
0
LINE
8
0
6
CONTINUOUS
10
0.121873
20
0.547065
30
0.0
11
0.123453
21
0.547348
31
0.0
0
LINE
8
0
6
CONTINUOUS
10
0.123453
20
0.547348
30
0.0
11
0.125477
21
0.547723
31
0.0
0
LINE
8
0
6
CONTINUOUS
10
0.125921
20
0.547814
30
0.0
11
0.125661
21
0.549232
31
0.0
0
LINE
8
0
6
CONTINUOUS
10
0.125477
20
0.547723
30
0.0
11
0.125921
21
0.547814
31
0.0
0
LINE
8
0
6
CONTINUOUS
10
0.120522
20
0.550302
30
0.0
11
0.122102
21
0.550585
31
0.0
0
LINE
8
0
6
CONTINUOUS
10
0.120125
20
0.552463
30
0.0
11
0.120522
21
0.550302
31
0.0
0
LINE
8
0
6
CONTINUOUS
10
0.122102
20
0.550585
30
0.0
11
0.124126
21
0.550960
31
0.0
0
LINE
8
0
6
CONTINUOUS
10
0.124571
20
0.551052
30
0.0
11
0.124224
21
0.552941
31
0.0
0
LINE
8
0
6
CONTINUOUS
10
0.124126
20
0.550960
30
0.0
11
0.124571
21
0.551052
31
0.0
0
LINE
8
0
6
CONTINUOUS
10
0.120903
20
0.549364
30
0.0
11
0.122483
21
0.549647
31
0.0
0
LINE
8
0
6
CONTINUOUS
10
0.122483
20
0.549647
30
0.0
11
0.124507
21
0.550022
31
0.0
0
LINE
8
0
6
CONTINUOUS
10
0.124952
20
0.550114
30
0.0
11
0.124598
21
0.552041
31
0.0
0
LINE
8
0
6
CONTINUOUS
10
0.124507
20
0.550022
30
0.0
11
0.124952
21
0.550114
31
0.0
0
LINE
8
0
6
CONTINUOUS
10
0.120861
20
0.548554
30
0.0
11
0.122441
21
0.548837
31
0.0
0
LINE
8
0
6
CONTINUOUS
10
0.120467
20
0.550699
30
0.0
11
0.120861
21
0.548554
31
0.0
0
LINE
8
0
6
CONTINUOUS
10
0.122441
20
0.548837
30
0.0
11
0.124465
21
0.549212
31
0.0
0
LINE
8
0
6
CONTINUOUS
10
0.124465
20
0.549212
30
0.0
11
0.124909
21
0.549303
31
0.0
0
LINE
8
0
6
CONTINUOUS
10
0.121098
20
0.547865
30
0.0
11
0.122677
21
0.548148
31
0.0
0
LINE
8
0
6
CONTINUOUS
10
0.121014
20
0.548321
30
0.0
11
0.121098
21
0.547865
31
0.0
0
LINE
8
0
6
CONTINUOUS
10
0.122677
20
0.548148
30
0.0
11
0.124702
21
0.548523
31
0.0
0
LINE
8
0
6
CONTINUOUS
10
0.125146
20
0.548615
30
0.0
11
0.124793
21
0.550537
31
0.0
0
LINE
8
0
6
CONTINUOUS
10
0.124702
20
0.548523
30
0.0
11
0.125146
21
0.548615
31
0.0
0
LINE
8
0
6
CONTINUOUS
10
0.121164
20
0.547216
30
0.0
11
0.122744
21
0.547499
31
0.0
0
LINE
8
0
6
CONTINUOUS
10
0.120963
20
0.548314
30
0.0
11
0.121164
21
0.547216
31
0.0
0
LINE
8
0
6
CONTINUOUS
10
0.122744
20
0.547499
30
0.0
11
0.124768
21
0.547874
31
0.0
0
LINE
8
0
6
CONTINUOUS
10
0.125212
20
0.547966
30
0.0
11
0.125039
21
0.548912
31
0.0
0
LINE
8
0
6
CONTINUOUS
10
0.124768
20
0.547874
30
0.0
11
0.125212
21
0.547966
31
0.0
0
LINE
8
0
6
CONTINUOUS
10
0.125394
20
0.548016
30
0.0
11
0.125132
21
0.549446
31
0.0
0
LINE
8
0
6
CONTINUOUS
10
0.110239
20
0.548500
30
0.0
11
0.111818
21
0.548783
31
0.0
0
LINE
8
0
6
CONTINUOUS
10
0.109831
20
0.550717
30
0.0
11
0.110239
21
0.548500
31
0.0
0
LINE
8
0
6
CONTINUOUS
10
0.111818
20
0.548783
30
0.0
11
0.113842
21
0.549158
31
0.0
0
LINE
8
0
6
CONTINUOUS
10
0.114287
20
0.549250
30
0.0
11
0.113950
21
0.551083
31
0.0
0
LINE
8
0
6
CONTINUOUS
10
0.113842
20
0.549158
30
0.0
11
0.114287
21
0.549250
31
0.0
0
LINE
8
0
6
CONTINUOUS
10
0.110511
20
0.547564
30
0.0
11
0.112091
21
0.547848
31
0.0
0
LINE
8
0
6
CONTINUOUS
10
0.112091
20
0.547848
30
0.0
11
0.114115
21
0.548222
31
0.0
0
LINE
8
0
6
CONTINUOUS
10
0.114560
20
0.548314
30
0.0
11
0.114213
21
0.550203
31
0.0
0
LINE
8
0
6
CONTINUOUS
10
0.114115
20
0.548222
30
0.0
11
0.114560
21
0.548314
31
0.0
0
LINE
8
0
6
CONTINUOUS
10
0.110835
20
0.546790
30
0.0
11
0.112414
21
0.547073
31
0.0
0
LINE
8
0
6
CONTINUOUS
10
0.110820
20
0.546870
30
0.0
11
0.110835
21
0.546790
31
0.0
0
LINE
8
0
6
CONTINUOUS
10
0.112414
20
0.547073
30
0.0
11
0.114439
21
0.547448
31
0.0
0
LINE
8
0
6
CONTINUOUS
10
0.114883
20
0.547539
30
0.0
11
0.114536
21
0.549428
31
0.0
0
LINE
8
0
6
CONTINUOUS
10
0.114439
20
0.547448
30
0.0
11
0.114883
21
0.547539
31
0.0
0
LINE
8
0
6
CONTINUOUS
10
0.111092
20
0.546114
30
0.0
11
0.112671
21
0.546397
31
0.0
0
LINE
8
0
6
CONTINUOUS
10
0.110950
20
0.546888
30
0.0
11
0.111092
21
0.546114
31
0.0
0
LINE
8
0
6
CONTINUOUS
10
0.112671
20
0.546397
30
0.0
11
0.114696
21
0.546772
31
0.0
0
LINE
8
0
6
CONTINUOUS
10
0.115140
20
0.546864
30
0.0
11
0.114795
21
0.548744
31
0.0
0
LINE
8
0
6
CONTINUOUS
10
0.114696
20
0.546772
30
0.0
11
0.115140
21
0.546864
31
0.0
0
LINE
8
0
6
CONTINUOUS
10
0.111566
20
0.545506
30
0.0
11
0.113146
21
0.545789
31
0.0
0
LINE
8
0
6
CONTINUOUS
10
0.113146
20
0.545789
30
0.0
11
0.115170
21
0.546164
31
0.0
0
LINE
8
0
6
CONTINUOUS
10
0.115615
20
0.546255
30
0.0
11
0.115270
21
0.548136
31
0.0
0
LINE
8
0
6
CONTINUOUS
10
0.115170
20
0.546164
30
0.0
11
0.115615
21
0.546255
31
0.0
0
LINE
8
0
6
CONTINUOUS
10
0.100449
20
0.546713
30
0.0
11
0.102028
21
0.546996
31
0.0
0
LINE
8
0
6
CONTINUOUS
10
0.100033
20
0.548976
30
0.0
11
0.100449
21
0.546713
31
0.0
0
LINE
8
0
6
CONTINUOUS
10
0.102028
20
0.546996
30
0.0
11
0.104053
21
0.547371
31
0.0
0
LINE
8
0
6
CONTINUOUS
10
0.104497
20
0.547462
30
0.0
11
0.104168
21
0.549254
31
0.0
0
LINE
8
0
6
CONTINUOUS
10
0.104053
20
0.547371
30
0.0
11
0.104497
21
0.547462
31
0.0
0
LINE
8
0
6
CONTINUOUS
10
0.100750
20
0.545840
30
0.0
11
0.102329
21
0.546123
31
0.0
0
LINE
8
0
6
CONTINUOUS
10
0.102329
20
0.546123
30
0.0
11
0.104354
21
0.546498
31
0.0
0
LINE
8
0
6
CONTINUOUS
10
0.104798
20
0.546590
30
0.0
11
0.104457
21
0.548446
31
0.0
0
LINE
8
0
6
CONTINUOUS
10
0.104354
20
0.546498
30
0.0
11
0.104798
21
0.546590
31
0.0
0
LINE
8
0
6
CONTINUOUS
10
0.101496
20
0.545154
30
0.0
11
0.103076
21
0.545437
31
0.0
0
LINE
8
0
6
CONTINUOUS
10
0.101407
20
0.545635
30
0.0
11
0.101496
21
0.545154
31
0.0
0
LINE
8
0
6
CONTINUOUS
10
0.103076
20
0.545437
30
0.0
11
0.105100
21
0.545812
31
0.0
0
LINE
8
0
6
CONTINUOUS
10
0.105544
20
0.545903
30
0.0
11
0.105203
21
0.547760
31
0.0
0
LINE
8
0
6
CONTINUOUS
10
0.105100
20
0.545812
30
0.0
11
0.105544
21
0.545903
31
0.0
0
LINE
8
0
6
CONTINUOUS
10
0.102424
20
0.544585
30
0.0
11
0.104004
21
0.544868
31
0.0
0
LINE
8
0
6
CONTINUOUS
10
0.102217
20
0.545714
30
0.0
11
0.102424
21
0.544585
31
0.0
0
LINE
8
0
6
CONTINUOUS
10
0.104004
20
0.544868
30
0.0
11
0.106028
21
0.545243
31
0.0
0
LINE
8
0
6
CONTINUOUS
10
0.106473
20
0.545335
30
0.0
11
0.106131
21
0.547194
31
0.0
0
LINE
8
0
6
CONTINUOUS
10
0.106028
20
0.545243
30
0.0
11
0.106473
21
0.545335
31
0.0
0
LINE
8
0
6
CONTINUOUS
10
0.091184
20
0.545138
30
0.0
11
0.092764
21
0.545421
31
0.0
0
LINE
8
0
6
CONTINUOUS
10
0.090769
20
0.547402
30
0.0
11
0.091184
21
0.545138
31
0.0
0
LINE
8
0
6
CONTINUOUS
10
0.092764
20
0.545421
30
0.0
11
0.094788
21
0.545796
31
0.0
0
LINE
8
0
6
CONTINUOUS
10
0.095233
20
0.545888
30
0.0
11
0.094905
21
0.547674
31
0.0
0
LINE
8
0
6
CONTINUOUS
10
0.094788
20
0.545796
30
0.0
11
0.095233
21
0.545888
31
0.0
0
LINE
8
0
6
CONTINUOUS
10
0.092126
20
0.544312
30
0.0
11
0.093705
21
0.544596
31
0.0
0
LINE
8
0
6
CONTINUOUS
10
0.092050
20
0.544726
30
0.0
11
0.092126
21
0.544312
31
0.0
0
LINE
8
0
6
CONTINUOUS
10
0.093705
20
0.544596
30
0.0
11
0.095729
21
0.544970
31
0.0
0
LINE
8
0
6
CONTINUOUS
10
0.096174
20
0.545062
30
0.0
11
0.095837
21
0.546894
31
0.0
0
LINE
8
0
6
CONTINUOUS
10
0.095729
20
0.544970
30
0.0
11
0.096174
21
0.545062
31
0.0
0
LINE
8
0
6
CONTINUOUS
10
0.093586
20
0.543756
30
0.0
11
0.095166
21
0.544039
31
0.0
0
LINE
8
0
6
CONTINUOUS
10
0.093384
20
0.544856
30
0.0
11
0.093586
21
0.543756
31
0.0
0
LINE
8
0
6
CONTINUOUS
10
0.095166
20
0.544039
30
0.0
11
0.097190
21
0.544414
31
0.0
0
LINE
8
0
6
CONTINUOUS
10
0.097634
20
0.544506
30
0.0
11
0.097298
21
0.546338
31
0.0
0
LINE
8
0
6
CONTINUOUS
10
0.097190
20
0.544414
30
0.0
11
0.097634
21
0.544506
31
0.0
0
LINE
8
0
6
CONTINUOUS
10
0.083125
20
0.543744
30
0.0
11
0.084666
21
0.544020
31
0.0
0
LINE
8
0
6
CONTINUOUS
10
0.082703
20
0.546043
30
0.0
11
0.083125
21
0.543744
31
0.0
0
LINE
8
0
6
CONTINUOUS
10
0.084705
20
0.544027
30
0.0
11
0.086729
21
0.544402
31
0.0
0
LINE
8
0
6
CONTINUOUS
10
0.087173
20
0.544493
30
0.0
11
0.086852
21
0.546244
31
0.0
0
LINE
8
0
6
CONTINUOUS
10
0.086729
20
0.544402
30
0.0
11
0.087173
21
0.544493
31
0.0
0
LINE
8
0
6
CONTINUOUS
10
0.084855
20
0.542993
30
0.0
11
0.086434
21
0.543276
31
0.0
0
LINE
8
0
6
CONTINUOUS
10
0.084665
20
0.544024
30
0.0
11
0.084855
21
0.542993
31
0.0
0
LINE
8
0
6
CONTINUOUS
10
0.086434
20
0.543276
30
0.0
11
0.088459
21
0.543651
31
0.0
0
LINE
8
0
6
CONTINUOUS
10
0.088903
20
0.543742
30
0.0
11
0.088567
21
0.545575
31
0.0
0
LINE
8
0
6
CONTINUOUS
10
0.088459
20
0.543651
30
0.0
11
0.088903
21
0.543742
31
0.0
0
LINE
8
0
6
CONTINUOUS
10
0.076194
20
0.542471
30
0.0
11
0.077774
21
0.542755
31
0.0
0
LINE
8
0
6
CONTINUOUS
10
0.075768
20
0.544793
30
0.0
11
0.076194
21
0.542471
31
0.0
0
LINE
8
0
6
CONTINUOUS
10
0.077774
20
0.542755
30
0.0
11
0.079798
21
0.543129
31
0.0
0
LINE
8
0
6
CONTINUOUS
10
0.080243
20
0.543221
30
0.0
11
0.079925
21
0.544949
31
0.0
0
LINE
8
0
6
CONTINUOUS
10
0.079798
20
0.543129
30
0.0
11
0.080243
21
0.543221
31
0.0
0
LINE
8
0
6
CONTINUOUS
10
0.143917
20
0.554415
30
0.0
11
0.145735
21
0.554741
31
0.0
0
LINE
8
0
6
CONTINUOUS
10
0.142070
20
0.554103
30
0.0
11
0.143917
21
0.554415
31
0.0
0
LINE
8
0
6
CONTINUOUS
10
0.141696
20
0.556251
30
0.0
11
0.142070
21
0.554103
31
0.0
0
LINE
8
0
6
CONTINUOUS
10
0.144234
20
0.553503
30
0.0
11
0.146046
21
0.553827
31
0.0
0
LINE
8
0
6
CONTINUOUS
10
0.142387
20
0.553191
30
0.0
11
0.144234
21
0.553503
31
0.0
0
LINE
8
0
6
CONTINUOUS
10
0.144196
20
0.552656
30
0.0
11
0.146040
21
0.552986
31
0.0
0
LINE
8
0
6
CONTINUOUS
10
0.142349
20
0.552344
30
0.0
11
0.144196
21
0.552656
31
0.0
0
LINE
8
0
6
CONTINUOUS
10
0.141981
20
0.554456
30
0.0
11
0.142349
21
0.552344
31
0.0
0
LINE
8
0
6
CONTINUOUS
10
0.144358
20
0.551973
30
0.0
11
0.146202
21
0.552303
31
0.0
0
LINE
8
0
6
CONTINUOUS
10
0.142511
20
0.551660
30
0.0
11
0.144358
21
0.551973
31
0.0
0
LINE
8
0
6
CONTINUOUS
10
0.142452
20
0.551998
30
0.0
11
0.142511
21
0.551660
31
0.0
0
LINE
8
0
6
CONTINUOUS
10
0.144278
20
0.551279
30
0.0
11
0.146122
21
0.551609
31
0.0
0
LINE
8
0
6
CONTINUOUS
10
0.142431
20
0.550967
30
0.0
11
0.144278
21
0.551279
31
0.0
0
LINE
8
0
6
CONTINUOUS
10
0.142072
20
0.553031
30
0.0
11
0.142431
21
0.550967
31
0.0
0
LINE
8
0
6
CONTINUOUS
10
0.142066
20
0.550932
30
0.0
11
0.142426
21
0.550993
31
0.0
0
LINE
8
0
6
CONTINUOUS
10
0.141803
20
0.552442
30
0.0
11
0.142066
21
0.550932
31
0.0
0
LINE
8
0
6
CONTINUOUS
10
0.143549
20
0.550887
30
0.0
11
0.145394
21
0.551217
31
0.0
0
LINE
8
0
6
CONTINUOUS
10
0.141702
20
0.550574
30
0.0
11
0.143549
21
0.550887
31
0.0
0
LINE
8
0
6
CONTINUOUS
10
0.141442
20
0.552068
30
0.0
11
0.141702
21
0.550574
31
0.0
0
LINE
8
0
6
CONTINUOUS
10
0.193706
20
0.563175
30
0.0
11
0.195550
21
0.563505
31
0.0
0
LINE
8
0
6
CONTINUOUS
10
0.191859
20
0.562863
30
0.0
11
0.193706
21
0.563175
31
0.0
0
LINE
8
0
6
CONTINUOUS
10
0.191528
20
0.564761
30
0.0
11
0.191859
21
0.562863
31
0.0
0
LINE
8
0
6
CONTINUOUS
10
0.185680
20
0.560782
30
0.0
11
0.187524
21
0.561112
31
0.0
0
LINE
8
0
6
CONTINUOUS
10
0.183833
20
0.560470
30
0.0
11
0.185680
21
0.560782
31
0.0
0
LINE
8
0
6
CONTINUOUS
10
0.183495
20
0.562411
30
0.0
11
0.183833
21
0.560470
31
0.0
0
LINE
8
0
6
CONTINUOUS
10
0.177694
20
0.558593
30
0.0
11
0.179532
21
0.558922
31
0.0
0
LINE
8
0
6
CONTINUOUS
10
0.175847
20
0.558281
30
0.0
11
0.177694
21
0.558593
31
0.0
0
LINE
8
0
6
CONTINUOUS
10
0.175509
20
0.560222
30
0.0
11
0.175847
21
0.558281
31
0.0
0
LINE
8
0
6
CONTINUOUS
10
0.169646
20
0.556439
30
0.0
11
0.171490
21
0.556769
31
0.0
0
LINE
8
0
6
CONTINUOUS
10
0.167799
20
0.556126
30
0.0
11
0.169646
21
0.556439
31
0.0
0
LINE
8
0
6
CONTINUOUS
10
0.167458
20
0.558082
30
0.0
11
0.167799
21
0.556126
31
0.0
0
LINE
8
0
6
CONTINUOUS
10
0.161488
20
0.554322
30
0.0
11
0.163332
21
0.554652
31
0.0
0
LINE
8
0
6
CONTINUOUS
10
0.159641
20
0.554009
30
0.0
11
0.161488
21
0.554322
31
0.0
0
LINE
8
0
6
CONTINUOUS
10
0.159300
20
0.555969
30
0.0
11
0.159641
21
0.554009
31
0.0
0
LINE
8
0
6
CONTINUOUS
10
0.150672
20
0.552453
30
0.0
11
0.151882
21
0.552657
31
0.0
0
LINE
8
0
6
CONTINUOUS
10
0.150415
20
0.553931
30
0.0
11
0.150672
21
0.552453
31
0.0
0
LINE
8
0
6
CONTINUOUS
10
0.188241
20
0.562237
30
0.0
11
0.190064
21
0.562563
31
0.0
0
LINE
8
0
6
CONTINUOUS
10
0.186394
20
0.561925
30
0.0
11
0.188241
21
0.562237
31
0.0
0
LINE
8
0
6
CONTINUOUS
10
0.186064
20
0.563823
30
0.0
11
0.186394
21
0.561925
31
0.0
0
LINE
8
0
6
CONTINUOUS
10
0.180025
20
0.559790
30
0.0
11
0.181869
21
0.560119
31
0.0
0
LINE
8
0
6
CONTINUOUS
10
0.178178
20
0.559477
30
0.0
11
0.180023
21
0.559789
31
0.0
0
LINE
8
0
6
CONTINUOUS
10
0.177834
20
0.561453
30
0.0
11
0.178178
21
0.559477
31
0.0
0
LINE
8
0
6
CONTINUOUS
10
0.171505
20
0.557494
30
0.0
11
0.173349
21
0.557824
31
0.0
0
LINE
8
0
6
CONTINUOUS
10
0.169658
20
0.557182
30
0.0
11
0.171505
21
0.557494
31
0.0
0
LINE
8
0
6
CONTINUOUS
10
0.169313
20
0.559164
30
0.0
11
0.169658
21
0.557182
31
0.0
0
LINE
8
0
6
CONTINUOUS
10
0.162925
20
0.555259
30
0.0
11
0.164769
21
0.555589
31
0.0
0
LINE
8
0
6
CONTINUOUS
10
0.161078
20
0.554947
30
0.0
11
0.162925
21
0.555259
31
0.0
0
LINE
8
0
6
CONTINUOUS
10
0.160732
20
0.556937
30
0.0
11
0.161078
21
0.554947
31
0.0
0
LINE
8
0
6
CONTINUOUS
10
0.153734
20
0.552941
30
0.0
11
0.155579
21
0.553271
31
0.0
0
LINE
8
0
6
CONTINUOUS
10
0.151887
20
0.552628
30
0.0
11
0.153734
21
0.552941
31
0.0
0
LINE
8
0
6
CONTINUOUS
10
0.151535
20
0.554656
30
0.0
11
0.151887
21
0.552628
31
0.0
0
LINE
8
0
6
CONTINUOUS
10
0.181213
20
0.560993
30
0.0
11
0.183057
21
0.561323
31
0.0
0
LINE
8
0
6
CONTINUOUS
10
0.179366
20
0.560681
30
0.0
11
0.181213
21
0.560993
31
0.0
0
LINE
8
0
6
CONTINUOUS
10
0.179025
20
0.562639
30
0.0
11
0.179366
21
0.560681
31
0.0
0
LINE
8
0
6
CONTINUOUS
10
0.172539
20
0.558488
30
0.0
11
0.174384
21
0.558818
31
0.0
0
LINE
8
0
6
CONTINUOUS
10
0.170692
20
0.558175
30
0.0
11
0.172539
21
0.558488
31
0.0
0
LINE
8
0
6
CONTINUOUS
10
0.170347
20
0.560157
30
0.0
11
0.170692
21
0.558175
31
0.0
0
LINE
8
0
6
CONTINUOUS
10
0.163608
20
0.556103
30
0.0
11
0.165452
21
0.556433
31
0.0
0
LINE
8
0
6
CONTINUOUS
10
0.161761
20
0.555791
30
0.0
11
0.163608
21
0.556103
31
0.0
0
LINE
8
0
6
CONTINUOUS
10
0.161409
20
0.557817
30
0.0
11
0.161761
21
0.555791
31
0.0
0
LINE
8
0
6
CONTINUOUS
10
0.154227
20
0.553716
30
0.0
11
0.156071
21
0.554046
31
0.0
0
LINE
8
0
6
CONTINUOUS
10
0.152380
20
0.553403
30
0.0
11
0.154227
21
0.553716
31
0.0
0
LINE
8
0
6
CONTINUOUS
10
0.152027
20
0.555431
30
0.0
11
0.152380
21
0.553403
31
0.0
0
LINE
8
0
6
CONTINUOUS
10
0.173307
20
0.559615
30
0.0
11
0.175152
21
0.559945
31
0.0
0
LINE
8
0
6
CONTINUOUS
10
0.171460
20
0.559303
30
0.0
11
0.173307
21
0.559615
31
0.0
0
LINE
8
0
6
CONTINUOUS
10
0.171109
20
0.561325
30
0.0
11
0.171460
21
0.559303
31
0.0
0
LINE
8
0
6
CONTINUOUS
10
0.163996
20
0.556997
30
0.0
11
0.165840
21
0.557327
31
0.0
0
LINE
8
0
6
CONTINUOUS
10
0.162149
20
0.556685
30
0.0
11
0.163996
21
0.556997
31
0.0
0
LINE
8
0
6
CONTINUOUS
10
0.161796
20
0.558711
30
0.0
11
0.162149
21
0.556685
31
0.0
0
LINE
8
0
6
CONTINUOUS
10
0.154345
20
0.554457
30
0.0
11
0.156189
21
0.554787
31
0.0
0
LINE
8
0
6
CONTINUOUS
10
0.152498
20
0.554145
30
0.0
11
0.154345
21
0.554457
31
0.0
0
LINE
8
0
6
CONTINUOUS
10
0.152137
20
0.556215
30
0.0
11
0.152498
21
0.554145
31
0.0
0
LINE
8
0
6
CONTINUOUS
10
0.164382
20
0.558038
30
0.0
11
0.166227
21
0.558368
31
0.0
0
LINE
8
0
6
CONTINUOUS
10
0.162535
20
0.557726
30
0.0
11
0.164345
21
0.558032
31
0.0
0
LINE
8
0
6
CONTINUOUS
10
0.162182
20
0.559753
30
0.0
11
0.162535
21
0.557726
31
0.0
0
LINE
8
0
6
CONTINUOUS
10
0.154308
20
0.555272
30
0.0
11
0.156114
21
0.555595
31
0.0
0
LINE
8
0
6
CONTINUOUS
10
0.152461
20
0.554960
30
0.0
11
0.154308
21
0.555272
31
0.0
0
LINE
8
0
6
CONTINUOUS
10
0.152100
20
0.557030
30
0.0
11
0.152461
21
0.554960
31
0.0
0
LINE
8
0
6
CONTINUOUS
10
0.154264
20
0.556257
30
0.0
11
0.156108
21
0.556587
31
0.0
0
LINE
8
0
6
CONTINUOUS
10
0.152417
20
0.555945
30
0.0
11
0.154264
21
0.556257
31
0.0
0
LINE
8
0
6
CONTINUOUS
10
0.152054
20
0.558031
30
0.0
11
0.152417
21
0.555945
31
0.0
0
LINE
8
0
6
CONTINUOUS
10
0.197708
20
0.563905
30
0.0
11
0.199552
21
0.564234
31
0.0
0
LINE
8
0
6
CONTINUOUS
10
0.195861
20
0.563592
30
0.0
11
0.197708
21
0.563905
31
0.0
0
LINE
8
0
6
CONTINUOUS
10
0.195540
20
0.565437
30
0.0
11
0.195861
21
0.563592
31
0.0
0
LINE
8
0
6
CONTINUOUS
10
0.189817
20
0.561532
30
0.0
11
0.191662
21
0.561862
31
0.0
0
LINE
8
0
6
CONTINUOUS
10
0.187970
20
0.561219
30
0.0
11
0.189817
21
0.561532
31
0.0
0
LINE
8
0
6
CONTINUOUS
10
0.187698
20
0.562787
30
0.0
11
0.187970
21
0.561219
31
0.0
0
LINE
8
0
6
CONTINUOUS
10
0.182001
20
0.559349
30
0.0
11
0.183845
21
0.559679
31
0.0
0
LINE
8
0
6
CONTINUOUS
10
0.180154
20
0.559037
30
0.0
11
0.182001
21
0.559349
31
0.0
0
LINE
8
0
6
CONTINUOUS
10
0.174253
20
0.557259
30
0.0
11
0.176097
21
0.557589
31
0.0
0
LINE
8
0
6
CONTINUOUS
10
0.172406
20
0.556946
30
0.0
11
0.174253
21
0.557259
31
0.0
0
LINE
8
0
6
CONTINUOUS
10
0.166077
20
0.555118
30
0.0
11
0.167922
21
0.555448
31
0.0
0
LINE
8
0
6
CONTINUOUS
10
0.164230
20
0.554805
30
0.0
11
0.166077
21
0.555118
31
0.0
0
LINE
8
0
6
CONTINUOUS
10
0.157576
20
0.553650
30
0.0
11
0.159421
21
0.553980
31
0.0
0
LINE
8
0
6
CONTINUOUS
10
0.155729
20
0.553338
30
0.0
11
0.157576
21
0.553650
31
0.0
0
LINE
8
0
6
CONTINUOUS
10
0.149350
20
0.551901
30
0.0
11
0.151195
21
0.552231
31
0.0
0
LINE
8
0
6
CONTINUOUS
10
0.147503
20
0.551589
30
0.0
11
0.149350
21
0.551901
31
0.0
0
LINE
8
0
6
CONTINUOUS
10
0.147251
20
0.553039
30
0.0
11
0.147503
21
0.551589
31
0.0
0
LINE
8
0
6
CONTINUOUS
10
0.141238
20
0.550197
30
0.0
11
0.143083
21
0.550527
31
0.0
0
LINE
8
0
6
CONTINUOUS
10
0.139391
20
0.549885
30
0.0
11
0.141238
21
0.550197
31
0.0
0
LINE
8
0
6
CONTINUOUS
10
0.139137
20
0.551347
30
0.0
11
0.139391
21
0.549885
31
0.0
0
LINE
8
0
6
CONTINUOUS
10
0.202125
20
0.564680
30
0.0
11
0.201734
21
0.567011
31
0.0
0
LINE
8
0
6
CONTINUOUS
10
0.200535
20
0.564413
30
0.0
11
0.202125
21
0.564680
31
0.0
0
LINE
8
0
6
CONTINUOUS
10
0.198973
20
0.564151
30
0.0
11
0.200535
21
0.564413
31
0.0
0
LINE
8
0
6
CONTINUOUS
10
0.192793
20
0.562092
30
0.0
11
0.194384
21
0.562359
31
0.0
0
LINE
8
0
6
CONTINUOUS
10
0.191655
20
0.561902
30
0.0
11
0.192793
21
0.562092
31
0.0
0
LINE
8
0
6
CONTINUOUS
10
0.184494
20
0.559800
30
0.0
11
0.186084
21
0.560067
31
0.0
0
LINE
8
0
6
CONTINUOUS
10
0.183964
20
0.559711
30
0.0
11
0.184494
21
0.559800
31
0.0
0
LINE
8
0
6
CONTINUOUS
10
0.176535
20
0.557666
30
0.0
11
0.178125
21
0.557933
31
0.0
0
LINE
8
0
6
CONTINUOUS
10
0.168191
20
0.555492
30
0.0
11
0.169781
21
0.555760
31
0.0
0
LINE
8
0
6
CONTINUOUS
10
0.159297
20
0.553972
30
0.0
11
0.159637
21
0.554030
31
0.0
0
LINE
8
0
6
CONTINUOUS
10
0.151601
20
0.552308
30
0.0
11
0.151552
21
0.552601
31
0.0
0
LINE
8
0
6
CONTINUOUS
10
0.163350
20
0.554649
30
0.0
11
0.163239
21
0.555315
31
0.0
0
LINE
8
0
6
CONTINUOUS
10
0.159297
20
0.553970
30
0.0
11
0.159733
21
0.554042
31
0.0
0
LINE
8
0
6
CONTINUOUS
10
0.155570
20
0.553321
30
0.0
11
0.155728
21
0.553347
31
0.0
0
LINE
8
0
6
CONTINUOUS
10
0.172549
20
0.556952
30
0.0
11
0.174139
21
0.557219
31
0.0
0
LINE
8
0
6
CONTINUOUS
10
0.170522
20
0.556612
30
0.0
11
0.172549
21
0.556952
31
0.0
0
LINE
8
0
6
CONTINUOUS
10
0.163974
20
0.555447
30
0.0
11
0.164081
21
0.554807
31
0.0
0
LINE
8
0
6
CONTINUOUS
10
0.194484
20
0.563304
30
0.0
11
0.195504
21
0.563476
31
0.0
0
LINE
8
0
6
CONTINUOUS
10
0.187518
20
0.561150
30
0.0
11
0.187969
21
0.561226
31
0.0
0
LINE
8
0
6
CONTINUOUS
10
0.179912
20
0.559025
30
0.0
11
0.180348
21
0.559098
31
0.0
0
LINE
8
0
6
CONTINUOUS
10
0.179790
20
0.559750
30
0.0
11
0.179912
21
0.559025
31
0.0
0
LINE
8
0
6
CONTINUOUS
10
0.175815
20
0.557531
30
0.0
11
0.177406
21
0.557798
31
0.0
0
LINE
8
0
6
CONTINUOUS
10
0.195567
20
0.564934
30
0.0
11
0.195785
21
0.563636
31
0.0
0
LINE
8
0
6
CONTINUOUS
10
0.191786
20
0.561876
30
0.0
11
0.193376
21
0.562143
31
0.0
0
LINE
8
0
6
CONTINUOUS
10
0.186127
20
0.560079
30
0.0
11
0.186000
21
0.560839
31
0.0
0
LINE
8
0
6
CONTINUOUS
10
0.186083
20
0.560072
30
0.0
11
0.186127
21
0.560079
31
0.0
0
LINE
8
0
6
CONTINUOUS
10
0.194640
20
0.562373
30
0.0
11
0.194484
21
0.563304
31
0.0
0
LINE
8
0
6
CONTINUOUS
10
0.193050
20
0.562105
30
0.0
11
0.194640
21
0.562373
31
0.0
0
LINE
8
0
6
CONTINUOUS
10
0.191023
20
0.561766
30
0.0
11
0.193050
21
0.562105
31
0.0
0
LINE
8
0
6
CONTINUOUS
10
0.203031
20
0.564799
30
0.0
11
0.202642
21
0.567119
31
0.0
0
LINE
8
0
6
CONTINUOUS
10
0.201441
20
0.564532
30
0.0
11
0.203031
21
0.564799
31
0.0
0
LINE
8
0
6
CONTINUOUS
10
0.199414
20
0.564192
30
0.0
11
0.201441
21
0.564532
31
0.0
0
LINE
8
0
6
CONTINUOUS
10
0.198978
20
0.564120
30
0.0
11
0.199414
21
0.564192
31
0.0
0
LINE
8
0
6
CONTINUOUS
10
0.042142
20
0.557277
30
0.0
11
0.042837
21
0.550714
31
0.0
0
LINE
8
0
6
CONTINUOUS
10
0.218543
20
0.581696
30
0.0
11
0.216951
21
0.588100
31
0.0
0
LINE
8
0
6
CONTINUOUS
10
0.133568
20
0.597511
30
0.0
11
0.133447
21
0.597615
31
0.0
0
LINE
8
0
6
CONTINUOUS
10
0.045115
20
0.550673
30
0.0
11
0.051613
21
0.551819
31
0.0
0
LINE
8
0
6
CONTINUOUS
10
0.216951
20
0.588100
30
0.0
11
0.215330
21
0.592702
31
0.0
0
LINE
8
0
6
CONTINUOUS
10
0.213579
20
0.596144
30
0.0
11
0.211473
21
0.599524
31
0.0
0
LINE
8
0
6
CONTINUOUS
10
0.210028
20
0.601278
30
0.0
11
0.209918
21
0.601412
31
0.0
0
LINE
8
0
6
CONTINUOUS
10
0.209918
20
0.601412
30
0.0
11
0.208762
21
0.602248
31
0.0
0
LINE
8
0
6
CONTINUOUS
10
0.208762
20
0.602248
30
0.0
11
0.207788
21
0.602532
31
0.0
0
LINE
8
0
6
CONTINUOUS
10
0.042091
20
0.562155
30
0.0
11
0.042142
21
0.557277
31
0.0
0
LINE
8
0
6
CONTINUOUS
10
0.043383
20
0.569885
30
0.0
11
0.042559
21
0.565989
31
0.0
0
LINE
8
0
6
CONTINUOUS
10
0.044198
20
0.572192
30
0.0
11
0.044140
21
0.572027
31
0.0
0
LINE
8
0
6
CONTINUOUS
10
0.044998
20
0.573372
30
0.0
11
0.044198
21
0.572192
31
0.0
0
LINE
8
0
6
CONTINUOUS
10
0.045816
20
0.573973
30
0.0
11
0.044998
21
0.573372
31
0.0
0
LINE
8
0
6
CONTINUOUS
10
0.215330
20
0.592702
30
0.0
11
0.213579
21
0.596144
31
0.0
0
LINE
8
0
6
CONTINUOUS
10
0.042559
20
0.565989
30
0.0
11
0.042091
21
0.562155
31
0.0
0
LINE
8
0
6
CONTINUOUS
10
0.092648
20
0.559054
30
0.0
11
0.111217
21
0.562328
31
0.0
0
LINE
8
0
6
CONTINUOUS
10
0.168884
20
0.572497
30
0.0
11
0.185542
21
0.575434
31
0.0
0
LINE
8
0
6
CONTINUOUS
10
0.218618
20
0.581266
30
0.0
11
0.218543
21
0.581696
31
0.0
0
LINE
8
0
6
CONTINUOUS
10
0.051613
20
0.551819
30
0.0
11
0.062080
21
0.553664
31
0.0
0
LINE
8
0
6
CONTINUOUS
10
0.111217
20
0.562328
30
0.0
11
0.130766
21
0.565775
31
0.0
0
LINE
8
0
6
CONTINUOUS
10
0.185542
20
0.575434
30
0.0
11
0.199452
21
0.577886
31
0.0
0
LINE
8
0
6
CONTINUOUS
10
0.130766
20
0.565775
30
0.0
11
0.150315
21
0.569222
31
0.0
0
LINE
8
0
6
CONTINUOUS
10
0.042837
20
0.550714
30
0.0
11
0.042912
21
0.550285
31
0.0
0
LINE
8
0
6
CONTINUOUS
10
0.075991
20
0.556117
30
0.0
11
0.092648
21
0.559054
31
0.0
0
LINE
8
0
6
CONTINUOUS
10
0.150315
20
0.569222
30
0.0
11
0.168884
21
0.572497
31
0.0
0
LINE
8
0
6
CONTINUOUS
10
0.082488
20
0.547080
30
0.0
11
0.097699
21
0.549762
31
0.0
0
LINE
8
0
6
CONTINUOUS
10
0.042980
20
0.549899
30
0.0
11
0.043061
21
0.549444
31
0.0
0
LINE
8
0
6
CONTINUOUS
10
0.092716
20
0.558668
30
0.0
11
0.076059
21
0.555731
31
0.0
0
LINE
8
0
6
CONTINUOUS
10
0.216484
20
0.580492
30
0.0
11
0.209987
21
0.579346
31
0.0
0
LINE
8
0
6
CONTINUOUS
10
0.076059
20
0.555731
30
0.0
11
0.062148
21
0.553278
31
0.0
0
LINE
8
0
6
CONTINUOUS
10
0.150383
20
0.568836
30
0.0
11
0.130834
21
0.565389
31
0.0
0
LINE
8
0
6
CONTINUOUS
10
0.209987
20
0.579346
30
0.0
11
0.199520
21
0.577500
31
0.0
0
LINE
8
0
6
CONTINUOUS
10
0.062148
20
0.553278
30
0.0
11
0.051681
21
0.551433
31
0.0
0
LINE
8
0
6
CONTINUOUS
10
0.130834
20
0.565389
30
0.0
11
0.111285
21
0.561942
31
0.0
0
LINE
8
0
6
CONTINUOUS
10
0.199520
20
0.577500
30
0.0
11
0.185610
21
0.575048
31
0.0
0
LINE
8
0
6
CONTINUOUS
10
0.111285
20
0.561942
30
0.0
11
0.092716
21
0.558668
31
0.0
0
LINE
8
0
6
CONTINUOUS
10
0.218767
20
0.580425
30
0.0
11
0.218686
21
0.580880
31
0.0
0
LINE
8
0
6
CONTINUOUS
10
0.218686
20
0.580880
30
0.0
11
0.216484
21
0.580492
31
0.0
0
LINE
8
0
6
CONTINUOUS
10
0.150359
20
0.559047
30
0.0
11
0.167316
21
0.562037
31
0.0
0
LINE
8
0
6
CONTINUOUS
10
0.204788
20
0.568644
30
0.0
11
0.210721
21
0.569690
31
0.0
0
LINE
8
0
6
CONTINUOUS
10
0.069785
20
0.544840
30
0.0
11
0.082488
21
0.547080
31
0.0
0
LINE
8
0
6
CONTINUOUS
10
0.132508
20
0.555899
30
0.0
11
0.150359
21
0.559047
31
0.0
0
LINE
8
0
6
CONTINUOUS
10
0.195230
20
0.566959
30
0.0
11
0.204788
21
0.568644
31
0.0
0
LINE
8
0
6
CONTINUOUS
10
0.060227
20
0.543154
30
0.0
11
0.069785
21
0.544840
31
0.0
0
LINE
8
0
6
CONTINUOUS
10
0.114656
20
0.552752
30
0.0
11
0.132508
21
0.555899
31
0.0
0
LINE
8
0
6
CONTINUOUS
10
0.182527
20
0.564719
30
0.0
11
0.195228
21
0.566958
31
0.0
0
LINE
8
0
6
CONTINUOUS
10
0.054293
20
0.542108
30
0.0
11
0.060227
21
0.543154
31
0.0
0
LINE
8
0
6
CONTINUOUS
10
0.097699
20
0.549762
30
0.0
11
0.114643
21
0.552749
31
0.0
0
LINE
8
0
6
CONTINUOUS
10
0.167316
20
0.562037
30
0.0
11
0.182527
21
0.564719
31
0.0
0
LINE
8
0
6
CONTINUOUS
10
0.212732
20
0.570045
30
0.0
11
0.215030
21
0.571947
31
0.0
0
LINE
8
0
6
CONTINUOUS
10
0.210721
20
0.569690
30
0.0
11
0.212732
21
0.570045
31
0.0
0
LINE
8
0
6
CONTINUOUS
10
0.043061
20
0.549444
30
0.0
11
0.043629
21
0.547869
31
0.0
0
LINE
8
0
6
CONTINUOUS
10
0.043629
20
0.547869
30
0.0
11
0.044453
21
0.546337
31
0.0
0
LINE
8
0
6
CONTINUOUS
10
0.045520
20
0.545083
30
0.0
11
0.046842
21
0.544075
31
0.0
0
LINE
8
0
6
CONTINUOUS
10
0.046842
20
0.544075
30
0.0
11
0.049472
21
0.542755
31
0.0
0
LINE
8
0
6
CONTINUOUS
10
0.218771
20
0.578751
30
0.0
11
0.218767
21
0.580425
31
0.0
0
LINE
8
0
6
CONTINUOUS
10
0.218520
20
0.577029
30
0.0
11
0.218771
21
0.578751
31
0.0
0
LINE
8
0
6
CONTINUOUS
10
0.217049
20
0.574087
30
0.0
11
0.217947
21
0.575486
31
0.0
0
LINE
8
0
6
CONTINUOUS
10
0.215030
20
0.571947
30
0.0
11
0.217049
21
0.574087
31
0.0
0
LINE
8
0
6
CONTINUOUS
10
0.044453
20
0.546337
30
0.0
11
0.045520
21
0.545083
31
0.0
0
LINE
8
0
6
CONTINUOUS
10
0.217947
20
0.575486
30
0.0
11
0.218520
21
0.577029
31
0.0
0
LINE
8
0
6
CONTINUOUS
10
0.062080
20
0.553664
30
0.0
11
0.062191
21
0.553684
31
0.0
0
LINE
8
0
6
CONTINUOUS
10
0.076079
20
0.556133
30
0.0
11
0.075991
21
0.556117
31
0.0
0
LINE
8
0
6
CONTINUOUS
10
0.185610
20
0.575048
30
0.0
11
0.185531
21
0.575034
31
0.0
0
LINE
8
0
6
CONTINUOUS
10
0.207788
20
0.602532
30
0.0
11
0.207397
21
0.602494
31
0.0
0
LINE
8
0
6
CONTINUOUS
10
0.046197
20
0.574070
30
0.0
11
0.045816
21
0.573973
31
0.0
0
LINE
8
0
6
CONTINUOUS
10
0.117356
20
0.594778
30
0.0
11
0.117278
21
0.594639
31
0.0
0
LINE
8
0
6
CONTINUOUS
10
0.135831
20
0.602154
30
0.0
11
0.135948
21
0.602377
31
0.0
0
LINE
8
0
6
CONTINUOUS
10
0.113377
20
0.598397
30
0.0
11
0.113564
21
0.598227
31
0.0
0
LINE
8
0
6
CONTINUOUS
10
0.119913
20
0.612637
30
0.0
11
0.117528
21
0.612216
31
0.0
0
LINE
8
0
6
CONTINUOUS
10
0.133710
20
0.615069
30
0.0
11
0.133427
21
0.615020
31
0.0
0
LINE
8
0
6
CONTINUOUS
10
0.133774
20
0.614705
30
0.0
11
0.133710
21
0.615069
31
0.0
0
LINE
8
0
6
CONTINUOUS
10
0.111139
20
0.611090
30
0.0
11
0.111203
21
0.610725
31
0.0
0
LINE
8
0
6
CONTINUOUS
10
0.127321
20
0.613943
30
0.0
11
0.124936
21
0.613522
31
0.0
0
LINE
8
0
6
CONTINUOUS
10
0.133427
20
0.615020
30
0.0
11
0.132592
21
0.614872
31
0.0
0
LINE
8
0
6
CONTINUOUS
10
0.124936
20
0.613522
30
0.0
11
0.122425
21
0.613080
31
0.0
0
LINE
8
0
6
CONTINUOUS
10
0.113601
20
0.611524
30
0.0
11
0.112257
21
0.611287
31
0.0
0
LINE
8
0
6
CONTINUOUS
10
0.122425
20
0.613080
30
0.0
11
0.119913
21
0.612637
31
0.0
0
LINE
8
0
6
CONTINUOUS
10
0.135948
20
0.602377
30
0.0
11
0.135911
21
0.602585
31
0.0
0
LINE
8
0
6
CONTINUOUS
10
0.113340
20
0.598605
30
0.0
11
0.113377
21
0.598397
31
0.0
0
LINE
8
0
6
CONTINUOUS
10
0.136707
20
0.595499
30
0.0
11
0.135985
21
0.595427
31
0.0
0
LINE
8
0
6
CONTINUOUS
10
0.115719
20
0.591854
30
0.0
11
0.115016
21
0.591674
31
0.0
0
LINE
8
0
6
CONTINUOUS
10
0.207397
20
0.602494
30
0.0
11
0.136707
21
0.595499
31
0.0
0
LINE
8
0
6
CONTINUOUS
10
0.115016
20
0.591674
30
0.0
11
0.046197
21
0.574070
31
0.0
0
LINE
8
0
6
CONTINUOUS
10
0.211473
20
0.599524
30
0.0
11
0.210028
21
0.601278
31
0.0
0
LINE
8
0
6
CONTINUOUS
10
0.044140
20
0.572027
30
0.0
11
0.043383
21
0.569885
31
0.0
0
LINE
8
0
6
CONTINUOUS
10
0.135911
20
0.602585
30
0.0
11
0.133774
21
0.614705
31
0.0
0
LINE
8
0
6
CONTINUOUS
10
0.111203
20
0.610725
30
0.0
11
0.113340
21
0.598605
31
0.0
0
LINE
8
0
6
CONTINUOUS
10
0.133532
20
0.597777
30
0.0
11
0.135831
21
0.602154
31
0.0
0
LINE
8
0
6
CONTINUOUS
10
0.113564
20
0.598227
30
0.0
11
0.117221
21
0.594901
31
0.0
0
LINE
8
0
6
CONTINUOUS
10
0.135985
20
0.595427
30
0.0
11
0.135854
21
0.595541
31
0.0
0
LINE
8
0
6
CONTINUOUS
10
0.115804
20
0.592006
30
0.0
11
0.115719
21
0.591854
31
0.0
0
LINE
8
0
6
CONTINUOUS
10
0.135854
20
0.595541
30
0.0
11
0.133568
21
0.597511
31
0.0
0
LINE
8
0
6
CONTINUOUS
10
0.117278
20
0.594639
30
0.0
11
0.115804
21
0.592006
31
0.0
0
LINE
8
0
6
CONTINUOUS
10
0.133447
20
0.597615
30
0.0
11
0.133532
21
0.597777
31
0.0
0
LINE
8
0
6
CONTINUOUS
10
0.117221
20
0.594901
30
0.0
11
0.117356
21
0.594778
31
0.0
0
LINE
8
0
6
CONTINUOUS
10
0.052281
20
0.541753
30
0.0
11
0.054293
21
0.542108
31
0.0
0
LINE
8
0
6
CONTINUOUS
10
0.049472
20
0.542755
30
0.0
11
0.052281
21
0.541753
31
0.0
0
LINE
8
0
6
CONTINUOUS
10
0.043697
20
0.550423
30
0.0
11
0.043765
21
0.550037
31
0.0
0
LINE
8
0
6
CONTINUOUS
10
0.217902
20
0.580742
30
0.0
11
0.217834
21
0.581128
31
0.0
0
LINE
8
0
6
CONTINUOUS
10
-0.022209
20
0.301358
30
0.0
11
-0.021834
21
0.301577
31
0.0
0
LINE
8
0
6
CONTINUOUS
10
-0.018951
20
0.303603
30
0.0
11
-0.018751
21
0.303713
31
0.0
0
LINE
8
0
6
CONTINUOUS
10
-0.014315
20
0.306820
30
0.0
11
-0.014148
21
0.306909
31
0.0
0
LINE
8
0
6
CONTINUOUS
10
-0.012771
20
0.307473
30
0.0
11
-0.012083
21
0.307861
31
0.0
0
LINE
8
0
6
CONTINUOUS
10
-0.012771
20
0.307473
30
0.0
11
-0.013877
21
0.306761
31
0.0
0
LINE
8
0
6
CONTINUOUS
10
-0.007640
20
0.311071
30
0.0
11
-0.006951
21
0.311458
31
0.0
0
LINE
8
0
6
CONTINUOUS
10
0.005744
20
0.320447
30
0.0
11
0.006322
21
0.320776
31
0.0
0
LINE
8
0
6
CONTINUOUS
10
0.005744
20
0.320447
30
0.0
11
0.006322
21
0.320776
31
0.0
0
LINE
8
0
6
CONTINUOUS
10
0.027818
20
0.335963
30
0.0
11
0.027032
21
0.335316
31
0.0
0
LINE
8
0
6
CONTINUOUS
10
0.030705
20
0.338072
30
0.0
11
0.029732
21
0.337297
31
0.0
0
LINE
8
0
6
CONTINUOUS
10
0.127919
20
0.549354
30
0.0
11
0.128124
21
0.549381
31
0.0
0
LINE
8
0
6
CONTINUOUS
10
0.127246
20
0.549275
30
0.0
11
0.127919
21
0.549354
31
0.0
0
LINE
8
0
6
CONTINUOUS
10
0.127246
20
0.549275
30
0.0
11
0.125696
21
0.549042
31
0.0
0
LINE
8
0
6
CONTINUOUS
10
0.141848
20
0.551900
30
0.0
11
0.140971
21
0.551732
31
0.0
0
LINE
8
0
6
CONTINUOUS
10
0.119063
20
0.548096
30
0.0
11
0.119942
21
0.548201
31
0.0
0
LINE
8
0
6
CONTINUOUS
10
0.108637
20
0.546627
30
0.0
11
0.107384
21
0.546427
31
0.0
0
LINE
8
0
6
CONTINUOUS
10
0.116128
20
0.547899
30
0.0
11
0.116586
21
0.547918
31
0.0
0
LINE
8
0
6
CONTINUOUS
10
0.125202
20
0.549220
30
0.0
11
0.125661
21
0.549232
31
0.0
0
LINE
8
0
6
CONTINUOUS
10
0.141853
20
0.552155
30
0.0
11
0.141442
21
0.552068
31
0.0
0
LINE
8
0
6
CONTINUOUS
10
0.149083
20
0.553434
30
0.0
11
0.147251
21
0.553039
31
0.0
0
LINE
8
0
6
CONTINUOUS
10
0.150453
20
0.553711
30
0.0
11
0.149083
21
0.553434
31
0.0
0
LINE
8
0
6
CONTINUOUS
10
0.100021
20
0.545698
30
0.0
11
0.098762
21
0.545526
31
0.0
0
LINE
8
0
6
CONTINUOUS
10
0.107508
20
0.546798
30
0.0
11
0.107766
21
0.546777
31
0.0
0
LINE
8
0
6
CONTINUOUS
10
0.098822
20
0.546017
30
0.0
11
0.099291
21
0.545979
31
0.0
0
LINE
8
0
6
CONTINUOUS
10
0.105658
20
0.547256
30
0.0
11
0.106131
21
0.547194
31
0.0
0
LINE
8
0
6
CONTINUOUS
10
0.107296
20
0.546826
30
0.0
11
0.107508
21
0.546798
31
0.0
0
LINE
8
0
6
CONTINUOUS
10
0.107296
20
0.546826
30
0.0
11
0.106219
21
0.546716
31
0.0
0
LINE
8
0
6
CONTINUOUS
10
0.131466
20
0.551189
30
0.0
11
0.131334
21
0.551157
31
0.0
0
LINE
8
0
6
CONTINUOUS
10
0.142223
20
0.553069
30
0.0
11
0.142072
21
0.553031
31
0.0
0
LINE
8
0
6
CONTINUOUS
10
0.152135
20
0.554812
30
0.0
11
0.151535
21
0.554656
31
0.0
0
LINE
8
0
6
CONTINUOUS
10
0.160797
20
0.556371
30
0.0
11
0.159300
21
0.555969
31
0.0
0
LINE
8
0
6
CONTINUOUS
10
0.167538
20
0.557654
30
0.0
11
0.165712
21
0.557220
31
0.0
0
LINE
8
0
6
CONTINUOUS
10
0.075544
20
0.543632
30
0.0
11
0.074284
21
0.543468
31
0.0
0
LINE
8
0
6
CONTINUOUS
10
0.090578
20
0.545277
30
0.0
11
0.091051
21
0.545218
31
0.0
0
LINE
8
0
6
CONTINUOUS
10
0.096821
20
0.546425
30
0.0
11
0.097298
21
0.546338
31
0.0
0
LINE
8
0
6
CONTINUOUS
10
0.095360
20
0.546981
30
0.0
11
0.095837
21
0.546894
31
0.0
0
LINE
8
0
6
CONTINUOUS
10
0.104722
20
0.547867
30
0.0
11
0.104566
21
0.547851
31
0.0
0
LINE
8
0
6
CONTINUOUS
10
0.131071
20
0.553342
30
0.0
11
0.130941
21
0.553309
31
0.0
0
LINE
8
0
6
CONTINUOUS
10
0.152238
20
0.556241
30
0.0
11
0.152137
21
0.556215
31
0.0
0
LINE
8
0
6
CONTINUOUS
10
0.161927
20
0.557959
30
0.0
11
0.161409
21
0.557817
31
0.0
0
LINE
8
0
6
CONTINUOUS
10
0.177933
20
0.560885
30
0.0
11
0.177320
21
0.560745
31
0.0
0
LINE
8
0
6
CONTINUOUS
10
0.186183
20
0.563134
30
0.0
11
0.185306
21
0.562934
31
0.0
0
LINE
8
0
6
CONTINUOUS
10
0.183456
20
0.561915
30
0.0
11
0.182976
21
0.561795
31
0.0
0
LINE
8
0
6
CONTINUOUS
10
0.063892
20
0.542534
30
0.0
11
0.062616
21
0.542455
31
0.0
0
LINE
8
0
6
CONTINUOUS
10
0.064767
20
0.542730
30
0.0
11
0.063492
21
0.542652
31
0.0
0
LINE
8
0
6
CONTINUOUS
10
0.069559
20
0.543334
30
0.0
11
0.070465
21
0.543289
31
0.0
0
LINE
8
0
6
CONTINUOUS
10
0.067389
20
0.543241
30
0.0
11
0.066124
21
0.543103
31
0.0
0
LINE
8
0
6
CONTINUOUS
10
0.079442
20
0.545071
30
0.0
11
0.079925
21
0.544949
31
0.0
0
LINE
8
0
6
CONTINUOUS
10
0.077363
20
0.544993
30
0.0
11
0.075768
21
0.544793
31
0.0
0
LINE
8
0
6
CONTINUOUS
10
0.071849
20
0.543998
30
0.0
11
0.070254
21
0.543798
31
0.0
0
LINE
8
0
6
CONTINUOUS
10
0.084286
20
0.546307
30
0.0
11
0.082703
21
0.546043
31
0.0
0
LINE
8
0
6
CONTINUOUS
10
0.094408
20
0.547867
30
0.0
11
0.092340
21
0.547730
31
0.0
0
LINE
8
0
6
CONTINUOUS
10
0.092340
20
0.547730
30
0.0
11
0.090769
21
0.547402
31
0.0
0
LINE
8
0
6
CONTINUOUS
10
0.101605
20
0.549305
30
0.0
11
0.100033
21
0.548976
31
0.0
0
LINE
8
0
6
CONTINUOUS
10
0.103669
20
0.549461
30
0.0
11
0.102784
21
0.549383
31
0.0
0
LINE
8
0
6
CONTINUOUS
10
0.111391
20
0.551107
30
0.0
11
0.109831
21
0.550717
31
0.0
0
LINE
8
0
6
CONTINUOUS
10
0.123724
20
0.553149
30
0.0
11
0.121675
21
0.552910
31
0.0
0
LINE
8
0
6
CONTINUOUS
10
0.132706
20
0.554773
30
0.0
11
0.132446
21
0.554743
31
0.0
0
LINE
8
0
6
CONTINUOUS
10
0.132446
20
0.554743
30
0.0
11
0.130896
21
0.554296
31
0.0
0
LINE
8
0
6
CONTINUOUS
10
0.143511
20
0.556748
30
0.0
11
0.141711
21
0.556255
31
0.0
0
LINE
8
0
6
CONTINUOUS
10
0.145376
20
0.556958
30
0.0
11
0.143511
21
0.556748
31
0.0
0
LINE
8
0
6
CONTINUOUS
10
0.134485
20
0.555035
30
0.0
11
0.134982
21
0.554841
31
0.0
0
LINE
8
0
6
CONTINUOUS
10
0.134485
20
0.555035
30
0.0
11
0.132706
21
0.554773
31
0.0
0
LINE
8
0
6
CONTINUOUS
10
0.155715
20
0.558847
30
0.0
11
0.153861
21
0.558576
31
0.0
0
LINE
8
0
6
CONTINUOUS
10
0.162470
20
0.559840
30
0.0
11
0.162182
21
0.559753
31
0.0
0
LINE
8
0
6
CONTINUOUS
10
0.165827
20
0.560664
30
0.0
11
0.163984
21
0.560328
31
0.0
0
LINE
8
0
6
CONTINUOUS
10
0.174752
20
0.562241
30
0.0
11
0.172909
21
0.561905
31
0.0
0
LINE
8
0
6
CONTINUOUS
10
0.182654
20
0.563643
30
0.0
11
0.180821
21
0.563243
31
0.0
0
LINE
8
0
6
CONTINUOUS
10
0.189680
20
0.564897
30
0.0
11
0.187858
21
0.564437
31
0.0
0
LINE
8
0
6
CONTINUOUS
10
0.195145
20
0.565835
30
0.0
11
0.193323
21
0.565375
31
0.0
0
LINE
8
0
6
CONTINUOUS
10
0.199148
20
0.566560
30
0.0
11
0.197335
21
0.566046
31
0.0
0
LINE
8
0
6
CONTINUOUS
10
0.202641
20
0.567130
30
0.0
11
0.201759
21
0.566862
31
0.0
0
LINE
8
0
6
CONTINUOUS
10
0.007080
20
0.320854
30
0.0
11
0.006510
21
0.320326
31
0.0
0
LINE
8
0
6
CONTINUOUS
10
0.010630
20
0.322430
30
0.0
11
0.009791
21
0.321784
31
0.0
0
LINE
8
0
6
CONTINUOUS
10
-0.034696
20
0.296475
30
0.0
11
-0.036679
21
0.296997
31
0.0
0
LINE
8
0
6
CONTINUOUS
10
-0.036679
20
0.296997
30
0.0
11
-0.038884
21
0.298230
31
0.0
0
LINE
8
0
6
CONTINUOUS
10
-0.038884
20
0.298230
30
0.0
11
-0.040095
21
0.299327
31
0.0
0
LINE
8
0
6
CONTINUOUS
10
-0.033420
20
0.296429
30
0.0
11
-0.034696
21
0.296475
31
0.0
0
LINE
8
0
6
CONTINUOUS
10
-0.032645
20
0.296402
30
0.0
11
-0.033420
21
0.296429
31
0.0
0
LINE
8
0
6
CONTINUOUS
10
0.032451
20
0.339758
30
0.0
11
0.031764
21
0.339163
31
0.0
0
LINE
8
0
6
CONTINUOUS
10
-0.010098
20
0.309959
30
0.0
11
-0.010163
21
0.309909
31
0.0
0
LINE
8
0
6
CONTINUOUS
10
-0.002494
20
0.315192
30
0.0
11
-0.001947
21
0.315453
31
0.0
0
LINE
8
0
6
CONTINUOUS
10
0.004114
20
0.319860
30
0.0
11
0.003026
21
0.319108
31
0.0
0
LINE
8
0
6
CONTINUOUS
10
0.028302
20
0.336799
30
0.0
11
0.027808
21
0.336355
31
0.0
0
LINE
8
0
6
CONTINUOUS
10
0.029333
20
0.337600
30
0.0
11
0.029701
21
0.337815
31
0.0
0
LINE
8
0
6
CONTINUOUS
10
-0.024386
20
0.299923
30
0.0
11
-0.025531
21
0.299266
31
0.0
0
LINE
8
0
6
CONTINUOUS
10
-0.022523
20
0.301190
30
0.0
11
-0.023663
21
0.300526
31
0.0
0
LINE
8
0
6
CONTINUOUS
10
-0.019290
20
0.303440
30
0.0
11
-0.020432
21
0.302769
31
0.0
0
LINE
8
0
6
CONTINUOUS
10
-0.014695
20
0.306648
30
0.0
11
-0.014315
21
0.306820
31
0.0
0
LINE
8
0
6
CONTINUOUS
10
-0.014695
20
0.306648
30
0.0
11
-0.015830
21
0.305965
31
0.0
0
LINE
8
0
6
CONTINUOUS
10
0.010304
20
0.324212
30
0.0
11
0.009666
21
0.323655
31
0.0
0
LINE
8
0
6
CONTINUOUS
10
0.011375
20
0.324956
30
0.0
11
0.011808
21
0.325143
31
0.0
0
LINE
8
0
6
CONTINUOUS
10
0.016994
20
0.328879
30
0.0
11
0.016361
21
0.328314
31
0.0
0
LINE
8
0
6
CONTINUOUS
10
0.023153
20
0.333189
30
0.0
11
0.022539
21
0.332633
31
0.0
0
LINE
8
0
6
CONTINUOUS
10
0.035686
20
0.342129
30
0.0
11
0.034952
21
0.341517
31
0.0
0
LINE
8
0
6
CONTINUOUS
10
0.035686
20
0.342129
30
0.0
11
0.035816
21
0.342216
31
0.0
0
LINE
8
0
6
CONTINUOUS
10
-0.003724
20
0.312619
30
0.0
11
-0.002922
21
0.313124
31
0.0
0
LINE
8
0
6
CONTINUOUS
10
-0.004736
20
0.312541
30
0.0
11
-0.003919
21
0.312973
31
0.0
0
LINE
8
0
6
CONTINUOUS
10
0.007080
20
0.320854
30
0.0
11
0.006510
21
0.320326
31
0.0
0
LINE
8
0
6
CONTINUOUS
10
0.013821
20
0.325546
30
0.0
11
0.013256
21
0.325011
31
0.0
0
LINE
8
0
6
CONTINUOUS
10
0.020550
20
0.330355
30
0.0
11
0.019337
21
0.329400
31
0.0
0
LINE
8
0
6
CONTINUOUS
10
0.023349
20
0.332231
30
0.0
11
0.022443
21
0.331463
31
0.0
0
LINE
8
0
6
CONTINUOUS
10
-0.177528
20
-0.450841
30
0.0
11
-0.177512
21
-0.450771
31
0.0
0
LINE
8
0
6
CONTINUOUS
10
-0.177512
20
-0.450771
30
0.0
11
-0.177476
21
-0.450621
31
0.0
0
LINE
8
0
6
CONTINUOUS
10
-0.177476
20
-0.450621
30
0.0
11
-0.177131
21
-0.449138
31
0.0
0
LINE
8
0
6
CONTINUOUS
10
-0.151510
20
-0.425160
30
0.0
11
-0.150912
21
-0.425157
31
0.0
0
LINE
8
0
6
CONTINUOUS
10
0.110918
20
0.626287
30
0.0
11
0.108937
21
0.631445
31
0.0
0
LINE
8
0
6
CONTINUOUS
10
0.108937
20
0.631445
30
0.0
11
0.105408
21
0.634852
31
0.0
0
LINE
8
0
6
CONTINUOUS
10
0.108671
20
0.616346
30
0.0
11
0.108438
21
0.616209
31
0.0
0
LINE
8
0
6
CONTINUOUS
10
0.108438
20
0.616209
30
0.0
11
0.108150
21
0.614777
31
0.0
0
LINE
8
0
6
CONTINUOUS
10
0.105408
20
0.634852
30
0.0
11
0.105142
21
0.634900
31
0.0
0
LINE
8
0
6
CONTINUOUS
10
0.105142
20
0.634900
30
0.0
11
0.104382
21
0.636146
31
0.0
0
LINE
8
0
6
CONTINUOUS
10
0.108671
20
0.616346
30
0.0
11
0.110821
21
0.620760
31
0.0
0
ENDSEC
0
EOF
