999
unknown String-ID: 20550
0
SECTION
2
HEADER
9
$ACADVER
1
AC1009
9
$DWGCODEPAGE
3
unknown String-ID: 20561
0
ENDSEC
0
SECTION
2
TABLES
0
TABLE
2
LAYER
70
1
0
LAYER
2
0
70
0
62
7
6
CONTINUOUS
0
ENDTAB
0
ENDSEC
0
SECTION
2
ENTITIES
0
LINE
8
0
6
CONTINUOUS
10
-0.004765
20
0.049673
30
0.0
11
-0.009008
21
0.048394
31
0.0
0
LINE
8
0
6
CONTINUOUS
10
-0.000368
20
0.050173
30
0.0
11
-0.004765
21
0.049673
31
0.0
0
LINE
8
0
6
CONTINUOUS
10
-0.009008
20
0.048394
30
0.0
11
-0.012809
21
0.046176
31
0.0
0
LINE
8
0
6
CONTINUOUS
10
-0.012809
20
0.046176
30
0.0
11
-0.014477
21
0.042550
31
0.0
0
LINE
8
0
6
CONTINUOUS
10
-0.014987
20
0.033943
30
0.0
11
-0.014986
21
0.033667
31
0.0
0
LINE
8
0
6
CONTINUOUS
10
-0.014942
20
0.034705
30
0.0
11
-0.014987
21
0.033943
31
0.0
0
LINE
8
0
6
CONTINUOUS
10
-0.014521
20
0.041817
30
0.0
11
-0.014942
21
0.034705
31
0.0
0
LINE
8
0
6
CONTINUOUS
10
-0.014477
20
0.042550
30
0.0
11
-0.014521
21
0.041817
31
0.0
0
LINE
8
0
6
CONTINUOUS
10
-0.014986
20
0.033667
30
0.0
11
-0.014730
21
-0.004612
31
0.0
0
LINE
8
0
6
CONTINUOUS
10
0.008275
20
0.048413
30
0.0
11
0.004031
21
0.049683
31
0.0
0
LINE
8
0
6
CONTINUOUS
10
0.004031
20
0.049683
30
0.0
11
-0.000368
21
0.050173
31
0.0
0
LINE
8
0
6
CONTINUOUS
10
0.012080
20
0.046204
30
0.0
11
0.008275
21
0.048413
31
0.0
0
LINE
8
0
6
CONTINUOUS
10
0.013753
20
0.042581
30
0.0
11
0.012080
21
0.046204
31
0.0
0
LINE
8
0
6
CONTINUOUS
10
0.014275
20
0.033976
30
0.0
11
0.014229
21
0.034738
31
0.0
0
LINE
8
0
6
CONTINUOUS
10
0.014276
20
0.033700
30
0.0
11
0.014275
21
0.033976
31
0.0
0
LINE
8
0
6
CONTINUOUS
10
0.014229
20
0.034738
30
0.0
11
0.013797
21
0.041849
31
0.0
0
LINE
8
0
6
CONTINUOUS
10
0.013797
20
0.041849
30
0.0
11
0.013753
21
0.042581
31
0.0
0
LINE
8
0
6
CONTINUOUS
10
0.014450
20
-0.004556
30
0.0
11
0.014276
21
0.033700
31
0.0
0
LINE
8
0
6
CONTINUOUS
10
0.050019
20
-0.047079
30
0.0
11
0.049765
21
-0.041772
31
0.0
0
LINE
8
0
6
CONTINUOUS
10
-0.049315
20
-0.039327
30
0.0
11
-0.049762
21
-0.041884
31
0.0
0
LINE
8
0
6
CONTINUOUS
10
0.049765
20
-0.041772
30
0.0
11
0.049319
21
-0.039216
31
0.0
0
LINE
8
0
6
CONTINUOUS
10
0.047445
20
-0.029874
30
0.0
11
0.046633
21
-0.027470
31
0.0
0
LINE
8
0
6
CONTINUOUS
10
0.042202
20
-0.019532
30
0.0
11
0.036598
21
-0.013965
31
0.0
0
LINE
8
0
6
CONTINUOUS
10
0.036598
20
-0.013965
30
0.0
11
0.029160
21
-0.009319
31
0.0
0
LINE
8
0
6
CONTINUOUS
10
0.029160
20
-0.009319
30
0.0
11
0.020259
21
-0.005827
31
0.0
0
LINE
8
0
6
CONTINUOUS
10
0.020259
20
-0.005827
30
0.0
11
0.020219
21
-0.005814
31
0.0
0
LINE
8
0
6
CONTINUOUS
10
0.020219
20
-0.005814
30
0.0
11
0.010323
21
-0.003656
31
0.0
0
LINE
8
0
6
CONTINUOUS
10
0.010323
20
-0.003656
30
0.0
11
0.010173
21
-0.003627
31
0.0
0
LINE
8
0
6
CONTINUOUS
10
0.010173
20
-0.003627
30
0.0
11
-0.000090
21
-0.002914
31
0.0
0
LINE
8
0
6
CONTINUOUS
10
-0.000090
20
-0.002914
30
0.0
11
-0.010348
21
-0.003651
31
0.0
0
LINE
8
0
6
CONTINUOUS
10
-0.010500
20
-0.003679
30
0.0
11
-0.020383
21
-0.005860
31
0.0
0
LINE
8
0
6
CONTINUOUS
10
-0.010348
20
-0.003651
30
0.0
11
-0.010500
21
-0.003679
31
0.0
0
LINE
8
0
6
CONTINUOUS
10
-0.020423
20
-0.005873
30
0.0
11
-0.029301
21
-0.009385
31
0.0
0
LINE
8
0
6
CONTINUOUS
10
-0.020383
20
-0.005860
30
0.0
11
-0.020423
21
-0.005873
31
0.0
0
LINE
8
0
6
CONTINUOUS
10
-0.029301
20
-0.009385
30
0.0
11
-0.036709
21
-0.014048
31
0.0
0
LINE
8
0
6
CONTINUOUS
10
-0.036709
20
-0.014048
30
0.0
11
-0.042277
21
-0.019627
31
0.0
0
LINE
8
0
6
CONTINUOUS
10
-0.046670
20
-0.027574
30
0.0
11
-0.047484
21
-0.029981
31
0.0
0
LINE
8
0
6
CONTINUOUS
10
-0.049762
20
-0.041884
30
0.0
11
-0.050019
21
-0.047192
31
0.0
0
LINE
8
0
6
CONTINUOUS
10
0.049319
20
-0.039216
30
0.0
11
0.048060
21
-0.032337
31
0.0
0
LINE
8
0
6
CONTINUOUS
10
0.048060
20
-0.032337
30
0.0
11
0.047445
21
-0.029874
31
0.0
0
LINE
8
0
6
CONTINUOUS
10
-0.048101
20
-0.032445
30
0.0
11
-0.049315
21
-0.039327
31
0.0
0
LINE
8
0
6
CONTINUOUS
10
-0.047484
20
-0.029981
30
0.0
11
-0.048101
21
-0.032445
31
0.0
0
LINE
8
0
6
CONTINUOUS
10
-0.045021
20
-0.060984
30
0.0
11
-0.039043
21
-0.066923
31
0.0
0
LINE
8
0
6
CONTINUOUS
10
-0.011031
20
-0.077913
30
0.0
11
0.000102
21
-0.078687
31
0.0
0
LINE
8
0
6
CONTINUOUS
10
0.031266
20
-0.071810
30
0.0
11
0.039170
21
-0.066835
31
0.0
0
LINE
8
0
6
CONTINUOUS
10
0.021794
20
-0.075557
30
0.0
11
0.031266
21
-0.071810
31
0.0
0
LINE
8
0
6
CONTINUOUS
10
-0.048742
20
-0.054359
30
0.0
11
-0.045021
21
-0.060984
31
0.0
0
LINE
8
0
6
CONTINUOUS
10
-0.050019
20
-0.047382
30
0.0
11
-0.048742
21
-0.054359
31
0.0
0
LINE
8
0
6
CONTINUOUS
10
-0.050019
20
-0.047192
30
0.0
11
-0.050019
21
-0.047382
31
0.0
0
LINE
8
0
6
CONTINUOUS
10
0.050019
20
-0.047270
30
0.0
11
0.050019
21
-0.047079
31
0.0
0
LINE
8
0
6
CONTINUOUS
10
0.048788
20
-0.054250
30
0.0
11
0.050019
21
-0.047270
31
0.0
0
LINE
8
0
6
CONTINUOUS
10
-0.021611
20
-0.075606
30
0.0
11
-0.011031
21
-0.077913
31
0.0
0
LINE
8
0
6
CONTINUOUS
10
0.045110
20
-0.060883
30
0.0
11
0.048788
21
-0.054250
31
0.0
0
LINE
8
0
6
CONTINUOUS
10
-0.031107
20
-0.071880
30
0.0
11
-0.021611
21
-0.075606
31
0.0
0
LINE
8
0
6
CONTINUOUS
10
0.011230
20
-0.077888
30
0.0
11
0.021794
21
-0.075557
31
0.0
0
LINE
8
0
6
CONTINUOUS
10
0.000102
20
-0.078687
30
0.0
11
0.011230
21
-0.077888
31
0.0
0
LINE
8
0
6
CONTINUOUS
10
0.039170
20
-0.066835
30
0.0
11
0.045110
21
-0.060883
31
0.0
0
LINE
8
0
6
CONTINUOUS
10
-0.039043
20
-0.066923
30
0.0
11
-0.031107
21
-0.071880
31
0.0
0
LINE
8
0
6
CONTINUOUS
10
-0.050019
20
-0.048420
30
0.0
11
-0.048742
21
-0.055397
31
0.0
0
LINE
8
0
6
CONTINUOUS
10
-0.050019
20
-0.047651
30
0.0
11
-0.050019
21
-0.048420
31
0.0
0
LINE
8
0
6
CONTINUOUS
10
0.050019
20
-0.048308
30
0.0
11
0.050019
21
-0.047538
31
0.0
0
LINE
8
0
6
CONTINUOUS
10
0.048787
20
-0.055287
30
0.0
11
0.050019
21
-0.048308
31
0.0
0
LINE
8
0
6
CONTINUOUS
10
-0.036789
20
-0.071422
30
0.0
11
-0.029312
21
-0.076092
31
0.0
0
LINE
8
0
6
CONTINUOUS
10
-0.037822
20
-0.070721
30
0.0
11
-0.036789
21
-0.071422
31
0.0
0
LINE
8
0
6
CONTINUOUS
10
0.043697
20
-0.064869
30
0.0
11
0.044688
21
-0.063394
31
0.0
0
LINE
8
0
6
CONTINUOUS
10
0.037943
20
-0.070636
30
0.0
11
0.043697
21
-0.064869
31
0.0
0
LINE
8
0
6
CONTINUOUS
10
0.000095
20
-0.082506
30
0.0
11
0.010580
21
-0.081754
31
0.0
0
LINE
8
0
6
CONTINUOUS
10
0.010580
20
-0.081754
30
0.0
11
0.020534
21
-0.079557
31
0.0
0
LINE
8
0
6
CONTINUOUS
10
-0.029312
20
-0.076092
30
0.0
11
-0.020364
21
-0.079603
31
0.0
0
LINE
8
0
6
CONTINUOUS
10
0.048332
20
-0.056823
30
0.0
11
0.048787
21
-0.055287
31
0.0
0
LINE
8
0
6
CONTINUOUS
10
0.044688
20
-0.063394
30
0.0
11
0.048332
21
-0.056823
31
0.0
0
LINE
8
0
6
CONTINUOUS
10
0.020534
20
-0.079557
30
0.0
11
0.029459
21
-0.076026
31
0.0
0
LINE
8
0
6
CONTINUOUS
10
-0.048288
20
-0.056932
30
0.0
11
-0.044602
21
-0.063494
31
0.0
0
LINE
8
0
6
CONTINUOUS
10
-0.048742
20
-0.055397
30
0.0
11
-0.048288
21
-0.056932
31
0.0
0
LINE
8
0
6
CONTINUOUS
10
-0.020364
20
-0.079603
30
0.0
11
-0.010395
21
-0.081777
31
0.0
0
LINE
8
0
6
CONTINUOUS
10
0.036906
20
-0.071339
30
0.0
11
0.037943
21
-0.070636
31
0.0
0
LINE
8
0
6
CONTINUOUS
10
0.029459
20
-0.076026
30
0.0
11
0.036906
21
-0.071339
31
0.0
0
LINE
8
0
6
CONTINUOUS
10
-0.043614
20
-0.064967
30
0.0
11
-0.037822
21
-0.070721
31
0.0
0
LINE
8
0
6
CONTINUOUS
10
-0.044602
20
-0.063494
30
0.0
11
-0.043614
21
-0.064967
31
0.0
0
LINE
8
0
6
CONTINUOUS
10
-0.010395
20
-0.081777
30
0.0
11
0.000095
21
-0.082506
31
0.0
0
LINE
8
0
6
CONTINUOUS
10
0.050019
20
-0.047538
30
0.0
11
0.050019
21
-0.047441
31
0.0
0
LINE
8
0
6
CONTINUOUS
10
-0.050019
20
-0.047553
30
0.0
11
-0.050019
21
-0.047651
31
0.0
0
LINE
8
0
6
CONTINUOUS
10
0.050019
20
-0.047441
30
0.0
11
0.050004
21
-0.047357
31
0.0
0
LINE
8
0
6
CONTINUOUS
10
-0.050004
20
-0.047466
30
0.0
11
-0.050019
21
-0.047553
31
0.0
0
LINE
8
0
6
CONTINUOUS
10
0.046161
20
-0.026458
30
0.0
11
0.042638
21
-0.020185
31
0.0
0
LINE
8
0
6
CONTINUOUS
10
0.042638
20
-0.020185
30
0.0
11
0.042202
21
-0.019532
31
0.0
0
LINE
8
0
6
CONTINUOUS
10
-0.042714
20
-0.020281
30
0.0
11
-0.046197
21
-0.026562
31
0.0
0
LINE
8
0
6
CONTINUOUS
10
-0.042277
20
-0.019627
30
0.0
11
-0.042714
21
-0.020281
31
0.0
0
LINE
8
0
6
CONTINUOUS
10
-0.046197
20
-0.026562
30
0.0
11
-0.046670
21
-0.027574
31
0.0
0
LINE
8
0
6
CONTINUOUS
10
0.046633
20
-0.027470
30
0.0
11
0.046161
21
-0.026458
31
0.0
0
LINE
8
0
6
CONTINUOUS
10
0.014332
20
0.044183
30
0.0
11
0.014332
21
0.081648
31
0.0
0
LINE
8
0
6
CONTINUOUS
10
0.013773
20
0.082494
30
0.0
11
0.011832
21
0.082495
31
0.0
0
LINE
8
0
6
CONTINUOUS
10
0.014332
20
0.042362
30
0.0
11
0.014332
21
0.044183
31
0.0
0
LINE
8
0
6
CONTINUOUS
10
-0.000668
20
0.051986
30
0.0
11
0.002298
21
0.051410
31
0.0
0
LINE
8
0
6
CONTINUOUS
10
0.014307
20
0.038720
30
0.0
11
0.014339
21
0.040541
31
0.0
0
LINE
8
0
6
CONTINUOUS
10
0.005482
20
0.050301
30
0.0
11
0.008135
21
0.048462
31
0.0
0
LINE
8
0
6
CONTINUOUS
10
0.002298
20
0.051410
30
0.0
11
0.005482
21
0.050301
31
0.0
0
LINE
8
0
6
CONTINUOUS
10
0.013938
20
0.036934
30
0.0
11
0.014307
21
0.038720
31
0.0
0
LINE
8
0
6
CONTINUOUS
10
0.011832
20
0.082495
30
0.0
11
0.009332
21
0.082498
31
0.0
0
LINE
8
0
6
CONTINUOUS
10
0.009332
20
0.082498
30
0.0
11
0.006832
21
0.082500
31
0.0
0
LINE
8
0
6
CONTINUOUS
10
0.006832
20
0.082500
30
0.0
11
0.004332
21
0.082502
31
0.0
0
LINE
8
0
6
CONTINUOUS
10
0.004332
20
0.082502
30
0.0
11
0.001832
21
0.082504
31
0.0
0
LINE
8
0
6
CONTINUOUS
10
0.001832
20
0.082504
30
0.0
11
-0.000668
21
0.082506
31
0.0
0
LINE
8
0
6
CONTINUOUS
10
0.014332
20
0.082493
30
0.0
11
0.013773
21
0.082494
31
0.0
0
LINE
8
0
6
CONTINUOUS
10
0.014332
20
0.081648
30
0.0
11
0.014332
21
0.082493
31
0.0
0
LINE
8
0
6
CONTINUOUS
10
-0.015668
20
0.081648
30
0.0
11
-0.015668
21
0.044183
31
0.0
0
LINE
8
0
6
CONTINUOUS
10
-0.013168
20
0.082495
30
0.0
11
-0.015108
21
0.082494
31
0.0
0
LINE
8
0
6
CONTINUOUS
10
-0.015668
20
0.044183
30
0.0
11
-0.015668
21
0.042362
31
0.0
0
LINE
8
0
6
CONTINUOUS
10
-0.003634
20
0.051410
30
0.0
11
-0.000668
21
0.051986
31
0.0
0
LINE
8
0
6
CONTINUOUS
10
-0.015675
20
0.040541
30
0.0
11
-0.015643
21
0.038720
31
0.0
0
LINE
8
0
6
CONTINUOUS
10
-0.009471
20
0.048462
30
0.0
11
-0.006818
21
0.050301
31
0.0
0
LINE
8
0
6
CONTINUOUS
10
-0.006818
20
0.050301
30
0.0
11
-0.003634
21
0.051410
31
0.0
0
LINE
8
0
6
CONTINUOUS
10
-0.015643
20
0.038720
30
0.0
11
-0.015274
21
0.036934
31
0.0
0
LINE
8
0
6
CONTINUOUS
10
-0.015274
20
0.036934
30
0.0
11
-0.014575
21
0.035251
31
0.0
0
LINE
8
0
6
CONTINUOUS
10
-0.010668
20
0.082498
30
0.0
11
-0.013168
21
0.082495
31
0.0
0
LINE
8
0
6
CONTINUOUS
10
-0.008168
20
0.082500
30
0.0
11
-0.010668
21
0.082498
31
0.0
0
LINE
8
0
6
CONTINUOUS
10
-0.005668
20
0.082502
30
0.0
11
-0.008168
21
0.082500
31
0.0
0
LINE
8
0
6
CONTINUOUS
10
-0.003168
20
0.082504
30
0.0
11
-0.005668
21
0.082502
31
0.0
0
LINE
8
0
6
CONTINUOUS
10
-0.000668
20
0.082506
30
0.0
11
-0.003168
21
0.082504
31
0.0
0
LINE
8
0
6
CONTINUOUS
10
-0.015668
20
0.082493
30
0.0
11
-0.015668
21
0.081648
31
0.0
0
LINE
8
0
6
CONTINUOUS
10
-0.015108
20
0.082494
30
0.0
11
-0.015668
21
0.082493
31
0.0
0
ENDSEC
0
EOF
