999
unknown String-ID: 20550
0
SECTION
2
HEADER
9
$ACADVER
1
AC1009
9
$DWGCODEPAGE
3
unknown String-ID: 20561
0
ENDSEC
0
SECTION
2
TABLES
0
TABLE
2
LAYER
70
1
0
LAYER
2
0
70
0
62
7
6
CONTINUOUS
0
ENDTAB
0
ENDSEC
0
SECTION
2
ENTITIES
0
LINE
8
0
6
CONTINUOUS
10
-0.049740
20
0.011497
30
0.0
11
-0.051224
21
0.003759
31
0.0
0
LINE
8
0
6
CONTINUOUS
10
-0.035223
20
-0.020975
30
0.0
11
-0.026991
21
0.005842
31
0.0
0
LINE
8
0
6
CONTINUOUS
10
-0.049234
20
0.013533
30
0.0
11
-0.049257
21
0.013442
31
0.0
0
LINE
8
0
6
CONTINUOUS
10
-0.026508
20
0.007787
30
0.0
11
-0.026485
21
0.007878
31
0.0
0
LINE
8
0
6
CONTINUOUS
10
-0.049257
20
0.013442
30
0.0
11
-0.049740
21
0.011497
31
0.0
0
LINE
8
0
6
CONTINUOUS
10
-0.026991
20
0.005842
30
0.0
11
-0.026508
21
0.007787
31
0.0
0
LINE
8
0
6
CONTINUOUS
10
-0.035367
20
-0.021444
30
0.0
11
-0.035223
21
-0.020975
31
0.0
0
LINE
8
0
6
CONTINUOUS
10
0.009686
20
0.114190
30
0.0
11
0.015280
21
0.126648
31
0.0
0
LINE
8
0
6
CONTINUOUS
10
-0.049868
20
0.014530
30
0.0
11
-0.050173
21
0.013766
31
0.0
0
LINE
8
0
6
CONTINUOUS
10
0.000571
20
0.121023
30
0.0
11
-0.002477
21
0.123474
31
0.0
0
LINE
8
0
6
CONTINUOUS
10
0.007995
20
0.115030
30
0.0
11
0.007749
21
0.115228
31
0.0
0
LINE
8
0
6
CONTINUOUS
10
0.010868
20
0.109614
30
0.0
11
0.010998
21
0.109981
31
0.0
0
LINE
8
0
6
CONTINUOUS
10
0.003354
20
0.139706
30
0.0
11
-0.003996
21
0.125230
31
0.0
0
LINE
8
0
6
CONTINUOUS
10
-0.048394
20
0.013324
30
0.0
11
-0.046176
21
0.012773
31
0.0
0
LINE
8
0
6
CONTINUOUS
10
-0.046176
20
0.012773
30
0.0
11
-0.042550
21
0.011871
31
0.0
0
LINE
8
0
6
CONTINUOUS
10
-0.033943
20
0.009732
30
0.0
11
-0.030750
21
0.008938
31
0.0
0
LINE
8
0
6
CONTINUOUS
10
-0.030750
20
0.008938
30
0.0
11
-0.028567
21
0.008395
31
0.0
0
LINE
8
0
6
CONTINUOUS
10
-0.025548
20
0.007645
30
0.0
11
-0.025296
21
0.008353
31
0.0
0
LINE
8
0
6
CONTINUOUS
10
-0.004589
20
0.124931
30
0.0
11
-0.005797
21
0.125000
31
0.0
0
LINE
8
0
6
CONTINUOUS
10
-0.005797
20
0.125000
30
0.0
11
-0.006271
21
0.123812
31
0.0
0
LINE
8
0
6
CONTINUOUS
10
0.010998
20
0.109981
30
0.0
11
0.011417
21
0.111153
31
0.0
0
LINE
8
0
6
CONTINUOUS
10
0.010348
20
0.113080
30
0.0
11
0.010185
21
0.113226
31
0.0
0
LINE
8
0
6
CONTINUOUS
10
0.010542
20
0.112731
30
0.0
11
0.010348
21
0.113080
31
0.0
0
LINE
8
0
6
CONTINUOUS
10
-0.006271
20
0.123812
30
0.0
11
-0.006428
21
0.123419
31
0.0
0
LINE
8
0
6
CONTINUOUS
10
0.009496
20
0.113768
30
0.0
11
0.009686
21
0.114190
31
0.0
0
LINE
8
0
6
CONTINUOUS
10
-0.003996
20
0.125230
30
0.0
11
-0.004204
21
0.124821
31
0.0
0
LINE
8
0
6
CONTINUOUS
10
-0.041817
20
0.011689
30
0.0
11
-0.034705
21
0.009921
31
0.0
0
LINE
8
0
6
CONTINUOUS
10
-0.042550
20
0.011871
30
0.0
11
-0.041817
21
0.011689
31
0.0
0
LINE
8
0
6
CONTINUOUS
10
-0.028567
20
0.008395
30
0.0
11
-0.028344
21
0.008340
31
0.0
0
LINE
8
0
6
CONTINUOUS
10
-0.025296
20
0.008353
30
0.0
11
0.010868
21
0.109614
31
0.0
0
LINE
8
0
6
CONTINUOUS
10
-0.006428
20
0.123419
30
0.0
11
-0.049868
21
0.014530
31
0.0
0
LINE
8
0
6
CONTINUOUS
10
-0.004321
20
0.124915
30
0.0
11
-0.004589
21
0.124931
31
0.0
0
LINE
8
0
6
CONTINUOUS
10
-0.004068
20
0.124728
30
0.0
11
-0.004321
21
0.124915
31
0.0
0
LINE
8
0
6
CONTINUOUS
10
-0.003434
20
0.124232
30
0.0
11
-0.004068
21
0.124728
31
0.0
0
LINE
8
0
6
CONTINUOUS
10
-0.002477
20
0.123474
30
0.0
11
-0.003434
21
0.124232
31
0.0
0
LINE
8
0
6
CONTINUOUS
10
0.008978
20
0.114227
30
0.0
11
0.007995
21
0.115030
31
0.0
0
LINE
8
0
6
CONTINUOUS
10
0.009076
20
0.114147
30
0.0
11
0.008978
21
0.114227
31
0.0
0
LINE
8
0
6
CONTINUOUS
10
0.010185
20
0.113226
30
0.0
11
0.009696
21
0.113634
31
0.0
0
LINE
8
0
6
CONTINUOUS
10
0.011417
20
0.111153
30
0.0
11
0.010542
21
0.112731
31
0.0
0
LINE
8
0
6
CONTINUOUS
10
0.009696
20
0.113634
30
0.0
11
0.009076
21
0.114147
31
0.0
0
LINE
8
0
6
CONTINUOUS
10
-0.026942
20
0.007960
30
0.0
11
-0.025872
21
0.007709
31
0.0
0
LINE
8
0
6
CONTINUOUS
10
0.076404
20
0.186369
30
0.0
11
0.079720
21
0.190487
31
0.0
0
LINE
8
0
6
CONTINUOUS
10
0.082459
20
0.193972
30
0.0
11
0.081724
21
0.194803
31
0.0
0
LINE
8
0
6
CONTINUOUS
10
0.081773
20
0.193035
30
0.0
11
0.082459
21
0.193972
31
0.0
0
LINE
8
0
6
CONTINUOUS
10
0.025597
20
0.125065
30
0.0
11
0.026566
21
0.124524
31
0.0
0
LINE
8
0
6
CONTINUOUS
10
0.026566
20
0.124524
30
0.0
11
0.027273
21
0.125410
31
0.0
0
LINE
8
0
6
CONTINUOUS
10
0.027273
20
0.125410
30
0.0
11
0.029346
21
0.127992
31
0.0
0
LINE
8
0
6
CONTINUOUS
10
0.048338
20
0.151591
30
0.0
11
0.054605
21
0.159290
31
0.0
0
LINE
8
0
6
CONTINUOUS
10
0.078497
20
0.204152
30
0.0
11
0.073029
21
0.208225
31
0.0
0
LINE
8
0
6
CONTINUOUS
10
0.015280
20
0.126648
30
0.0
11
0.015774
21
0.126219
31
0.0
0
LINE
8
0
6
CONTINUOUS
10
0.073029
20
0.208225
30
0.0
11
0.070192
21
0.209934
31
0.0
0
LINE
8
0
6
CONTINUOUS
10
0.067244
20
0.211496
30
0.0
11
0.064200
21
0.212875
31
0.0
0
LINE
8
0
6
CONTINUOUS
10
0.061728
20
0.213621
30
0.0
11
0.061604
21
0.213602
31
0.0
0
LINE
8
0
6
CONTINUOUS
10
0.061604
20
0.213602
30
0.0
11
0.060734
21
0.213429
31
0.0
0
LINE
8
0
6
CONTINUOUS
10
0.060734
20
0.213429
30
0.0
11
0.060329
21
0.213326
31
0.0
0
LINE
8
0
6
CONTINUOUS
10
0.002932
20
0.140701
30
0.0
11
0.002939
21
0.140576
31
0.0
0
LINE
8
0
6
CONTINUOUS
10
0.002914
20
0.141588
30
0.0
11
0.002932
21
0.140701
31
0.0
0
LINE
8
0
6
CONTINUOUS
10
0.002929
20
0.142005
30
0.0
11
0.002914
21
0.141588
31
0.0
0
LINE
8
0
6
CONTINUOUS
10
0.070192
20
0.209934
30
0.0
11
0.067244
21
0.211496
31
0.0
0
LINE
8
0
6
CONTINUOUS
10
0.078687
20
0.203999
30
0.0
11
0.078497
21
0.204152
31
0.0
0
LINE
8
0
6
CONTINUOUS
10
0.015774
20
0.126219
30
0.0
11
0.015965
21
0.126066
31
0.0
0
LINE
8
0
6
CONTINUOUS
10
0.016233
20
0.125849
30
0.0
11
0.017003
21
0.125230
31
0.0
0
LINE
8
0
6
CONTINUOUS
10
0.079725
20
0.203163
30
0.0
11
0.078956
21
0.203783
31
0.0
0
LINE
8
0
6
CONTINUOUS
10
0.054605
20
0.159290
30
0.0
11
0.060776
21
0.167043
31
0.0
0
LINE
8
0
6
CONTINUOUS
10
0.025672
20
0.124353
30
0.0
11
0.026394
21
0.125255
31
0.0
0
LINE
8
0
6
CONTINUOUS
10
0.023407
20
0.123785
30
0.0
11
0.025672
21
0.124353
31
0.0
0
LINE
8
0
6
CONTINUOUS
10
0.041785
20
0.144387
30
0.0
11
0.047787
21
0.151846
31
0.0
0
LINE
8
0
6
CONTINUOUS
10
0.017003
20
0.125230
30
0.0
11
0.018896
21
0.124306
31
0.0
0
LINE
8
0
6
CONTINUOUS
10
0.018896
20
0.124306
30
0.0
11
0.021357
21
0.123735
31
0.0
0
LINE
8
0
6
CONTINUOUS
10
0.021357
20
0.123735
30
0.0
11
0.023407
21
0.123785
31
0.0
0
LINE
8
0
6
CONTINUOUS
10
0.081033
20
0.201512
30
0.0
11
0.079725
21
0.203163
31
0.0
0
LINE
8
0
6
CONTINUOUS
10
0.082117
20
0.199229
30
0.0
11
0.081033
21
0.201512
31
0.0
0
LINE
8
0
6
CONTINUOUS
10
0.082506
20
0.197217
30
0.0
11
0.082117
21
0.199229
31
0.0
0
LINE
8
0
6
CONTINUOUS
10
0.047553
20
0.164980
30
0.0
11
0.040574
21
0.156307
31
0.0
0
LINE
8
0
6
CONTINUOUS
10
0.067094
20
0.189256
30
0.0
11
0.061155
21
0.181878
31
0.0
0
LINE
8
0
6
CONTINUOUS
10
0.078858
20
0.203861
30
0.0
11
0.078085
21
0.202903
31
0.0
0
LINE
8
0
6
CONTINUOUS
10
0.078956
20
0.203783
30
0.0
11
0.078858
21
0.203861
31
0.0
0
LINE
8
0
6
CONTINUOUS
10
0.019266
20
0.129824
30
0.0
11
0.016935
21
0.126924
31
0.0
0
LINE
8
0
6
CONTINUOUS
10
0.040574
20
0.156307
30
0.0
11
0.033941
21
0.148064
31
0.0
0
LINE
8
0
6
CONTINUOUS
10
0.078085
20
0.202903
30
0.0
11
0.075777
21
0.200039
31
0.0
0
LINE
8
0
6
CONTINUOUS
10
0.061155
20
0.181878
30
0.0
11
0.054531
21
0.173648
31
0.0
0
LINE
8
0
6
CONTINUOUS
10
0.016935
20
0.126924
30
0.0
11
0.016136
21
0.125928
31
0.0
0
LINE
8
0
6
CONTINUOUS
10
0.016136
20
0.125928
30
0.0
11
0.016233
21
0.125849
31
0.0
0
LINE
8
0
6
CONTINUOUS
10
0.033941
20
0.148064
30
0.0
11
0.027988
21
0.140666
31
0.0
0
LINE
8
0
6
CONTINUOUS
10
0.054531
20
0.173648
30
0.0
11
0.047553
21
0.164980
31
0.0
0
LINE
8
0
6
CONTINUOUS
10
0.075777
20
0.200039
30
0.0
11
0.072051
21
0.195413
31
0.0
0
LINE
8
0
6
CONTINUOUS
10
0.027988
20
0.140666
30
0.0
11
0.023013
21
0.134482
31
0.0
0
LINE
8
0
6
CONTINUOUS
10
0.072051
20
0.195413
30
0.0
11
0.067094
21
0.189256
31
0.0
0
LINE
8
0
6
CONTINUOUS
10
0.023013
20
0.134482
30
0.0
11
0.019266
21
0.129824
31
0.0
0
LINE
8
0
6
CONTINUOUS
10
0.060329
20
0.213326
30
0.0
11
0.060180
21
0.213166
31
0.0
0
LINE
8
0
6
CONTINUOUS
10
0.003052
20
0.142185
30
0.0
11
0.002929
21
0.142005
31
0.0
0
LINE
8
0
6
CONTINUOUS
10
0.013509
20
0.159341
30
0.0
11
0.008271
21
0.150980
31
0.0
0
LINE
8
0
6
CONTINUOUS
10
0.028609
20
0.180112
30
0.0
11
0.027754
21
0.179049
31
0.0
0
LINE
8
0
6
CONTINUOUS
10
0.024857
20
0.175447
30
0.0
11
0.024759
21
0.175325
31
0.0
0
LINE
8
0
6
CONTINUOUS
10
0.024759
20
0.175325
30
0.0
11
0.019005
21
0.167459
31
0.0
0
LINE
8
0
6
CONTINUOUS
10
0.025602
20
0.176374
30
0.0
11
0.025143
21
0.175803
31
0.0
0
LINE
8
0
6
CONTINUOUS
10
0.026941
20
0.178038
30
0.0
11
0.026212
21
0.177132
31
0.0
0
LINE
8
0
6
CONTINUOUS
10
0.060180
20
0.213166
30
0.0
11
0.052319
21
0.205842
31
0.0
0
LINE
8
0
6
CONTINUOUS
10
0.008271
20
0.150980
30
0.0
11
0.003052
21
0.142185
31
0.0
0
LINE
8
0
6
CONTINUOUS
10
0.062817
20
0.213366
30
0.0
11
0.061728
21
0.213621
31
0.0
0
LINE
8
0
6
CONTINUOUS
10
0.002939
20
0.140576
30
0.0
11
0.003354
21
0.139706
31
0.0
0
LINE
8
0
6
CONTINUOUS
10
0.045702
20
0.199337
30
0.0
11
0.039009
21
0.192293
31
0.0
0
LINE
8
0
6
CONTINUOUS
10
0.031612
20
0.183841
30
0.0
11
0.031004
21
0.183087
31
0.0
0
LINE
8
0
6
CONTINUOUS
10
0.032446
20
0.184877
30
0.0
11
0.032351
21
0.184759
31
0.0
0
LINE
8
0
6
CONTINUOUS
10
0.039009
20
0.192293
30
0.0
11
0.032446
21
0.184877
31
0.0
0
LINE
8
0
6
CONTINUOUS
10
0.032351
20
0.184759
30
0.0
11
0.032069
21
0.184408
31
0.0
0
LINE
8
0
6
CONTINUOUS
10
0.032069
20
0.184408
30
0.0
11
0.031612
21
0.183841
31
0.0
0
LINE
8
0
6
CONTINUOUS
10
0.031004
20
0.183087
30
0.0
11
0.030276
21
0.182183
31
0.0
0
LINE
8
0
6
CONTINUOUS
10
0.030276
20
0.182183
30
0.0
11
0.029465
21
0.181174
31
0.0
0
LINE
8
0
6
CONTINUOUS
10
0.052319
20
0.205842
30
0.0
11
0.045702
21
0.199337
31
0.0
0
LINE
8
0
6
CONTINUOUS
10
0.029465
20
0.181174
30
0.0
11
0.028609
21
0.180112
31
0.0
0
LINE
8
0
6
CONTINUOUS
10
0.064200
20
0.212875
30
0.0
11
0.062817
21
0.213366
31
0.0
0
LINE
8
0
6
CONTINUOUS
10
0.042426
20
0.144247
30
0.0
11
0.048338
21
0.151591
31
0.0
0
LINE
8
0
6
CONTINUOUS
10
0.016245
20
0.126413
30
0.0
11
0.016416
21
0.126276
31
0.0
0
LINE
8
0
6
CONTINUOUS
10
0.078578
20
0.203513
30
0.0
11
0.078407
21
0.203651
31
0.0
0
LINE
8
0
6
CONTINUOUS
10
0.027754
20
0.179049
30
0.0
11
0.026941
21
0.178038
31
0.0
0
LINE
8
0
6
CONTINUOUS
10
0.026212
20
0.177132
30
0.0
11
0.025602
21
0.176374
31
0.0
0
LINE
8
0
6
CONTINUOUS
10
0.025143
20
0.175803
30
0.0
11
0.024857
21
0.175447
31
0.0
0
LINE
8
0
6
CONTINUOUS
10
0.019005
20
0.167459
30
0.0
11
0.013509
21
0.159341
31
0.0
0
LINE
8
0
6
CONTINUOUS
10
0.066680
20
0.174376
30
0.0
11
0.071973
21
0.180949
31
0.0
0
LINE
8
0
6
CONTINUOUS
10
0.071973
20
0.180949
30
0.0
11
0.076404
21
0.186369
31
0.0
0
LINE
8
0
6
CONTINUOUS
10
0.029346
20
0.127992
30
0.0
11
0.032687
21
0.132145
31
0.0
0
LINE
8
0
6
CONTINUOUS
10
0.032687
20
0.132145
30
0.0
11
0.037059
21
0.137662
31
0.0
0
LINE
8
0
6
CONTINUOUS
10
0.037059
20
0.137662
30
0.0
11
0.042426
21
0.144247
31
0.0
0
LINE
8
0
6
CONTINUOUS
10
0.028504
20
0.127879
30
0.0
11
0.031895
21
0.132095
31
0.0
0
LINE
8
0
6
CONTINUOUS
10
0.071789
20
0.181665
30
0.0
11
0.076275
21
0.187237
31
0.0
0
LINE
8
0
6
CONTINUOUS
10
0.031895
20
0.132095
30
0.0
11
0.036397
21
0.137691
31
0.0
0
LINE
8
0
6
CONTINUOUS
10
0.076275
20
0.187237
30
0.0
11
0.079646
21
0.191424
31
0.0
0
LINE
8
0
6
CONTINUOUS
10
0.054104
20
0.159695
30
0.0
11
0.060418
21
0.167540
31
0.0
0
LINE
8
0
6
CONTINUOUS
10
0.036397
20
0.137691
30
0.0
11
0.041785
21
0.144387
31
0.0
0
LINE
8
0
6
CONTINUOUS
10
0.079646
20
0.191424
30
0.0
11
0.081735
21
0.194015
31
0.0
0
LINE
8
0
6
CONTINUOUS
10
0.060418
20
0.167540
30
0.0
11
0.066413
21
0.174988
31
0.0
0
LINE
8
0
6
CONTINUOUS
10
0.026394
20
0.125255
30
0.0
11
0.028504
21
0.127879
31
0.0
0
LINE
8
0
6
CONTINUOUS
10
0.082435
20
0.194882
30
0.0
11
0.082506
21
0.197217
31
0.0
0
LINE
8
0
6
CONTINUOUS
10
0.081735
20
0.194015
30
0.0
11
0.082435
21
0.194882
31
0.0
0
LINE
8
0
6
CONTINUOUS
10
0.066413
20
0.174988
30
0.0
11
0.071789
21
0.181665
31
0.0
0
LINE
8
0
6
CONTINUOUS
10
0.025672
20
0.124353
30
0.0
11
0.026372
21
0.125220
31
0.0
0
LINE
8
0
6
CONTINUOUS
10
0.047787
20
0.151846
30
0.0
11
0.054104
21
0.159695
31
0.0
0
LINE
8
0
6
CONTINUOUS
10
0.060776
20
0.167043
30
0.0
11
0.066680
21
0.174376
31
0.0
0
LINE
8
0
6
CONTINUOUS
10
0.075121
20
0.182507
30
0.0
11
0.075606
21
0.183194
31
0.0
0
LINE
8
0
6
CONTINUOUS
10
0.076936
20
0.185075
30
0.0
11
0.077327
21
0.185628
31
0.0
0
LINE
8
0
6
CONTINUOUS
10
0.034717
20
0.132523
30
0.0
11
0.035526
21
0.133410
31
0.0
0
LINE
8
0
6
CONTINUOUS
10
0.067982
20
0.172182
30
0.0
11
0.068889
21
0.173508
31
0.0
0
LINE
8
0
6
CONTINUOUS
10
0.071340
20
0.177091
30
0.0
11
0.072504
21
0.178792
31
0.0
0
LINE
8
0
6
CONTINUOUS
10
0.045162
20
0.143756
30
0.0
11
0.045811
21
0.144444
31
0.0
0
LINE
8
0
6
CONTINUOUS
10
0.048883
20
0.148005
30
0.0
11
0.049611
21
0.148851
31
0.0
0
LINE
8
0
6
CONTINUOUS
10
0.059265
20
0.160486
30
0.0
11
0.059383
21
0.160642
31
0.0
0
LINE
8
0
6
CONTINUOUS
10
0.053735
20
0.153655
30
0.0
11
0.054604
21
0.154676
31
0.0
0
LINE
8
0
6
CONTINUOUS
10
0.066680
20
0.174376
30
0.0
11
0.060776
21
0.167043
31
0.0
0
LINE
8
0
6
CONTINUOUS
10
0.079720
20
0.190487
30
0.0
11
0.076406
21
0.186372
31
0.0
0
LINE
8
0
6
CONTINUOUS
10
0.081773
20
0.193035
30
0.0
11
0.079720
21
0.190487
31
0.0
0
LINE
8
0
6
CONTINUOUS
10
0.082459
20
0.193972
30
0.0
11
0.081773
21
0.193035
31
0.0
0
LINE
8
0
6
CONTINUOUS
10
0.081829
20
0.192316
30
0.0
11
0.082459
21
0.193972
31
0.0
0
LINE
8
0
6
CONTINUOUS
10
0.026566
20
0.124524
30
0.0
11
0.028049
21
0.125493
31
0.0
0
LINE
8
0
6
CONTINUOUS
10
0.027273
20
0.125410
30
0.0
11
0.026566
21
0.124524
31
0.0
0
LINE
8
0
6
CONTINUOUS
10
0.029346
20
0.127992
30
0.0
11
0.027273
21
0.125410
31
0.0
0
LINE
8
0
6
CONTINUOUS
10
0.060776
20
0.167043
30
0.0
11
0.054605
21
0.159290
31
0.0
0
LINE
8
0
6
CONTINUOUS
10
0.071973
20
0.180949
30
0.0
11
0.066680
21
0.174376
31
0.0
0
LINE
8
0
6
CONTINUOUS
10
0.076404
20
0.186369
30
0.0
11
0.071973
21
0.180949
31
0.0
0
LINE
8
0
6
CONTINUOUS
10
0.032687
20
0.132145
30
0.0
11
0.029346
21
0.127992
31
0.0
0
LINE
8
0
6
CONTINUOUS
10
0.037059
20
0.137662
30
0.0
11
0.032687
21
0.132145
31
0.0
0
LINE
8
0
6
CONTINUOUS
10
0.042426
20
0.144247
30
0.0
11
0.037059
21
0.137662
31
0.0
0
LINE
8
0
6
CONTINUOUS
10
0.048338
20
0.151591
30
0.0
11
0.042426
21
0.144247
31
0.0
0
LINE
8
0
6
CONTINUOUS
10
0.054605
20
0.159290
30
0.0
11
0.048338
21
0.151591
31
0.0
0
LINE
8
0
6
CONTINUOUS
10
0.079257
20
0.188443
30
0.0
11
0.081829
21
0.192316
31
0.0
0
LINE
8
0
6
CONTINUOUS
10
0.028049
20
0.125493
30
0.0
11
0.031313
21
0.128865
31
0.0
0
LINE
8
0
6
CONTINUOUS
10
0.057903
20
0.158634
30
0.0
11
0.058869
21
0.159835
31
0.0
0
LINE
8
0
6
CONTINUOUS
10
0.059343
20
0.160424
30
0.0
11
0.058536
21
0.161063
31
0.0
0
LINE
8
0
6
CONTINUOUS
10
0.058869
20
0.159835
30
0.0
11
0.059343
21
0.160424
31
0.0
0
LINE
8
0
6
CONTINUOUS
10
0.057410
20
0.158022
30
0.0
11
0.057903
21
0.158634
31
0.0
0
LINE
8
0
6
CONTINUOUS
10
0.054483
20
0.155880
30
0.0
11
0.055313
21
0.156910
31
0.0
0
LINE
8
0
6
CONTINUOUS
10
0.053255
20
0.155994
30
0.0
11
0.054061
21
0.155354
31
0.0
0
LINE
8
0
6
CONTINUOUS
10
0.058918
20
0.158374
30
0.0
11
0.059075
21
0.158568
31
0.0
0
LINE
8
0
6
CONTINUOUS
10
0.063031
20
0.165014
30
0.0
11
0.063997
21
0.166215
31
0.0
0
LINE
8
0
6
CONTINUOUS
10
0.061819
20
0.164284
30
0.0
11
0.062648
21
0.165314
31
0.0
0
LINE
8
0
6
CONTINUOUS
10
0.063054
20
0.165819
30
0.0
11
0.062237
21
0.166468
31
0.0
0
LINE
8
0
6
CONTINUOUS
10
0.062648
20
0.165314
30
0.0
11
0.063054
21
0.165819
31
0.0
0
LINE
8
0
6
CONTINUOUS
10
0.066606
20
0.170223
30
0.0
11
0.067435
21
0.171253
31
0.0
0
LINE
8
0
6
CONTINUOUS
10
0.070870
20
0.176232
30
0.0
11
0.070031
21
0.176898
31
0.0
0
LINE
8
0
6
CONTINUOUS
10
0.032505
20
0.128608
30
0.0
11
0.033330
21
0.129633
31
0.0
0
LINE
8
0
6
CONTINUOUS
10
0.032777
20
0.130704
30
0.0
11
0.033659
21
0.130000
31
0.0
0
LINE
8
0
6
CONTINUOUS
10
0.033999
20
0.130423
30
0.0
11
0.034824
21
0.131448
31
0.0
0
LINE
8
0
6
CONTINUOUS
10
0.035309
20
0.132050
30
0.0
11
0.034585
21
0.132628
31
0.0
0
LINE
8
0
6
CONTINUOUS
10
0.037788
20
0.136154
30
0.0
11
0.038642
21
0.135473
31
0.0
0
LINE
8
0
6
CONTINUOUS
10
0.043723
20
0.140981
30
0.0
11
0.044119
21
0.141473
31
0.0
0
LINE
8
0
6
CONTINUOUS
10
0.043052
20
0.141515
30
0.0
11
0.043723
21
0.140981
31
0.0
0
LINE
8
0
6
CONTINUOUS
10
0.044119
20
0.141473
30
0.0
11
0.045081
21
0.142668
31
0.0
0
LINE
8
0
6
CONTINUOUS
10
0.049178
20
0.147770
30
0.0
11
0.048424
21
0.148370
31
0.0
0
LINE
8
0
6
CONTINUOUS
10
0.048612
20
0.147068
30
0.0
11
0.049178
21
0.147770
31
0.0
0
LINE
8
0
6
CONTINUOUS
10
0.053844
20
0.153568
30
0.0
11
0.053068
21
0.154186
31
0.0
0
LINE
8
0
6
CONTINUOUS
10
0.053279
20
0.152866
30
0.0
11
0.053844
21
0.153568
31
0.0
0
LINE
8
0
6
CONTINUOUS
10
0.045435
20
0.144641
30
0.0
11
0.044686
21
0.145237
31
0.0
0
LINE
8
0
6
CONTINUOUS
10
0.045068
20
0.144187
30
0.0
11
0.045435
21
0.144641
31
0.0
0
LINE
8
0
6
CONTINUOUS
10
0.041091
20
0.139249
30
0.0
11
0.040354
21
0.139836
31
0.0
0
LINE
8
0
6
CONTINUOUS
10
0.040725
20
0.138795
30
0.0
11
0.041091
21
0.139249
31
0.0
0
LINE
8
0
6
CONTINUOUS
10
0.036521
20
0.133558
30
0.0
11
0.037348
21
0.134586
31
0.0
0
LINE
8
0
6
CONTINUOUS
10
0.037715
20
0.135041
30
0.0
11
0.036984
21
0.135623
31
0.0
0
LINE
8
0
6
CONTINUOUS
10
0.037348
20
0.134586
30
0.0
11
0.037715
21
0.135041
31
0.0
0
LINE
8
0
6
CONTINUOUS
10
0.060167
20
0.160228
30
0.0
11
0.061081
21
0.161364
31
0.0
0
LINE
8
0
6
CONTINUOUS
10
0.059304
20
0.160706
30
0.0
11
0.060057
21
0.160090
31
0.0
0
LINE
8
0
6
CONTINUOUS
10
0.053387
20
0.151803
30
0.0
11
0.053082
21
0.151424
31
0.0
0
LINE
8
0
6
CONTINUOUS
10
0.068539
20
0.171827
30
0.0
11
0.068020
21
0.172238
31
0.0
0
LINE
8
0
6
CONTINUOUS
10
0.068058
20
0.171229
30
0.0
11
0.068539
21
0.171827
31
0.0
0
LINE
8
0
6
CONTINUOUS
10
0.053022
20
0.151717
30
0.0
11
0.054013
21
0.152948
31
0.0
0
LINE
8
0
6
CONTINUOUS
10
0.035339
20
0.133205
30
0.0
11
0.035876
21
0.132778
31
0.0
0
LINE
8
0
6
CONTINUOUS
10
0.073700
20
0.179035
30
0.0
11
0.074335
21
0.179824
31
0.0
0
LINE
8
0
6
CONTINUOUS
10
0.072777
20
0.177887
30
0.0
11
0.072920
21
0.178066
31
0.0
0
LINE
8
0
6
CONTINUOUS
10
0.072202
20
0.178351
30
0.0
11
0.072777
21
0.177887
31
0.0
0
LINE
8
0
6
CONTINUOUS
10
0.072920
20
0.178066
30
0.0
11
0.073700
21
0.179035
31
0.0
0
LINE
8
0
6
CONTINUOUS
10
0.068826
20
0.173416
30
0.0
11
0.069428
21
0.172931
31
0.0
0
LINE
8
0
6
CONTINUOUS
10
0.066272
20
0.168197
30
0.0
11
0.065529
21
0.168796
31
0.0
0
LINE
8
0
6
CONTINUOUS
10
0.066670
20
0.169518
30
0.0
11
0.066838
21
0.169727
31
0.0
0
LINE
8
0
6
CONTINUOUS
10
0.065963
20
0.170088
30
0.0
11
0.066670
21
0.169518
31
0.0
0
LINE
8
0
6
CONTINUOUS
10
0.075952
20
0.181837
30
0.0
11
0.075121
21
0.182507
31
0.0
0
LINE
8
0
6
CONTINUOUS
10
0.075317
20
0.181048
30
0.0
11
0.075952
21
0.181837
31
0.0
0
LINE
8
0
6
CONTINUOUS
10
0.074538
20
0.180080
30
0.0
11
0.075317
21
0.181048
31
0.0
0
LINE
8
0
6
CONTINUOUS
10
0.076140
20
0.182774
30
0.0
11
0.076861
21
0.183670
31
0.0
0
LINE
8
0
6
CONTINUOUS
10
0.079445
20
0.186873
30
0.0
11
0.078644
21
0.187520
31
0.0
0
LINE
8
0
6
CONTINUOUS
10
0.078729
20
0.185984
30
0.0
11
0.079445
21
0.186873
31
0.0
0
LINE
8
0
6
CONTINUOUS
10
0.058869
20
0.159835
30
0.0
11
0.057903
21
0.158634
31
0.0
0
LINE
8
0
6
CONTINUOUS
10
0.059343
20
0.160424
30
0.0
11
0.058869
21
0.159835
31
0.0
0
LINE
8
0
6
CONTINUOUS
10
0.057903
20
0.158634
30
0.0
11
0.057410
21
0.158022
31
0.0
0
LINE
8
0
6
CONTINUOUS
10
0.056545
20
0.157719
30
0.0
11
0.057374
21
0.158749
31
0.0
0
LINE
8
0
6
CONTINUOUS
10
0.057781
20
0.159254
30
0.0
11
0.056978
21
0.159891
31
0.0
0
LINE
8
0
6
CONTINUOUS
10
0.057374
20
0.158749
30
0.0
11
0.057781
21
0.159254
31
0.0
0
LINE
8
0
6
CONTINUOUS
10
0.056123
20
0.157194
30
0.0
11
0.056545
21
0.157719
31
0.0
0
LINE
8
0
6
CONTINUOUS
10
0.055326
20
0.157826
30
0.0
11
0.056123
21
0.157194
31
0.0
0
LINE
8
0
6
CONTINUOUS
10
0.057374
20
0.158749
30
0.0
11
0.056545
21
0.157719
31
0.0
0
LINE
8
0
6
CONTINUOUS
10
0.057781
20
0.159254
30
0.0
11
0.057374
21
0.158749
31
0.0
0
LINE
8
0
6
CONTINUOUS
10
0.056545
20
0.157719
30
0.0
11
0.056123
21
0.157194
31
0.0
0
LINE
8
0
6
CONTINUOUS
10
0.055719
20
0.157415
30
0.0
11
0.054934
21
0.158038
31
0.0
0
LINE
8
0
6
CONTINUOUS
10
0.055313
20
0.156910
30
0.0
11
0.055719
21
0.157415
31
0.0
0
LINE
8
0
6
CONTINUOUS
10
0.055313
20
0.156910
30
0.0
11
0.054483
21
0.155880
31
0.0
0
LINE
8
0
6
CONTINUOUS
10
0.055719
20
0.157415
30
0.0
11
0.055313
21
0.156910
31
0.0
0
LINE
8
0
6
CONTINUOUS
10
0.054483
20
0.155880
30
0.0
11
0.054061
21
0.155354
31
0.0
0
LINE
8
0
6
CONTINUOUS
10
0.057503
20
0.156616
30
0.0
11
0.058918
21
0.158374
31
0.0
0
LINE
8
0
6
CONTINUOUS
10
0.056245
20
0.155052
30
0.0
11
0.057503
21
0.156616
31
0.0
0
LINE
8
0
6
CONTINUOUS
10
0.058918
20
0.158374
30
0.0
11
0.057503
21
0.156616
31
0.0
0
LINE
8
0
6
CONTINUOUS
10
0.059075
20
0.158568
30
0.0
11
0.058918
21
0.158374
31
0.0
0
LINE
8
0
6
CONTINUOUS
10
0.057503
20
0.156616
30
0.0
11
0.056245
21
0.155052
31
0.0
0
LINE
8
0
6
CONTINUOUS
10
0.064471
20
0.166803
30
0.0
11
0.063624
21
0.167474
31
0.0
0
LINE
8
0
6
CONTINUOUS
10
0.063997
20
0.166215
30
0.0
11
0.064471
21
0.166803
31
0.0
0
LINE
8
0
6
CONTINUOUS
10
0.063997
20
0.166215
30
0.0
11
0.063031
21
0.165014
31
0.0
0
LINE
8
0
6
CONTINUOUS
10
0.064471
20
0.166803
30
0.0
11
0.063997
21
0.166215
31
0.0
0
LINE
8
0
6
CONTINUOUS
10
0.063031
20
0.165014
30
0.0
11
0.062538
21
0.164402
31
0.0
0
LINE
8
0
6
CONTINUOUS
10
0.061396
20
0.163759
30
0.0
11
0.061819
21
0.164284
31
0.0
0
LINE
8
0
6
CONTINUOUS
10
0.060621
20
0.164375
30
0.0
11
0.061396
21
0.163759
31
0.0
0
LINE
8
0
6
CONTINUOUS
10
0.062648
20
0.165314
30
0.0
11
0.061819
21
0.164284
31
0.0
0
LINE
8
0
6
CONTINUOUS
10
0.063054
20
0.165819
30
0.0
11
0.062648
21
0.165314
31
0.0
0
LINE
8
0
6
CONTINUOUS
10
0.061819
20
0.164284
30
0.0
11
0.061396
21
0.163759
31
0.0
0
LINE
8
0
6
CONTINUOUS
10
0.067842
20
0.171758
30
0.0
11
0.067011
21
0.172418
31
0.0
0
LINE
8
0
6
CONTINUOUS
10
0.067435
20
0.171253
30
0.0
11
0.067842
21
0.171758
31
0.0
0
LINE
8
0
6
CONTINUOUS
10
0.067435
20
0.171253
30
0.0
11
0.066606
21
0.170223
31
0.0
0
LINE
8
0
6
CONTINUOUS
10
0.067842
20
0.171758
30
0.0
11
0.067435
21
0.171253
31
0.0
0
LINE
8
0
6
CONTINUOUS
10
0.066606
20
0.170223
30
0.0
11
0.066184
21
0.169698
31
0.0
0
LINE
8
0
6
CONTINUOUS
10
0.073706
20
0.179763
30
0.0
11
0.074522
21
0.180777
31
0.0
0
LINE
8
0
6
CONTINUOUS
10
0.074802
20
0.181125
30
0.0
11
0.073945
21
0.181806
31
0.0
0
LINE
8
0
6
CONTINUOUS
10
0.074522
20
0.180777
30
0.0
11
0.074802
21
0.181125
31
0.0
0
LINE
8
0
6
CONTINUOUS
10
0.073171
20
0.179097
30
0.0
11
0.073706
21
0.179763
31
0.0
0
LINE
8
0
6
CONTINUOUS
10
0.072423
20
0.179691
30
0.0
11
0.073171
21
0.179097
31
0.0
0
LINE
8
0
6
CONTINUOUS
10
0.074522
20
0.180777
30
0.0
11
0.073706
21
0.179763
31
0.0
0
LINE
8
0
6
CONTINUOUS
10
0.074802
20
0.181125
30
0.0
11
0.074522
21
0.180777
31
0.0
0
LINE
8
0
6
CONTINUOUS
10
0.073706
20
0.179763
30
0.0
11
0.073171
21
0.179097
31
0.0
0
LINE
8
0
6
CONTINUOUS
10
0.069773
20
0.174870
30
0.0
11
0.070589
21
0.175884
31
0.0
0
LINE
8
0
6
CONTINUOUS
10
0.069238
20
0.174204
30
0.0
11
0.069773
21
0.174870
31
0.0
0
LINE
8
0
6
CONTINUOUS
10
0.068473
20
0.174812
30
0.0
11
0.069238
21
0.174204
31
0.0
0
LINE
8
0
6
CONTINUOUS
10
0.070589
20
0.175884
30
0.0
11
0.069773
21
0.174870
31
0.0
0
LINE
8
0
6
CONTINUOUS
10
0.070870
20
0.176232
30
0.0
11
0.070589
21
0.175884
31
0.0
0
LINE
8
0
6
CONTINUOUS
10
0.069773
20
0.174870
30
0.0
11
0.069238
21
0.174204
31
0.0
0
LINE
8
0
6
CONTINUOUS
10
0.065138
20
0.169118
30
0.0
11
0.065954
21
0.170132
31
0.0
0
LINE
8
0
6
CONTINUOUS
10
0.066234
20
0.170480
30
0.0
11
0.065425
21
0.171123
31
0.0
0
LINE
8
0
6
CONTINUOUS
10
0.064602
20
0.168452
30
0.0
11
0.065138
21
0.169118
31
0.0
0
LINE
8
0
6
CONTINUOUS
10
0.063819
20
0.169074
30
0.0
11
0.064602
21
0.168452
31
0.0
0
LINE
8
0
6
CONTINUOUS
10
0.065954
20
0.170132
30
0.0
11
0.065138
21
0.169118
31
0.0
0
LINE
8
0
6
CONTINUOUS
10
0.066234
20
0.170480
30
0.0
11
0.065954
21
0.170132
31
0.0
0
LINE
8
0
6
CONTINUOUS
10
0.065138
20
0.169118
30
0.0
11
0.064602
21
0.168452
31
0.0
0
LINE
8
0
6
CONTINUOUS
10
0.059937
20
0.162669
30
0.0
11
0.060753
21
0.163683
31
0.0
0
LINE
8
0
6
CONTINUOUS
10
0.061034
20
0.164031
30
0.0
11
0.060244
21
0.164658
31
0.0
0
LINE
8
0
6
CONTINUOUS
10
0.058600
20
0.162640
30
0.0
11
0.059402
21
0.162003
31
0.0
0
LINE
8
0
6
CONTINUOUS
10
0.060753
20
0.163683
30
0.0
11
0.059937
21
0.162669
31
0.0
0
LINE
8
0
6
CONTINUOUS
10
0.061034
20
0.164031
30
0.0
11
0.060753
21
0.163683
31
0.0
0
LINE
8
0
6
CONTINUOUS
10
0.059937
20
0.162669
30
0.0
11
0.059402
21
0.162003
31
0.0
0
LINE
8
0
6
CONTINUOUS
10
0.046266
20
0.144966
30
0.0
11
0.047067
21
0.144329
31
0.0
0
LINE
8
0
6
CONTINUOUS
10
0.047476
20
0.144837
30
0.0
11
0.048469
21
0.146071
31
0.0
0
LINE
8
0
6
CONTINUOUS
10
0.049053
20
0.146796
30
0.0
11
0.048294
21
0.147399
31
0.0
0
LINE
8
0
6
CONTINUOUS
10
0.048469
20
0.146071
30
0.0
11
0.049053
21
0.146796
31
0.0
0
LINE
8
0
6
CONTINUOUS
10
0.047476
20
0.144837
30
0.0
11
0.047067
21
0.144329
31
0.0
0
LINE
8
0
6
CONTINUOUS
10
0.048469
20
0.146071
30
0.0
11
0.047476
21
0.144837
31
0.0
0
LINE
8
0
6
CONTINUOUS
10
0.049053
20
0.146796
30
0.0
11
0.048469
21
0.146071
31
0.0
0
LINE
8
0
6
CONTINUOUS
10
0.032165
20
0.128185
30
0.0
11
0.032505
21
0.128608
31
0.0
0
LINE
8
0
6
CONTINUOUS
10
0.031277
20
0.128893
30
0.0
11
0.032165
21
0.128185
31
0.0
0
LINE
8
0
6
CONTINUOUS
10
0.032505
20
0.128608
30
0.0
11
0.032165
21
0.128185
31
0.0
0
LINE
8
0
6
CONTINUOUS
10
0.033330
20
0.129633
30
0.0
11
0.032505
21
0.128608
31
0.0
0
LINE
8
0
6
CONTINUOUS
10
0.033815
20
0.130235
30
0.0
11
0.033330
21
0.129633
31
0.0
0
LINE
8
0
6
CONTINUOUS
10
0.037342
20
0.133876
30
0.0
11
0.038167
21
0.134901
31
0.0
0
LINE
8
0
6
CONTINUOUS
10
0.037342
20
0.133876
30
0.0
11
0.037003
21
0.133454
31
0.0
0
LINE
8
0
6
CONTINUOUS
10
0.038167
20
0.134901
30
0.0
11
0.037342
21
0.133876
31
0.0
0
LINE
8
0
6
CONTINUOUS
10
0.038653
20
0.135504
30
0.0
11
0.038167
21
0.134901
31
0.0
0
LINE
8
0
6
CONTINUOUS
10
0.041781
20
0.138568
30
0.0
11
0.042177
21
0.139060
31
0.0
0
LINE
8
0
6
CONTINUOUS
10
0.040894
20
0.139275
30
0.0
11
0.041781
21
0.138568
31
0.0
0
LINE
8
0
6
CONTINUOUS
10
0.042177
20
0.139060
30
0.0
11
0.043139
21
0.140255
31
0.0
0
LINE
8
0
6
CONTINUOUS
10
0.043705
20
0.140958
30
0.0
11
0.043002
21
0.141517
31
0.0
0
LINE
8
0
6
CONTINUOUS
10
0.043139
20
0.140255
30
0.0
11
0.043705
21
0.140958
31
0.0
0
LINE
8
0
6
CONTINUOUS
10
0.042177
20
0.139060
30
0.0
11
0.041781
21
0.138568
31
0.0
0
LINE
8
0
6
CONTINUOUS
10
0.043139
20
0.140255
30
0.0
11
0.042177
21
0.139060
31
0.0
0
LINE
8
0
6
CONTINUOUS
10
0.043705
20
0.140958
30
0.0
11
0.043139
21
0.140255
31
0.0
0
LINE
8
0
6
CONTINUOUS
10
0.033999
20
0.130423
30
0.0
11
0.033659
21
0.130000
31
0.0
0
LINE
8
0
6
CONTINUOUS
10
0.034824
20
0.131448
30
0.0
11
0.033999
21
0.130423
31
0.0
0
LINE
8
0
6
CONTINUOUS
10
0.035309
20
0.132050
30
0.0
11
0.034824
21
0.131448
31
0.0
0
LINE
8
0
6
CONTINUOUS
10
0.038981
20
0.135896
30
0.0
11
0.039806
21
0.136921
31
0.0
0
LINE
8
0
6
CONTINUOUS
10
0.039806
20
0.136921
30
0.0
11
0.040291
21
0.137523
31
0.0
0
LINE
8
0
6
CONTINUOUS
10
0.038981
20
0.135896
30
0.0
11
0.038642
21
0.135473
31
0.0
0
LINE
8
0
6
CONTINUOUS
10
0.039806
20
0.136921
30
0.0
11
0.038981
21
0.135896
31
0.0
0
LINE
8
0
6
CONTINUOUS
10
0.040291
20
0.137523
30
0.0
11
0.039806
21
0.136921
31
0.0
0
LINE
8
0
6
CONTINUOUS
10
0.045646
20
0.143370
30
0.0
11
0.044925
21
0.143944
31
0.0
0
LINE
8
0
6
CONTINUOUS
10
0.045081
20
0.142668
30
0.0
11
0.045646
21
0.143370
31
0.0
0
LINE
8
0
6
CONTINUOUS
10
0.044119
20
0.141473
30
0.0
11
0.043723
21
0.140981
31
0.0
0
LINE
8
0
6
CONTINUOUS
10
0.045081
20
0.142668
30
0.0
11
0.044119
21
0.141473
31
0.0
0
LINE
8
0
6
CONTINUOUS
10
0.045646
20
0.143370
30
0.0
11
0.045081
21
0.142668
31
0.0
0
LINE
8
0
6
CONTINUOUS
10
0.050278
20
0.148320
30
0.0
11
0.050686
21
0.148829
31
0.0
0
LINE
8
0
6
CONTINUOUS
10
0.049455
20
0.148975
30
0.0
11
0.050278
21
0.148320
31
0.0
0
LINE
8
0
6
CONTINUOUS
10
0.050686
20
0.148829
30
0.0
11
0.051679
21
0.150062
31
0.0
0
LINE
8
0
6
CONTINUOUS
10
0.052263
20
0.150787
30
0.0
11
0.051486
21
0.151406
31
0.0
0
LINE
8
0
6
CONTINUOUS
10
0.051679
20
0.150062
30
0.0
11
0.052263
21
0.150787
31
0.0
0
LINE
8
0
6
CONTINUOUS
10
0.050686
20
0.148829
30
0.0
11
0.050278
21
0.148320
31
0.0
0
LINE
8
0
6
CONTINUOUS
10
0.051679
20
0.150062
30
0.0
11
0.050686
21
0.148829
31
0.0
0
LINE
8
0
6
CONTINUOUS
10
0.052263
20
0.150787
30
0.0
11
0.051679
21
0.150062
31
0.0
0
LINE
8
0
6
CONTINUOUS
10
0.054296
20
0.154942
30
0.0
11
0.055092
21
0.154308
31
0.0
0
LINE
8
0
6
CONTINUOUS
10
0.055501
20
0.154817
30
0.0
11
0.056494
21
0.156050
31
0.0
0
LINE
8
0
6
CONTINUOUS
10
0.057078
20
0.156775
30
0.0
11
0.056282
21
0.157409
31
0.0
0
LINE
8
0
6
CONTINUOUS
10
0.055501
20
0.154817
30
0.0
11
0.055092
21
0.154308
31
0.0
0
LINE
8
0
6
CONTINUOUS
10
0.056494
20
0.156050
30
0.0
11
0.055501
21
0.154817
31
0.0
0
LINE
8
0
6
CONTINUOUS
10
0.057078
20
0.156775
30
0.0
11
0.056494
21
0.156050
31
0.0
0
LINE
8
0
6
CONTINUOUS
10
0.047255
20
0.145380
30
0.0
11
0.047651
21
0.145873
31
0.0
0
LINE
8
0
6
CONTINUOUS
10
0.046880
20
0.145679
30
0.0
11
0.047255
21
0.145380
31
0.0
0
LINE
8
0
6
CONTINUOUS
10
0.047651
20
0.145873
30
0.0
11
0.048612
21
0.147068
31
0.0
0
LINE
8
0
6
CONTINUOUS
10
0.047651
20
0.145873
30
0.0
11
0.047255
21
0.145380
31
0.0
0
LINE
8
0
6
CONTINUOUS
10
0.048612
20
0.147068
30
0.0
11
0.047651
21
0.145873
31
0.0
0
LINE
8
0
6
CONTINUOUS
10
0.049178
20
0.147770
30
0.0
11
0.048612
21
0.147068
31
0.0
0
LINE
8
0
6
CONTINUOUS
10
0.051739
20
0.151323
30
0.0
11
0.051921
21
0.151178
31
0.0
0
LINE
8
0
6
CONTINUOUS
10
0.052317
20
0.151671
30
0.0
11
0.053279
21
0.152866
31
0.0
0
LINE
8
0
6
CONTINUOUS
10
0.052317
20
0.151671
30
0.0
11
0.051921
21
0.151178
31
0.0
0
LINE
8
0
6
CONTINUOUS
10
0.053279
20
0.152866
30
0.0
11
0.052317
21
0.151671
31
0.0
0
LINE
8
0
6
CONTINUOUS
10
0.053844
20
0.153568
30
0.0
11
0.053279
21
0.152866
31
0.0
0
LINE
8
0
6
CONTINUOUS
10
0.041744
20
0.139326
30
0.0
11
0.042084
21
0.139749
31
0.0
0
LINE
8
0
6
CONTINUOUS
10
0.040908
20
0.139993
30
0.0
11
0.041744
21
0.139326
31
0.0
0
LINE
8
0
6
CONTINUOUS
10
0.042084
20
0.139749
30
0.0
11
0.042909
21
0.140774
31
0.0
0
LINE
8
0
6
CONTINUOUS
10
0.043394
20
0.141376
30
0.0
11
0.042640
21
0.141978
31
0.0
0
LINE
8
0
6
CONTINUOUS
10
0.042909
20
0.140774
30
0.0
11
0.043394
21
0.141376
31
0.0
0
LINE
8
0
6
CONTINUOUS
10
0.042084
20
0.139749
30
0.0
11
0.041744
21
0.139326
31
0.0
0
LINE
8
0
6
CONTINUOUS
10
0.042909
20
0.140774
30
0.0
11
0.042084
21
0.139749
31
0.0
0
LINE
8
0
6
CONTINUOUS
10
0.043394
20
0.141376
30
0.0
11
0.042909
21
0.140774
31
0.0
0
LINE
8
0
6
CONTINUOUS
10
0.045013
20
0.145080
30
0.0
11
0.045811
21
0.144444
31
0.0
0
LINE
8
0
6
CONTINUOUS
10
0.046177
20
0.144846
30
0.0
11
0.047002
21
0.145871
31
0.0
0
LINE
8
0
6
CONTINUOUS
10
0.047487
20
0.146473
30
0.0
11
0.046720
21
0.147084
31
0.0
0
LINE
8
0
6
CONTINUOUS
10
0.047002
20
0.145871
30
0.0
11
0.047487
21
0.146473
31
0.0
0
LINE
8
0
6
CONTINUOUS
10
0.046177
20
0.144846
30
0.0
11
0.045837
21
0.144423
31
0.0
0
LINE
8
0
6
CONTINUOUS
10
0.047002
20
0.145871
30
0.0
11
0.046177
21
0.144846
31
0.0
0
LINE
8
0
6
CONTINUOUS
10
0.047487
20
0.146473
30
0.0
11
0.047002
21
0.145871
31
0.0
0
LINE
8
0
6
CONTINUOUS
10
0.050739
20
0.150513
30
0.0
11
0.051079
21
0.150935
31
0.0
0
LINE
8
0
6
CONTINUOUS
10
0.049929
20
0.151159
30
0.0
11
0.050739
21
0.150513
31
0.0
0
LINE
8
0
6
CONTINUOUS
10
0.051079
20
0.150935
30
0.0
11
0.051904
21
0.151960
31
0.0
0
LINE
8
0
6
CONTINUOUS
10
0.052389
20
0.152563
30
0.0
11
0.051608
21
0.153186
31
0.0
0
LINE
8
0
6
CONTINUOUS
10
0.051079
20
0.150935
30
0.0
11
0.050739
21
0.150513
31
0.0
0
LINE
8
0
6
CONTINUOUS
10
0.051904
20
0.151960
30
0.0
11
0.051079
21
0.150935
31
0.0
0
LINE
8
0
6
CONTINUOUS
10
0.052389
20
0.152563
30
0.0
11
0.051904
21
0.151960
31
0.0
0
LINE
8
0
6
CONTINUOUS
10
0.048709
20
0.148719
30
0.0
11
0.049170
21
0.149293
31
0.0
0
LINE
8
0
6
CONTINUOUS
10
0.047879
20
0.149379
30
0.0
11
0.048709
21
0.148719
31
0.0
0
LINE
8
0
6
CONTINUOUS
10
0.049170
20
0.149293
30
0.0
11
0.049997
21
0.150321
31
0.0
0
LINE
8
0
6
CONTINUOUS
10
0.050363
20
0.150775
30
0.0
11
0.049601
21
0.151382
31
0.0
0
LINE
8
0
6
CONTINUOUS
10
0.049997
20
0.150321
30
0.0
11
0.050363
21
0.150775
31
0.0
0
LINE
8
0
6
CONTINUOUS
10
0.049170
20
0.149293
30
0.0
11
0.048709
21
0.148719
31
0.0
0
LINE
8
0
6
CONTINUOUS
10
0.049997
20
0.150321
30
0.0
11
0.049170
21
0.149293
31
0.0
0
LINE
8
0
6
CONTINUOUS
10
0.050363
20
0.150775
30
0.0
11
0.049997
21
0.150321
31
0.0
0
LINE
8
0
6
CONTINUOUS
10
0.043780
20
0.142585
30
0.0
11
0.044241
21
0.143159
31
0.0
0
LINE
8
0
6
CONTINUOUS
10
0.042935
20
0.143258
30
0.0
11
0.043780
21
0.142585
31
0.0
0
LINE
8
0
6
CONTINUOUS
10
0.044241
20
0.143159
30
0.0
11
0.045068
21
0.144187
31
0.0
0
LINE
8
0
6
CONTINUOUS
10
0.044241
20
0.143159
30
0.0
11
0.043780
21
0.142585
31
0.0
0
LINE
8
0
6
CONTINUOUS
10
0.045068
20
0.144187
30
0.0
11
0.044241
21
0.143159
31
0.0
0
LINE
8
0
6
CONTINUOUS
10
0.045435
20
0.144641
30
0.0
11
0.045068
21
0.144187
31
0.0
0
LINE
8
0
6
CONTINUOUS
10
0.039436
20
0.137193
30
0.0
11
0.039897
21
0.137767
31
0.0
0
LINE
8
0
6
CONTINUOUS
10
0.038576
20
0.137878
30
0.0
11
0.039436
21
0.137193
31
0.0
0
LINE
8
0
6
CONTINUOUS
10
0.039897
20
0.137767
30
0.0
11
0.040725
21
0.138795
31
0.0
0
LINE
8
0
6
CONTINUOUS
10
0.039897
20
0.137767
30
0.0
11
0.039436
21
0.137193
31
0.0
0
LINE
8
0
6
CONTINUOUS
10
0.040725
20
0.138795
30
0.0
11
0.039897
21
0.137767
31
0.0
0
LINE
8
0
6
CONTINUOUS
10
0.041091
20
0.139249
30
0.0
11
0.040725
21
0.138795
31
0.0
0
LINE
8
0
6
CONTINUOUS
10
0.036060
20
0.132985
30
0.0
11
0.036521
21
0.133558
31
0.0
0
LINE
8
0
6
CONTINUOUS
10
0.035192
20
0.133675
30
0.0
11
0.036060
21
0.132985
31
0.0
0
LINE
8
0
6
CONTINUOUS
10
0.036521
20
0.133558
30
0.0
11
0.036060
21
0.132985
31
0.0
0
LINE
8
0
6
CONTINUOUS
10
0.037348
20
0.134586
30
0.0
11
0.036521
21
0.133558
31
0.0
0
LINE
8
0
6
CONTINUOUS
10
0.037715
20
0.135041
30
0.0
11
0.037348
21
0.134586
31
0.0
0
LINE
8
0
6
CONTINUOUS
10
0.054510
20
0.154565
30
0.0
11
0.055180
21
0.154035
31
0.0
0
LINE
8
0
6
CONTINUOUS
10
0.061081
20
0.161364
30
0.0
11
0.061885
21
0.162362
31
0.0
0
LINE
8
0
6
CONTINUOUS
10
0.060167
20
0.160228
30
0.0
11
0.060057
21
0.160090
31
0.0
0
LINE
8
0
6
CONTINUOUS
10
0.061081
20
0.161364
30
0.0
11
0.060167
21
0.160228
31
0.0
0
LINE
8
0
6
CONTINUOUS
10
0.061885
20
0.162362
30
0.0
11
0.061081
21
0.161364
31
0.0
0
LINE
8
0
6
CONTINUOUS
10
0.059358
20
0.160610
30
0.0
11
0.060032
21
0.160068
31
0.0
0
LINE
8
0
6
CONTINUOUS
10
0.056071
20
0.155146
30
0.0
11
0.056982
21
0.156277
31
0.0
0
LINE
8
0
6
CONTINUOUS
10
0.056982
20
0.156277
30
0.0
11
0.057083
21
0.156402
31
0.0
0
LINE
8
0
6
CONTINUOUS
10
0.055262
20
0.154140
30
0.0
11
0.056071
21
0.155146
31
0.0
0
LINE
8
0
6
CONTINUOUS
10
0.054445
20
0.154805
30
0.0
11
0.055262
21
0.154140
31
0.0
0
LINE
8
0
6
CONTINUOUS
10
0.056982
20
0.156277
30
0.0
11
0.056071
21
0.155146
31
0.0
0
LINE
8
0
6
CONTINUOUS
10
0.057083
20
0.156402
30
0.0
11
0.056982
21
0.156277
31
0.0
0
LINE
8
0
6
CONTINUOUS
10
0.056071
20
0.155146
30
0.0
11
0.055262
21
0.154140
31
0.0
0
LINE
8
0
6
CONTINUOUS
10
0.053387
20
0.151803
30
0.0
11
0.052654
21
0.152387
31
0.0
0
LINE
8
0
6
CONTINUOUS
10
0.053082
20
0.151424
30
0.0
11
0.053387
21
0.151803
31
0.0
0
LINE
8
0
6
CONTINUOUS
10
0.052215
20
0.150356
30
0.0
11
0.053126
21
0.151486
31
0.0
0
LINE
8
0
6
CONTINUOUS
10
0.053227
20
0.151611
30
0.0
11
0.052498
21
0.152204
31
0.0
0
LINE
8
0
6
CONTINUOUS
10
0.053126
20
0.151486
30
0.0
11
0.053227
21
0.151611
31
0.0
0
LINE
8
0
6
CONTINUOUS
10
0.051406
20
0.149350
30
0.0
11
0.052215
21
0.150356
31
0.0
0
LINE
8
0
6
CONTINUOUS
10
0.053126
20
0.151486
30
0.0
11
0.052215
21
0.150356
31
0.0
0
LINE
8
0
6
CONTINUOUS
10
0.053227
20
0.151611
30
0.0
11
0.053126
21
0.151486
31
0.0
0
LINE
8
0
6
CONTINUOUS
10
0.052215
20
0.150356
30
0.0
11
0.051406
21
0.149350
31
0.0
0
LINE
8
0
6
CONTINUOUS
10
0.063032
20
0.163793
30
0.0
11
0.063942
21
0.164924
31
0.0
0
LINE
8
0
6
CONTINUOUS
10
0.064043
20
0.165049
30
0.0
11
0.063217
21
0.165721
31
0.0
0
LINE
8
0
6
CONTINUOUS
10
0.062223
20
0.162787
30
0.0
11
0.063032
21
0.163793
31
0.0
0
LINE
8
0
6
CONTINUOUS
10
0.063942
20
0.164924
30
0.0
11
0.063032
21
0.163793
31
0.0
0
LINE
8
0
6
CONTINUOUS
10
0.064043
20
0.165049
30
0.0
11
0.063942
21
0.164924
31
0.0
0
LINE
8
0
6
CONTINUOUS
10
0.063032
20
0.163793
30
0.0
11
0.062223
21
0.162787
31
0.0
0
LINE
8
0
6
CONTINUOUS
10
0.059444
20
0.159710
30
0.0
11
0.058964
21
0.160090
31
0.0
0
LINE
8
0
6
CONTINUOUS
10
0.058947
20
0.159092
30
0.0
11
0.059444
21
0.159710
31
0.0
0
LINE
8
0
6
CONTINUOUS
10
0.059444
20
0.159710
30
0.0
11
0.058947
21
0.159092
31
0.0
0
LINE
8
0
6
CONTINUOUS
10
0.064343
20
0.165791
30
0.0
11
0.063670
21
0.166323
31
0.0
0
LINE
8
0
6
CONTINUOUS
10
0.063845
20
0.165173
30
0.0
11
0.064343
21
0.165791
31
0.0
0
LINE
8
0
6
CONTINUOUS
10
0.064343
20
0.165791
30
0.0
11
0.063845
21
0.165173
31
0.0
0
LINE
8
0
6
CONTINUOUS
10
0.068539
20
0.171827
30
0.0
11
0.068058
21
0.171229
31
0.0
0
LINE
8
0
6
CONTINUOUS
10
0.046351
20
0.143436
30
0.0
11
0.046945
21
0.144175
31
0.0
0
LINE
8
0
6
CONTINUOUS
10
0.045500
20
0.144114
30
0.0
11
0.046351
21
0.143436
31
0.0
0
LINE
8
0
6
CONTINUOUS
10
0.046945
20
0.144175
30
0.0
11
0.046351
21
0.143436
31
0.0
0
LINE
8
0
6
CONTINUOUS
10
0.031273
20
0.128823
30
0.0
11
0.032128
21
0.128141
31
0.0
0
LINE
8
0
6
CONTINUOUS
10
0.038296
20
0.135047
30
0.0
11
0.038626
21
0.135457
31
0.0
0
LINE
8
0
6
CONTINUOUS
10
0.036979
20
0.133410
30
0.0
11
0.037473
21
0.134024
31
0.0
0
LINE
8
0
6
CONTINUOUS
10
0.037473
20
0.134024
30
0.0
11
0.038296
21
0.135047
31
0.0
0
LINE
8
0
6
CONTINUOUS
10
0.037473
20
0.134024
30
0.0
11
0.036979
21
0.133410
31
0.0
0
LINE
8
0
6
CONTINUOUS
10
0.038296
20
0.135047
30
0.0
11
0.037473
21
0.134024
31
0.0
0
LINE
8
0
6
CONTINUOUS
10
0.038626
20
0.135457
30
0.0
11
0.038296
21
0.135047
31
0.0
0
LINE
8
0
6
CONTINUOUS
10
0.040885
20
0.139213
30
0.0
11
0.041746
21
0.138527
31
0.0
0
LINE
8
0
6
CONTINUOUS
10
0.038386
20
0.135150
30
0.0
11
0.038880
21
0.135764
31
0.0
0
LINE
8
0
6
CONTINUOUS
10
0.038880
20
0.135764
30
0.0
11
0.038386
21
0.135150
31
0.0
0
LINE
8
0
6
CONTINUOUS
10
0.050209
20
0.148230
30
0.0
11
0.049537
21
0.148765
31
0.0
0
LINE
8
0
6
CONTINUOUS
10
0.048821
20
0.146505
30
0.0
11
0.049812
21
0.147737
31
0.0
0
LINE
8
0
6
CONTINUOUS
10
0.049812
20
0.147737
30
0.0
11
0.048821
21
0.146505
31
0.0
0
LINE
8
0
6
CONTINUOUS
10
0.050209
20
0.148230
30
0.0
11
0.049812
21
0.147737
31
0.0
0
LINE
8
0
6
CONTINUOUS
10
0.054410
20
0.153441
30
0.0
11
0.053899
21
0.153848
31
0.0
0
LINE
8
0
6
CONTINUOUS
10
0.054013
20
0.152948
30
0.0
11
0.054410
21
0.153441
31
0.0
0
LINE
8
0
6
CONTINUOUS
10
0.054013
20
0.152948
30
0.0
11
0.053022
21
0.151717
31
0.0
0
LINE
8
0
6
CONTINUOUS
10
0.054410
20
0.153441
30
0.0
11
0.054013
21
0.152948
31
0.0
0
LINE
8
0
6
CONTINUOUS
10
0.040678
20
0.138994
30
0.0
11
0.041174
21
0.138598
31
0.0
0
LINE
8
0
6
CONTINUOUS
10
0.045090
20
0.143477
30
0.0
11
0.045584
21
0.144091
31
0.0
0
LINE
8
0
6
CONTINUOUS
10
0.045584
20
0.144091
30
0.0
11
0.045090
21
0.143477
31
0.0
0
LINE
8
0
6
CONTINUOUS
10
0.039768
20
0.137593
30
0.0
11
0.040596
21
0.138621
31
0.0
0
LINE
8
0
6
CONTINUOUS
10
0.040596
20
0.138621
30
0.0
11
0.039768
21
0.137593
31
0.0
0
LINE
8
0
6
CONTINUOUS
10
0.077724
20
0.184754
30
0.0
11
0.077077
21
0.185275
31
0.0
0
LINE
8
0
6
CONTINUOUS
10
0.072920
20
0.178066
30
0.0
11
0.072777
21
0.177887
31
0.0
0
LINE
8
0
6
CONTINUOUS
10
0.073700
20
0.179035
30
0.0
11
0.072920
21
0.178066
31
0.0
0
LINE
8
0
6
CONTINUOUS
10
0.074335
20
0.179824
30
0.0
11
0.073700
21
0.179035
31
0.0
0
LINE
8
0
6
CONTINUOUS
10
0.069596
20
0.173139
30
0.0
11
0.069428
21
0.172931
31
0.0
0
LINE
8
0
6
CONTINUOUS
10
0.077249
20
0.185518
30
0.0
11
0.077923
21
0.184976
31
0.0
0
LINE
8
0
6
CONTINUOUS
10
0.078066
20
0.185155
30
0.0
11
0.077923
21
0.184976
31
0.0
0
LINE
8
0
6
CONTINUOUS
10
0.074250
20
0.179714
30
0.0
11
0.074394
21
0.179894
31
0.0
0
LINE
8
0
6
CONTINUOUS
10
0.074394
20
0.179894
30
0.0
11
0.074250
21
0.179714
31
0.0
0
LINE
8
0
6
CONTINUOUS
10
0.072219
20
0.176382
30
0.0
11
0.071340
21
0.177091
31
0.0
0
LINE
8
0
6
CONTINUOUS
10
0.071478
20
0.175462
30
0.0
11
0.072219
21
0.176382
31
0.0
0
LINE
8
0
6
CONTINUOUS
10
0.070403
20
0.174125
30
0.0
11
0.070570
21
0.174333
31
0.0
0
LINE
8
0
6
CONTINUOUS
10
0.070570
20
0.174333
30
0.0
11
0.071478
21
0.175462
31
0.0
0
LINE
8
0
6
CONTINUOUS
10
0.070570
20
0.174333
30
0.0
11
0.070403
21
0.174125
31
0.0
0
LINE
8
0
6
CONTINUOUS
10
0.071478
20
0.175462
30
0.0
11
0.070570
21
0.174333
31
0.0
0
LINE
8
0
6
CONTINUOUS
10
0.072219
20
0.176382
30
0.0
11
0.071478
21
0.175462
31
0.0
0
LINE
8
0
6
CONTINUOUS
10
0.067359
20
0.169537
30
0.0
11
0.068123
21
0.170487
31
0.0
0
LINE
8
0
6
CONTINUOUS
10
0.066248
20
0.168156
30
0.0
11
0.066421
21
0.168372
31
0.0
0
LINE
8
0
6
CONTINUOUS
10
0.066421
20
0.168372
30
0.0
11
0.067359
21
0.169537
31
0.0
0
LINE
8
0
6
CONTINUOUS
10
0.066421
20
0.168372
30
0.0
11
0.066248
21
0.168156
31
0.0
0
LINE
8
0
6
CONTINUOUS
10
0.067359
20
0.169537
30
0.0
11
0.066421
21
0.168372
31
0.0
0
LINE
8
0
6
CONTINUOUS
10
0.068123
20
0.170487
30
0.0
11
0.067359
21
0.169537
31
0.0
0
LINE
8
0
6
CONTINUOUS
10
0.064397
20
0.165867
30
0.0
11
0.064570
21
0.166082
31
0.0
0
LINE
8
0
6
CONTINUOUS
10
0.063644
20
0.166473
30
0.0
11
0.064397
21
0.165867
31
0.0
0
LINE
8
0
6
CONTINUOUS
10
0.064570
20
0.166082
30
0.0
11
0.065507
21
0.167248
31
0.0
0
LINE
8
0
6
CONTINUOUS
10
0.064570
20
0.166082
30
0.0
11
0.064397
21
0.165867
31
0.0
0
LINE
8
0
6
CONTINUOUS
10
0.065507
20
0.167248
30
0.0
11
0.064570
21
0.166082
31
0.0
0
LINE
8
0
6
CONTINUOUS
10
0.066272
20
0.168197
30
0.0
11
0.065507
21
0.167248
31
0.0
0
LINE
8
0
6
CONTINUOUS
10
0.070567
20
0.174359
30
0.0
11
0.071308
21
0.175279
31
0.0
0
LINE
8
0
6
CONTINUOUS
10
0.069492
20
0.173022
30
0.0
11
0.069659
21
0.173230
31
0.0
0
LINE
8
0
6
CONTINUOUS
10
0.068794
20
0.173584
30
0.0
11
0.069492
21
0.173022
31
0.0
0
LINE
8
0
6
CONTINUOUS
10
0.069659
20
0.173230
30
0.0
11
0.070567
21
0.174359
31
0.0
0
LINE
8
0
6
CONTINUOUS
10
0.069659
20
0.173230
30
0.0
11
0.069492
21
0.173022
31
0.0
0
LINE
8
0
6
CONTINUOUS
10
0.070567
20
0.174359
30
0.0
11
0.069659
21
0.173230
31
0.0
0
LINE
8
0
6
CONTINUOUS
10
0.071308
20
0.175279
30
0.0
11
0.070567
21
0.174359
31
0.0
0
LINE
8
0
6
CONTINUOUS
10
0.068487
20
0.171776
30
0.0
11
0.067982
21
0.172182
31
0.0
0
LINE
8
0
6
CONTINUOUS
10
0.067746
20
0.170856
30
0.0
11
0.068487
21
0.171776
31
0.0
0
LINE
8
0
6
CONTINUOUS
10
0.066838
20
0.169727
30
0.0
11
0.067746
21
0.170856
31
0.0
0
LINE
8
0
6
CONTINUOUS
10
0.066838
20
0.169727
30
0.0
11
0.066670
21
0.169518
31
0.0
0
LINE
8
0
6
CONTINUOUS
10
0.067746
20
0.170856
30
0.0
11
0.066838
21
0.169727
31
0.0
0
LINE
8
0
6
CONTINUOUS
10
0.068487
20
0.171776
30
0.0
11
0.067746
21
0.170856
31
0.0
0
LINE
8
0
6
CONTINUOUS
10
0.074538
20
0.180080
30
0.0
11
0.074394
21
0.179901
31
0.0
0
LINE
8
0
6
CONTINUOUS
10
0.075317
20
0.181048
30
0.0
11
0.074538
21
0.180080
31
0.0
0
LINE
8
0
6
CONTINUOUS
10
0.075952
20
0.181837
30
0.0
11
0.075317
21
0.181048
31
0.0
0
LINE
8
0
6
CONTINUOUS
10
0.074024
20
0.179458
30
0.0
11
0.074660
21
0.180247
31
0.0
0
LINE
8
0
6
CONTINUOUS
10
0.072374
20
0.178896
30
0.0
11
0.073101
21
0.178310
31
0.0
0
LINE
8
0
6
CONTINUOUS
10
0.073245
20
0.178489
30
0.0
11
0.074024
21
0.179458
31
0.0
0
LINE
8
0
6
CONTINUOUS
10
0.073245
20
0.178489
30
0.0
11
0.073101
21
0.178310
31
0.0
0
LINE
8
0
6
CONTINUOUS
10
0.074024
20
0.179458
30
0.0
11
0.073245
21
0.178489
31
0.0
0
LINE
8
0
6
CONTINUOUS
10
0.074660
20
0.180247
30
0.0
11
0.074024
21
0.179458
31
0.0
0
LINE
8
0
6
CONTINUOUS
10
0.071780
20
0.176655
30
0.0
11
0.071304
21
0.177039
31
0.0
0
LINE
8
0
6
CONTINUOUS
10
0.071145
20
0.175866
30
0.0
11
0.071780
21
0.176655
31
0.0
0
LINE
8
0
6
CONTINUOUS
10
0.070222
20
0.174718
30
0.0
11
0.070366
21
0.174898
31
0.0
0
LINE
8
0
6
CONTINUOUS
10
0.070366
20
0.174898
30
0.0
11
0.071145
21
0.175866
31
0.0
0
LINE
8
0
6
CONTINUOUS
10
0.070366
20
0.174898
30
0.0
11
0.070222
21
0.174718
31
0.0
0
LINE
8
0
6
CONTINUOUS
10
0.071145
20
0.175866
30
0.0
11
0.070366
21
0.174898
31
0.0
0
LINE
8
0
6
CONTINUOUS
10
0.071780
20
0.176655
30
0.0
11
0.071145
21
0.175866
31
0.0
0
LINE
8
0
6
CONTINUOUS
10
0.077576
20
0.184558
30
0.0
11
0.076936
21
0.185075
31
0.0
0
LINE
8
0
6
CONTINUOUS
10
0.076861
20
0.183670
30
0.0
11
0.077576
21
0.184558
31
0.0
0
LINE
8
0
6
CONTINUOUS
10
0.075418
20
0.183346
30
0.0
11
0.076135
21
0.182767
31
0.0
0
LINE
8
0
6
CONTINUOUS
10
0.076861
20
0.183670
30
0.0
11
0.076140
21
0.182774
31
0.0
0
LINE
8
0
6
CONTINUOUS
10
0.077576
20
0.184558
30
0.0
11
0.076861
21
0.183670
31
0.0
0
LINE
8
0
6
CONTINUOUS
10
0.077283
20
0.185663
30
0.0
11
0.078003
21
0.185081
31
0.0
0
LINE
8
0
6
CONTINUOUS
10
0.078009
20
0.185089
30
0.0
11
0.078729
21
0.185984
31
0.0
0
LINE
8
0
6
CONTINUOUS
10
0.078729
20
0.185984
30
0.0
11
0.078009
21
0.185089
31
0.0
0
LINE
8
0
6
CONTINUOUS
10
0.079445
20
0.186873
30
0.0
11
0.078729
21
0.185984
31
0.0
0
LINE
8
0
6
CONTINUOUS
10
0.080130
20
0.187738
30
0.0
11
0.079257
21
0.188443
31
0.0
0
LINE
8
0
6
CONTINUOUS
10
0.079415
20
0.186849
30
0.0
11
0.080130
21
0.187738
31
0.0
0
LINE
8
0
6
CONTINUOUS
10
0.080130
20
0.187738
30
0.0
11
0.079415
21
0.186849
31
0.0
0
LINE
8
0
6
CONTINUOUS
10
0.060789
20
0.161387
30
0.0
11
0.061787
21
0.162627
31
0.0
0
LINE
8
0
6
CONTINUOUS
10
0.062276
20
0.163235
30
0.0
11
0.061461
21
0.163880
31
0.0
0
LINE
8
0
6
CONTINUOUS
10
0.061787
20
0.162627
30
0.0
11
0.062276
21
0.163235
31
0.0
0
LINE
8
0
6
CONTINUOUS
10
0.060281
20
0.160755
30
0.0
11
0.060789
21
0.161387
31
0.0
0
LINE
8
0
6
CONTINUOUS
10
0.059496
20
0.161376
30
0.0
11
0.060281
21
0.160755
31
0.0
0
LINE
8
0
6
CONTINUOUS
10
0.061787
20
0.162627
30
0.0
11
0.060789
21
0.161387
31
0.0
0
LINE
8
0
6
CONTINUOUS
10
0.062276
20
0.163235
30
0.0
11
0.061787
21
0.162627
31
0.0
0
LINE
8
0
6
CONTINUOUS
10
0.060789
20
0.161387
30
0.0
11
0.060281
21
0.160755
31
0.0
0
LINE
8
0
6
CONTINUOUS
10
-0.074622
20
-0.212787
30
0.0
11
-0.072692
21
-0.212910
31
0.0
0
LINE
8
0
6
CONTINUOUS
10
-0.073703
20
-0.191594
30
0.0
11
-0.074622
21
-0.212787
31
0.0
0
LINE
8
0
6
CONTINUOUS
10
-0.072692
20
-0.212910
30
0.0
11
-0.068035
21
-0.213204
31
0.0
0
LINE
8
0
6
CONTINUOUS
10
-0.068035
20
-0.213204
30
0.0
11
-0.063377
21
-0.213499
31
0.0
0
LINE
8
0
6
CONTINUOUS
10
-0.063377
20
-0.213499
30
0.0
11
-0.061448
21
-0.213621
31
0.0
0
LINE
8
0
6
CONTINUOUS
10
-0.061448
20
-0.213621
30
0.0
11
-0.060510
21
-0.192016
31
0.0
0
LINE
8
0
6
CONTINUOUS
10
-0.073246
20
-0.169323
30
0.0
11
-0.073703
21
-0.191594
31
0.0
0
LINE
8
0
6
CONTINUOUS
10
-0.060510
20
-0.192016
30
0.0
11
-0.060049
21
-0.169593
31
0.0
0
LINE
8
0
6
CONTINUOUS
10
-0.072771
20
-0.145999
30
0.0
11
-0.073246
21
-0.169323
31
0.0
0
LINE
8
0
6
CONTINUOUS
10
-0.060049
20
-0.169593
30
0.0
11
-0.059577
21
-0.146399
31
0.0
0
LINE
8
0
6
CONTINUOUS
10
-0.071790
20
-0.121675
30
0.0
11
-0.072771
21
-0.145999
31
0.0
0
LINE
8
0
6
CONTINUOUS
10
-0.059577
20
-0.146399
30
0.0
11
-0.058613
21
-0.122455
31
0.0
0
LINE
8
0
6
CONTINUOUS
10
-0.069812
20
-0.096401
30
0.0
11
-0.071790
21
-0.121675
31
0.0
0
LINE
8
0
6
CONTINUOUS
10
-0.058613
20
-0.122455
30
0.0
11
-0.056685
21
-0.097784
31
0.0
0
LINE
8
0
6
CONTINUOUS
10
-0.066341
20
-0.070230
30
0.0
11
-0.069812
21
-0.096401
31
0.0
0
LINE
8
0
6
CONTINUOUS
10
-0.056685
20
-0.097784
30
0.0
11
-0.053322
21
-0.072406
31
0.0
0
LINE
8
0
6
CONTINUOUS
10
-0.060981
20
-0.043723
30
0.0
11
-0.066341
21
-0.070230
31
0.0
0
LINE
8
0
6
CONTINUOUS
10
-0.053322
20
-0.072406
30
0.0
11
-0.048094
21
-0.046543
31
0.0
0
LINE
8
0
6
CONTINUOUS
10
-0.048474
20
-0.046460
30
0.0
11
-0.047275
21
-0.046724
31
0.0
0
LINE
8
0
6
CONTINUOUS
10
-0.045989
20
-0.047002
30
0.0
11
-0.045692
21
-0.045980
31
0.0
0
LINE
8
0
6
CONTINUOUS
10
-0.045692
20
-0.045980
30
0.0
11
-0.032750
21
-0.001467
31
0.0
0
LINE
8
0
6
CONTINUOUS
10
-0.032496
20
-0.000593
30
0.0
11
-0.032682
21
-0.000550
31
0.0
0
LINE
8
0
6
CONTINUOUS
10
-0.032750
20
-0.001467
30
0.0
11
-0.032496
21
-0.000593
31
0.0
0
LINE
8
0
6
CONTINUOUS
10
-0.064509
20
-0.042956
30
0.0
11
-0.062648
21
-0.043360
31
0.0
0
LINE
8
0
6
CONTINUOUS
10
-0.056485
20
-0.044704
30
0.0
11
-0.054845
21
-0.045063
31
0.0
0
LINE
8
0
6
CONTINUOUS
10
-0.065598
20
-0.042722
30
0.0
11
-0.064509
21
-0.042956
31
0.0
0
LINE
8
0
6
CONTINUOUS
10
-0.049975
20
-0.046130
30
0.0
11
-0.048474
21
-0.046460
31
0.0
0
LINE
8
0
6
CONTINUOUS
10
-0.058097
20
-0.044352
30
0.0
11
-0.056485
21
-0.044704
31
0.0
0
LINE
8
0
6
CONTINUOUS
10
-0.046965
20
-0.046791
30
0.0
11
-0.046115
21
-0.046975
31
0.0
0
LINE
8
0
6
CONTINUOUS
10
-0.062648
20
-0.043360
30
0.0
11
-0.060523
21
-0.043823
31
0.0
0
LINE
8
0
6
CONTINUOUS
10
-0.066040
20
-0.042630
30
0.0
11
-0.065598
21
-0.042722
31
0.0
0
LINE
8
0
6
CONTINUOUS
10
-0.066581
20
-0.042511
30
0.0
11
-0.066040
21
-0.042630
31
0.0
0
LINE
8
0
6
CONTINUOUS
10
-0.060523
20
-0.043823
30
0.0
11
-0.058097
21
-0.044352
31
0.0
0
LINE
8
0
6
CONTINUOUS
10
-0.051563
20
-0.045782
30
0.0
11
-0.049975
21
-0.046130
31
0.0
0
LINE
8
0
6
CONTINUOUS
10
-0.054845
20
-0.045063
30
0.0
11
-0.053188
21
-0.045426
31
0.0
0
LINE
8
0
6
CONTINUOUS
10
-0.053188
20
-0.045426
30
0.0
11
-0.051563
21
-0.045782
31
0.0
0
LINE
8
0
6
CONTINUOUS
10
-0.081651
20
-0.039212
30
0.0
11
-0.066581
21
-0.042511
31
0.0
0
LINE
8
0
6
CONTINUOUS
10
-0.044183
20
0.002128
30
0.0
11
-0.081648
21
0.010807
31
0.0
0
LINE
8
0
6
CONTINUOUS
10
-0.042362
20
0.001706
30
0.0
11
-0.044183
21
0.002128
31
0.0
0
LINE
8
0
6
CONTINUOUS
10
-0.082506
20
0.010948
30
0.0
11
-0.082506
21
0.010007
31
0.0
0
LINE
8
0
6
CONTINUOUS
10
-0.081648
20
0.010807
30
0.0
11
-0.082493
21
0.011003
31
0.0
0
LINE
8
0
6
CONTINUOUS
10
-0.035251
20
0.000054
30
0.0
11
-0.036934
21
0.000447
31
0.0
0
LINE
8
0
6
CONTINUOUS
10
-0.047078
20
-0.046767
30
0.0
11
-0.046965
21
-0.046791
31
0.0
0
LINE
8
0
6
CONTINUOUS
10
-0.047275
20
-0.046724
30
0.0
11
-0.047078
21
-0.046767
31
0.0
0
LINE
8
0
6
CONTINUOUS
10
-0.038720
20
0.000862
30
0.0
11
-0.040541
21
0.001284
31
0.0
0
LINE
8
0
6
CONTINUOUS
10
-0.036934
20
0.000447
30
0.0
11
-0.038720
21
0.000862
31
0.0
0
LINE
8
0
6
CONTINUOUS
10
-0.040541
20
0.001284
30
0.0
11
-0.042362
21
0.001706
31
0.0
0
LINE
8
0
6
CONTINUOUS
10
-0.032682
20
-0.000550
30
0.0
11
-0.033816
21
-0.000283
31
0.0
0
LINE
8
0
6
CONTINUOUS
10
-0.033816
20
-0.000283
30
0.0
11
-0.035251
21
0.000054
31
0.0
0
LINE
8
0
6
CONTINUOUS
10
-0.082499
20
-0.039026
30
0.0
11
-0.081651
21
-0.039212
31
0.0
0
LINE
8
0
6
CONTINUOUS
10
0.059951
20
0.162050
30
0.0
11
0.060918
21
0.163315
31
0.0
0
LINE
8
0
6
CONTINUOUS
10
0.059951
20
0.162050
30
0.0
11
0.059857
21
0.161888
31
0.0
0
LINE
8
0
6
CONTINUOUS
10
0.060979
20
0.164951
30
0.0
11
0.060621
21
0.164375
31
0.0
0
LINE
8
0
6
CONTINUOUS
10
0.072515
20
0.179830
30
0.0
11
0.072423
21
0.179691
31
0.0
0
LINE
8
0
6
CONTINUOUS
10
0.037392
20
0.135519
30
0.0
11
0.037921
21
0.136087
31
0.0
0
LINE
8
0
6
CONTINUOUS
10
0.040236
20
0.139724
30
0.0
11
0.040354
21
0.139836
31
0.0
0
LINE
8
0
6
CONTINUOUS
10
0.042091
20
0.141426
30
0.0
11
0.042640
21
0.141978
31
0.0
0
LINE
8
0
6
CONTINUOUS
10
0.044630
20
0.145185
30
0.0
11
0.044686
21
0.145237
31
0.0
0
LINE
8
0
6
CONTINUOUS
10
0.046170
20
0.146534
30
0.0
11
0.046720
21
0.147084
31
0.0
0
LINE
8
0
6
CONTINUOUS
10
0.050221
20
0.151619
30
0.0
11
0.049929
21
0.151159
31
0.0
0
LINE
8
0
6
CONTINUOUS
10
0.055689
20
0.158382
30
0.0
11
0.055326
21
0.157826
31
0.0
0
LINE
8
0
6
CONTINUOUS
10
0.057986
20
0.160535
30
0.0
11
0.058536
21
0.161063
31
0.0
0
LINE
8
0
6
CONTINUOUS
10
0.047764
20
0.147743
30
0.0
11
0.048424
21
0.148370
31
0.0
0
LINE
8
0
6
CONTINUOUS
10
0.054645
20
0.155498
30
0.0
11
0.054480
21
0.155207
31
0.0
0
LINE
8
0
6
CONTINUOUS
10
0.065080
20
0.170826
30
0.0
11
0.065425
21
0.171123
31
0.0
0
LINE
8
0
6
CONTINUOUS
10
0.064277
20
0.169801
30
0.0
11
0.063819
21
0.169074
31
0.0
0
LINE
8
0
6
CONTINUOUS
10
0.075480
20
0.183512
30
0.0
11
0.076018
21
0.184351
31
0.0
0
LINE
8
0
6
CONTINUOUS
10
0.073917
20
0.181768
30
0.0
11
0.073945
21
0.181806
31
0.0
0
LINE
8
0
6
CONTINUOUS
10
0.031646
20
0.129293
30
0.0
11
0.032564
21
0.130243
31
0.0
0
LINE
8
0
6
CONTINUOUS
10
0.032564
20
0.130243
30
0.0
11
0.032808
21
0.130488
31
0.0
0
LINE
8
0
6
CONTINUOUS
10
0.033125
20
0.131120
30
0.0
11
0.032777
21
0.130704
31
0.0
0
LINE
8
0
6
CONTINUOUS
10
0.059063
20
0.163364
30
0.0
11
0.059888
21
0.164371
31
0.0
0
LINE
8
0
6
CONTINUOUS
10
0.068965
20
0.175595
30
0.0
11
0.069698
21
0.176592
31
0.0
0
LINE
8
0
6
CONTINUOUS
10
0.072868
20
0.180429
30
0.0
11
0.073629
21
0.181487
31
0.0
0
LINE
8
0
6
CONTINUOUS
10
0.072868
20
0.180429
30
0.0
11
0.072515
21
0.179830
31
0.0
0
LINE
8
0
6
CONTINUOUS
10
0.035655
20
0.134248
30
0.0
11
0.036556
21
0.135217
31
0.0
0
LINE
8
0
6
CONTINUOUS
10
0.036556
20
0.135217
30
0.0
11
0.036764
21
0.135409
31
0.0
0
LINE
8
0
6
CONTINUOUS
10
0.039912
20
0.139442
30
0.0
11
0.040236
21
0.139724
31
0.0
0
LINE
8
0
6
CONTINUOUS
10
0.039021
20
0.138465
30
0.0
11
0.039912
21
0.139442
31
0.0
0
LINE
8
0
6
CONTINUOUS
10
0.044238
20
0.144848
30
0.0
11
0.044630
21
0.145185
31
0.0
0
LINE
8
0
6
CONTINUOUS
10
0.043361
20
0.143860
30
0.0
11
0.042935
21
0.143258
31
0.0
0
LINE
8
0
6
CONTINUOUS
10
0.043361
20
0.143860
30
0.0
11
0.044238
21
0.144848
31
0.0
0
LINE
8
0
6
CONTINUOUS
10
0.048288
20
0.149995
30
0.0
11
0.047879
21
0.149379
31
0.0
0
LINE
8
0
6
CONTINUOUS
10
0.049149
20
0.150996
30
0.0
11
0.049601
21
0.151382
31
0.0
0
LINE
8
0
6
CONTINUOUS
10
0.053606
20
0.156576
30
0.0
11
0.053255
21
0.155994
31
0.0
0
LINE
8
0
6
CONTINUOUS
10
0.054446
20
0.157598
30
0.0
11
0.054934
21
0.158038
31
0.0
0
ENDSEC
0
EOF
