999
unknown String-ID: 20550
0
SECTION
2
HEADER
9
$ACADVER
1
AC1009
9
$DWGCODEPAGE
3
unknown String-ID: 20561
0
ENDSEC
0
SECTION
2
TABLES
0
TABLE
2
LAYER
70
1
0
LAYER
2
0
70
0
62
7
6
CONTINUOUS
0
ENDTAB
0
ENDSEC
0
SECTION
2
ENTITIES
0
LINE
8
0
6
CONTINUOUS
10
0.010906
20
0.000507
30
0.0
11
0.011346
21
0.008373
31
0.0
0
LINE
8
0
6
CONTINUOUS
10
-0.012065
20
0.008416
30
0.0
11
-0.011601
21
0.000108
31
0.0
0
LINE
8
0
6
CONTINUOUS
10
-0.007570
20
-0.020721
30
0.0
11
-0.005467
21
-0.021112
31
0.0
0
LINE
8
0
6
CONTINUOUS
10
0.002252
20
-0.021362
30
0.0
11
0.004708
21
-0.021118
31
0.0
0
LINE
8
0
6
CONTINUOUS
10
-0.009182
20
-0.020212
30
0.0
11
-0.007570
21
-0.020721
31
0.0
0
LINE
8
0
6
CONTINUOUS
10
-0.000383
20
-0.021444
30
0.0
11
0.002252
21
-0.021362
31
0.0
0
LINE
8
0
6
CONTINUOUS
10
0.008441
20
-0.020222
30
0.0
11
0.008568
21
-0.020148
31
0.0
0
LINE
8
0
6
CONTINUOUS
10
-0.009905
20
-0.019788
30
0.0
11
-0.009182
21
-0.020212
31
0.0
0
LINE
8
0
6
CONTINUOUS
10
-0.003015
20
-0.021359
30
0.0
11
-0.000383
21
-0.021444
31
0.0
0
LINE
8
0
6
CONTINUOUS
10
0.006819
20
-0.020729
30
0.0
11
0.008441
21
-0.020222
31
0.0
0
LINE
8
0
6
CONTINUOUS
10
-0.005467
20
-0.021112
30
0.0
11
-0.003015
21
-0.021359
31
0.0
0
LINE
8
0
6
CONTINUOUS
10
0.004708
20
-0.021118
30
0.0
11
0.006819
21
-0.020729
31
0.0
0
LINE
8
0
6
CONTINUOUS
10
-0.013157
20
0.125325
30
0.0
11
-0.013130
21
0.116922
31
0.0
0
LINE
8
0
6
CONTINUOUS
10
-0.014722
20
0.114175
30
0.0
11
-0.014723
21
0.113801
31
0.0
0
LINE
8
0
6
CONTINUOUS
10
-0.014986
20
0.010456
30
0.0
11
-0.014987
21
0.009732
31
0.0
0
LINE
8
0
6
CONTINUOUS
10
-0.014987
20
0.009732
30
0.0
11
-0.014452
21
0.008938
31
0.0
0
LINE
8
0
6
CONTINUOUS
10
-0.014452
20
0.008938
30
0.0
11
-0.011969
21
0.008395
31
0.0
0
LINE
8
0
6
CONTINUOUS
10
-0.011470
20
0.008340
30
0.0
11
-0.008284
21
0.007987
31
0.0
0
LINE
8
0
6
CONTINUOUS
10
-0.004390
20
0.007723
30
0.0
11
-0.000350
21
0.007645
31
0.0
0
LINE
8
0
6
CONTINUOUS
10
-0.008284
20
0.007987
30
0.0
11
-0.004390
21
0.007723
31
0.0
0
LINE
8
0
6
CONTINUOUS
10
-0.013146
20
0.122065
30
0.0
11
-0.014376
21
0.120503
31
0.0
0
LINE
8
0
6
CONTINUOUS
10
-0.014376
20
0.120503
30
0.0
11
-0.014406
21
0.120064
31
0.0
0
LINE
8
0
6
CONTINUOUS
10
-0.014719
20
0.115348
30
0.0
11
-0.014722
21
0.114175
31
0.0
0
LINE
8
0
6
CONTINUOUS
10
-0.013130
20
0.116922
30
0.0
11
-0.013128
21
0.116504
31
0.0
0
LINE
8
0
6
CONTINUOUS
10
-0.014689
20
0.115804
30
0.0
11
-0.014719
21
0.115348
31
0.0
0
LINE
8
0
6
CONTINUOUS
10
-0.014406
20
0.120064
30
0.0
11
-0.014689
21
0.115804
31
0.0
0
LINE
8
0
6
CONTINUOUS
10
-0.011969
20
0.008395
30
0.0
11
-0.011470
21
0.008340
31
0.0
0
LINE
8
0
6
CONTINUOUS
10
-0.014723
20
0.113801
30
0.0
11
-0.014986
21
0.010456
31
0.0
0
LINE
8
0
6
CONTINUOUS
10
0.012873
20
0.116877
30
0.0
11
0.012938
21
0.125273
31
0.0
0
LINE
8
0
6
CONTINUOUS
10
0.014455
20
0.113752
30
0.0
11
0.014455
21
0.114125
31
0.0
0
LINE
8
0
6
CONTINUOUS
10
0.013744
20
0.008890
30
0.0
11
0.014275
21
0.009682
31
0.0
0
LINE
8
0
6
CONTINUOUS
10
0.014275
20
0.009682
30
0.0
11
0.014276
21
0.010406
31
0.0
0
LINE
8
0
6
CONTINUOUS
10
0.011264
20
0.008356
30
0.0
11
0.013744
21
0.008890
31
0.0
0
LINE
8
0
6
CONTINUOUS
10
0.007581
20
0.007960
30
0.0
11
0.010765
21
0.008302
31
0.0
0
LINE
8
0
6
CONTINUOUS
10
-0.000350
20
0.007645
30
0.0
11
0.003689
21
0.007709
31
0.0
0
LINE
8
0
6
CONTINUOUS
10
0.003689
20
0.007709
30
0.0
11
0.007581
21
0.007960
31
0.0
0
LINE
8
0
6
CONTINUOUS
10
0.014118
20
0.120454
30
0.0
11
0.012913
21
0.121989
31
0.0
0
LINE
8
0
6
CONTINUOUS
10
0.014146
20
0.120015
30
0.0
11
0.014118
21
0.120454
31
0.0
0
LINE
8
0
6
CONTINUOUS
10
0.014455
20
0.114125
30
0.0
11
0.014457
21
0.115298
31
0.0
0
LINE
8
0
6
CONTINUOUS
10
0.012870
20
0.116459
30
0.0
11
0.012873
21
0.116877
31
0.0
0
LINE
8
0
6
CONTINUOUS
10
0.014457
20
0.115298
30
0.0
11
0.014427
21
0.115755
31
0.0
0
LINE
8
0
6
CONTINUOUS
10
0.014427
20
0.115755
30
0.0
11
0.014146
21
0.120015
31
0.0
0
LINE
8
0
6
CONTINUOUS
10
0.010765
20
0.008302
30
0.0
11
0.011264
21
0.008356
31
0.0
0
LINE
8
0
6
CONTINUOUS
10
0.014276
20
0.010406
30
0.0
11
0.014455
21
0.113752
31
0.0
0
LINE
8
0
6
CONTINUOUS
10
-0.027680
20
0.186369
30
0.0
11
-0.019232
21
0.190487
31
0.0
0
LINE
8
0
6
CONTINUOUS
10
-0.019232
20
0.190487
30
0.0
11
-0.009817
21
0.193035
31
0.0
0
LINE
8
0
6
CONTINUOUS
10
-0.009817
20
0.193035
30
0.0
11
0.000089
21
0.193972
31
0.0
0
LINE
8
0
6
CONTINUOUS
10
0.000089
20
0.193972
30
0.0
11
0.009990
21
0.193001
31
0.0
0
LINE
8
0
6
CONTINUOUS
10
0.009990
20
0.193001
30
0.0
11
0.019447
21
0.190582
31
0.0
0
LINE
8
0
6
CONTINUOUS
10
0.034852
20
0.180772
30
0.0
11
0.040136
21
0.174189
31
0.0
0
LINE
8
0
6
CONTINUOUS
10
0.040136
20
0.174189
30
0.0
11
0.043409
21
0.166855
31
0.0
0
LINE
8
0
6
CONTINUOUS
10
0.043409
20
0.166855
30
0.0
11
0.044505
21
0.159138
31
0.0
0
LINE
8
0
6
CONTINUOUS
10
-0.043475
20
0.151591
30
0.0
11
-0.044508
21
0.159290
31
0.0
0
LINE
8
0
6
CONTINUOUS
10
-0.043659
20
0.152249
30
0.0
11
-0.043475
21
0.151591
31
0.0
0
LINE
8
0
6
CONTINUOUS
10
0.049765
20
0.169372
30
0.0
11
0.048540
21
0.178001
31
0.0
0
LINE
8
0
6
CONTINUOUS
10
0.050019
20
0.165100
30
0.0
11
0.049765
21
0.169372
31
0.0
0
LINE
8
0
6
CONTINUOUS
10
-0.048056
20
0.180146
30
0.0
11
-0.048492
21
0.178166
31
0.0
0
LINE
8
0
6
CONTINUOUS
10
-0.046626
20
0.183972
30
0.0
11
-0.047440
21
0.182089
31
0.0
0
LINE
8
0
6
CONTINUOUS
10
-0.043067
20
0.191845
30
0.0
11
-0.046626
21
0.183972
31
0.0
0
LINE
8
0
6
CONTINUOUS
10
0.048540
20
0.178001
30
0.0
11
0.048105
21
0.179982
31
0.0
0
LINE
8
0
6
CONTINUOUS
10
0.046676
20
0.183813
30
0.0
11
0.043158
21
0.191698
31
0.0
0
LINE
8
0
6
CONTINUOUS
10
0.047489
20
0.181927
30
0.0
11
0.046676
21
0.183813
31
0.0
0
LINE
8
0
6
CONTINUOUS
10
-0.049762
20
0.169542
30
0.0
11
-0.050019
21
0.165271
31
0.0
0
LINE
8
0
6
CONTINUOUS
10
-0.048492
20
0.178166
30
0.0
11
-0.049762
21
0.169542
31
0.0
0
LINE
8
0
6
CONTINUOUS
10
-0.047440
20
0.182089
30
0.0
11
-0.048056
21
0.180146
31
0.0
0
LINE
8
0
6
CONTINUOUS
10
0.048105
20
0.179982
30
0.0
11
0.047489
21
0.181927
31
0.0
0
LINE
8
0
6
CONTINUOUS
10
-0.050019
20
0.165271
30
0.0
11
-0.050019
21
0.165117
31
0.0
0
LINE
8
0
6
CONTINUOUS
10
0.050019
20
0.164947
30
0.0
11
0.050019
21
0.165100
31
0.0
0
LINE
8
0
6
CONTINUOUS
10
-0.050019
20
0.164901
30
0.0
11
-0.050019
21
0.164282
31
0.0
0
LINE
8
0
6
CONTINUOUS
10
0.050019
20
0.164112
30
0.0
11
0.050019
21
0.164731
31
0.0
0
LINE
8
0
6
CONTINUOUS
10
-0.044508
20
0.159290
30
0.0
11
-0.043435
21
0.167043
31
0.0
0
LINE
8
0
6
CONTINUOUS
10
0.019556
20
0.127812
30
0.0
11
0.009982
21
0.125220
31
0.0
0
LINE
8
0
6
CONTINUOUS
10
0.009982
20
0.125220
30
0.0
11
-0.000094
21
0.124353
31
0.0
0
LINE
8
0
6
CONTINUOUS
10
-0.000094
20
0.124353
30
0.0
11
-0.010164
21
0.125255
31
0.0
0
LINE
8
0
6
CONTINUOUS
10
-0.040826
20
0.144387
30
0.0
11
-0.044154
21
0.151846
31
0.0
0
LINE
8
0
6
CONTINUOUS
10
0.028150
20
0.131999
30
0.0
11
0.019556
21
0.127812
31
0.0
0
LINE
8
0
6
CONTINUOUS
10
-0.030288
20
0.132022
30
0.0
11
-0.021113
21
0.127509
31
0.0
0
LINE
8
0
6
CONTINUOUS
10
0.010685
20
0.124663
30
0.0
11
0.020934
21
0.127437
31
0.0
0
LINE
8
0
6
CONTINUOUS
10
0.044601
20
0.146084
30
0.0
11
0.048287
21
0.154237
31
0.0
0
LINE
8
0
6
CONTINUOUS
10
-0.037945
20
0.138012
30
0.0
11
-0.030288
21
0.132022
31
0.0
0
LINE
8
0
6
CONTINUOUS
10
0.038678
20
0.138774
30
0.0
11
0.044601
21
0.146084
31
0.0
0
LINE
8
0
6
CONTINUOUS
10
0.037820
20
0.137882
30
0.0
11
0.038678
21
0.138774
31
0.0
0
LINE
8
0
6
CONTINUOUS
10
-0.000099
20
0.123735
30
0.0
11
0.010685
21
0.124663
31
0.0
0
LINE
8
0
6
CONTINUOUS
10
-0.044689
20
0.146236
30
0.0
11
-0.038805
21
0.138906
31
0.0
0
LINE
8
0
6
CONTINUOUS
10
-0.038805
20
0.138906
30
0.0
11
-0.037945
21
0.138012
31
0.0
0
LINE
8
0
6
CONTINUOUS
10
-0.010879
20
0.124700
30
0.0
11
-0.000099
21
0.123735
31
0.0
0
LINE
8
0
6
CONTINUOUS
10
0.030132
20
0.131919
30
0.0
11
0.037820
21
0.137882
31
0.0
0
LINE
8
0
6
CONTINUOUS
10
-0.048333
20
0.154401
30
0.0
11
-0.044689
21
0.146236
31
0.0
0
LINE
8
0
6
CONTINUOUS
10
-0.021113
20
0.127509
30
0.0
11
-0.010879
21
0.124700
31
0.0
0
LINE
8
0
6
CONTINUOUS
10
0.048287
20
0.154237
30
0.0
11
0.048742
21
0.155443
31
0.0
0
LINE
8
0
6
CONTINUOUS
10
0.048742
20
0.155443
30
0.0
11
0.050019
21
0.164112
31
0.0
0
LINE
8
0
6
CONTINUOUS
10
0.020934
20
0.127437
30
0.0
11
0.030132
21
0.131919
31
0.0
0
LINE
8
0
6
CONTINUOUS
10
0.039170
20
0.189123
30
0.0
11
0.031266
21
0.195306
31
0.0
0
LINE
8
0
6
CONTINUOUS
10
-0.039043
20
0.189256
30
0.0
11
-0.045021
21
0.181878
31
0.0
0
LINE
8
0
6
CONTINUOUS
10
0.000102
20
0.203861
30
0.0
11
-0.011031
21
0.202903
31
0.0
0
LINE
8
0
6
CONTINUOUS
10
-0.011031
20
0.202903
30
0.0
11
-0.021611
21
0.200039
31
0.0
0
LINE
8
0
6
CONTINUOUS
10
0.031266
20
0.195306
30
0.0
11
0.021794
21
0.199965
31
0.0
0
LINE
8
0
6
CONTINUOUS
10
0.050019
20
0.164809
30
0.0
11
0.048788
21
0.173482
31
0.0
0
LINE
8
0
6
CONTINUOUS
10
0.050019
20
0.164731
30
0.0
11
0.050019
21
0.164809
31
0.0
0
LINE
8
0
6
CONTINUOUS
10
-0.045021
20
0.181878
30
0.0
11
-0.048742
21
0.173648
31
0.0
0
LINE
8
0
6
CONTINUOUS
10
-0.048742
20
0.173648
30
0.0
11
-0.050019
21
0.164980
31
0.0
0
LINE
8
0
6
CONTINUOUS
10
-0.050019
20
0.164980
30
0.0
11
-0.050019
21
0.164901
31
0.0
0
LINE
8
0
6
CONTINUOUS
10
-0.021611
20
0.200039
30
0.0
11
-0.031107
21
0.195413
31
0.0
0
LINE
8
0
6
CONTINUOUS
10
0.021794
20
0.199965
30
0.0
11
0.011229
21
0.202865
31
0.0
0
LINE
8
0
6
CONTINUOUS
10
0.048788
20
0.173482
30
0.0
11
0.045110
21
0.181724
31
0.0
0
LINE
8
0
6
CONTINUOUS
10
-0.031107
20
0.195413
30
0.0
11
-0.039043
21
0.189256
31
0.0
0
LINE
8
0
6
CONTINUOUS
10
0.011229
20
0.202865
30
0.0
11
0.000102
21
0.203861
31
0.0
0
LINE
8
0
6
CONTINUOUS
10
0.045110
20
0.181724
30
0.0
11
0.039170
21
0.189123
31
0.0
0
LINE
8
0
6
CONTINUOUS
10
0.050009
20
0.164879
30
0.0
11
0.050019
21
0.164947
31
0.0
0
LINE
8
0
6
CONTINUOUS
10
-0.050019
20
0.165117
30
0.0
11
-0.050009
21
0.165047
31
0.0
0
LINE
8
0
6
CONTINUOUS
10
-0.036591
20
0.199932
30
0.0
11
-0.036969
21
0.199536
31
0.0
0
LINE
8
0
6
CONTINUOUS
10
-0.029152
20
0.205703
30
0.0
11
-0.036591
21
0.199932
31
0.0
0
LINE
8
0
6
CONTINUOUS
10
-0.020252
20
0.210039
30
0.0
11
-0.029152
21
0.205703
31
0.0
0
LINE
8
0
6
CONTINUOUS
10
-0.010335
20
0.212723
30
0.0
11
-0.020252
21
0.210039
31
0.0
0
LINE
8
0
6
CONTINUOUS
10
0.000099
20
0.213621
30
0.0
11
-0.010335
21
0.212723
31
0.0
0
LINE
8
0
6
CONTINUOUS
10
0.010529
20
0.212688
30
0.0
11
0.000099
21
0.213621
31
0.0
0
LINE
8
0
6
CONTINUOUS
10
0.020431
20
0.209969
30
0.0
11
0.010529
21
0.212688
31
0.0
0
LINE
8
0
6
CONTINUOUS
10
0.029309
20
0.205603
30
0.0
11
0.020431
21
0.209969
31
0.0
0
LINE
8
0
6
CONTINUOUS
10
0.036717
20
0.199807
30
0.0
11
0.029309
21
0.205603
31
0.0
0
LINE
8
0
6
CONTINUOUS
10
0.037096
20
0.199410
30
0.0
11
0.036717
21
0.199807
31
0.0
0
LINE
8
0
6
CONTINUOUS
10
-0.042630
20
0.192549
30
0.0
11
-0.043067
21
0.191845
31
0.0
0
LINE
8
0
6
CONTINUOUS
10
-0.036969
20
0.199536
30
0.0
11
-0.042630
21
0.192549
31
0.0
0
LINE
8
0
6
CONTINUOUS
10
0.042721
20
0.192404
30
0.0
11
0.037096
21
0.199410
31
0.0
0
LINE
8
0
6
CONTINUOUS
10
0.043158
20
0.191698
30
0.0
11
0.042721
21
0.192404
31
0.0
0
LINE
8
0
6
CONTINUOUS
10
-0.035335
20
0.181665
30
0.0
11
-0.040746
21
0.174988
31
0.0
0
LINE
8
0
6
CONTINUOUS
10
0.010161
20
0.193981
30
0.0
11
0.000090
21
0.194882
31
0.0
0
LINE
8
0
6
CONTINUOUS
10
0.019722
20
0.191357
30
0.0
11
0.010161
21
0.193981
31
0.0
0
LINE
8
0
6
CONTINUOUS
10
0.028294
20
0.187141
30
0.0
11
0.019722
21
0.191357
31
0.0
0
LINE
8
0
6
CONTINUOUS
10
0.035447
20
0.181545
30
0.0
11
0.028294
21
0.187141
31
0.0
0
LINE
8
0
6
CONTINUOUS
10
0.040823
20
0.174849
30
0.0
11
0.035447
21
0.181545
31
0.0
0
LINE
8
0
6
CONTINUOUS
10
0.035332
20
0.137570
30
0.0
11
0.040743
21
0.144248
31
0.0
0
LINE
8
0
6
CONTINUOUS
10
-0.028297
20
0.132095
30
0.0
11
-0.019725
21
0.127879
31
0.0
0
LINE
8
0
6
CONTINUOUS
10
-0.035450
20
0.137691
30
0.0
11
-0.028297
21
0.132095
31
0.0
0
LINE
8
0
6
CONTINUOUS
10
0.043495
20
0.151471
30
0.0
11
0.043615
21
0.152100
31
0.0
0
LINE
8
0
6
CONTINUOUS
10
0.044505
20
0.159138
30
0.0
11
0.043495
21
0.151471
31
0.0
0
LINE
8
0
6
CONTINUOUS
10
-0.040120
20
0.174376
30
0.0
11
-0.034793
21
0.180949
31
0.0
0
LINE
8
0
6
CONTINUOUS
10
-0.034793
20
0.180949
30
0.0
11
-0.027680
21
0.186369
31
0.0
0
LINE
8
0
6
CONTINUOUS
10
0.019447
20
0.190582
30
0.0
11
0.027818
21
0.186274
31
0.0
0
LINE
8
0
6
CONTINUOUS
10
0.027818
20
0.186274
30
0.0
11
0.034852
21
0.180772
31
0.0
0
LINE
8
0
6
CONTINUOUS
10
-0.019725
20
0.127879
30
0.0
11
-0.028297
21
0.132095
31
0.0
0
LINE
8
0
6
CONTINUOUS
10
-0.035335
20
0.181665
30
0.0
11
-0.028153
21
0.187237
31
0.0
0
LINE
8
0
6
CONTINUOUS
10
0.044110
20
0.151696
30
0.0
11
0.040743
21
0.144248
31
0.0
0
LINE
8
0
6
CONTINUOUS
10
0.035447
20
0.181545
30
0.0
11
0.040823
21
0.174849
31
0.0
0
LINE
8
0
6
CONTINUOUS
10
0.000090
20
0.194882
30
0.0
11
0.010161
21
0.193981
31
0.0
0
LINE
8
0
6
CONTINUOUS
10
-0.028297
20
0.132095
30
0.0
11
-0.035450
21
0.137691
31
0.0
0
LINE
8
0
6
CONTINUOUS
10
0.040743
20
0.144248
30
0.0
11
0.035332
21
0.137570
31
0.0
0
LINE
8
0
6
CONTINUOUS
10
0.010161
20
0.193981
30
0.0
11
0.019722
21
0.191357
31
0.0
0
LINE
8
0
6
CONTINUOUS
10
-0.028153
20
0.187237
30
0.0
11
-0.019559
21
0.191424
31
0.0
0
LINE
8
0
6
CONTINUOUS
10
-0.045269
20
0.159695
30
0.0
11
-0.044113
21
0.167540
31
0.0
0
LINE
8
0
6
CONTINUOUS
10
0.040823
20
0.174849
30
0.0
11
0.044151
21
0.167390
31
0.0
0
LINE
8
0
6
CONTINUOUS
10
-0.035450
20
0.137691
30
0.0
11
-0.040826
21
0.144387
31
0.0
0
LINE
8
0
6
CONTINUOUS
10
0.035332
20
0.137570
30
0.0
11
0.028150
21
0.131999
31
0.0
0
LINE
8
0
6
CONTINUOUS
10
0.044151
20
0.167390
30
0.0
11
0.045265
21
0.159541
31
0.0
0
LINE
8
0
6
CONTINUOUS
10
0.019722
20
0.191357
30
0.0
11
0.028294
21
0.187141
31
0.0
0
LINE
8
0
6
CONTINUOUS
10
-0.019559
20
0.191424
30
0.0
11
-0.009985
21
0.194015
31
0.0
0
LINE
8
0
6
CONTINUOUS
10
-0.044113
20
0.167540
30
0.0
11
-0.040746
21
0.174988
31
0.0
0
LINE
8
0
6
CONTINUOUS
10
-0.010164
20
0.125255
30
0.0
11
-0.019725
21
0.127879
31
0.0
0
LINE
8
0
6
CONTINUOUS
10
0.045265
20
0.159541
30
0.0
11
0.044110
21
0.151696
31
0.0
0
LINE
8
0
6
CONTINUOUS
10
0.028294
20
0.187141
30
0.0
11
0.035447
21
0.181545
31
0.0
0
LINE
8
0
6
CONTINUOUS
10
-0.009985
20
0.194015
30
0.0
11
0.000090
21
0.194882
31
0.0
0
LINE
8
0
6
CONTINUOUS
10
-0.040746
20
0.174988
30
0.0
11
-0.035335
21
0.181665
31
0.0
0
LINE
8
0
6
CONTINUOUS
10
-0.040746
20
0.174988
30
0.0
11
-0.044113
21
0.167540
31
0.0
0
LINE
8
0
6
CONTINUOUS
10
-0.028153
20
0.187237
30
0.0
11
-0.035335
21
0.181665
31
0.0
0
LINE
8
0
6
CONTINUOUS
10
-0.019559
20
0.191424
30
0.0
11
-0.028153
21
0.187237
31
0.0
0
LINE
8
0
6
CONTINUOUS
10
-0.009985
20
0.194015
30
0.0
11
-0.019559
21
0.191424
31
0.0
0
LINE
8
0
6
CONTINUOUS
10
0.000090
20
0.194882
30
0.0
11
-0.009985
21
0.194015
31
0.0
0
LINE
8
0
6
CONTINUOUS
10
0.044151
20
0.167390
30
0.0
11
0.040823
21
0.174849
31
0.0
0
LINE
8
0
6
CONTINUOUS
10
0.045265
20
0.159541
30
0.0
11
0.044151
21
0.167390
31
0.0
0
LINE
8
0
6
CONTINUOUS
10
0.044110
20
0.151696
30
0.0
11
0.045265
21
0.159541
31
0.0
0
LINE
8
0
6
CONTINUOUS
10
0.040743
20
0.144248
30
0.0
11
0.044110
21
0.151696
31
0.0
0
LINE
8
0
6
CONTINUOUS
10
0.028150
20
0.131999
30
0.0
11
0.035332
21
0.137570
31
0.0
0
LINE
8
0
6
CONTINUOUS
10
0.019556
20
0.127812
30
0.0
11
0.028150
21
0.131999
31
0.0
0
LINE
8
0
6
CONTINUOUS
10
0.009982
20
0.125220
30
0.0
11
0.019556
21
0.127812
31
0.0
0
LINE
8
0
6
CONTINUOUS
10
-0.000094
20
0.124353
30
0.0
11
0.009982
21
0.125220
31
0.0
0
LINE
8
0
6
CONTINUOUS
10
-0.010164
20
0.125255
30
0.0
11
-0.000094
21
0.124353
31
0.0
0
LINE
8
0
6
CONTINUOUS
10
-0.019725
20
0.127879
30
0.0
11
-0.010164
21
0.125255
31
0.0
0
LINE
8
0
6
CONTINUOUS
10
-0.040826
20
0.144387
30
0.0
11
-0.035450
21
0.137691
31
0.0
0
LINE
8
0
6
CONTINUOUS
10
-0.044154
20
0.151846
30
0.0
11
-0.040826
21
0.144387
31
0.0
0
LINE
8
0
6
CONTINUOUS
10
-0.045269
20
0.159695
30
0.0
11
-0.044154
21
0.151846
31
0.0
0
LINE
8
0
6
CONTINUOUS
10
-0.044154
20
0.151846
30
0.0
11
-0.045269
21
0.159695
31
0.0
0
LINE
8
0
6
CONTINUOUS
10
-0.044113
20
0.167540
30
0.0
11
-0.045269
21
0.159695
31
0.0
0
LINE
8
0
6
CONTINUOUS
10
-0.048788
20
0.155609
30
0.0
11
-0.048333
21
0.154401
31
0.0
0
LINE
8
0
6
CONTINUOUS
10
-0.050019
20
0.164282
30
0.0
11
-0.048788
21
0.155609
31
0.0
0
LINE
8
0
6
CONTINUOUS
10
-0.043435
20
0.167043
30
0.0
11
-0.040120
21
0.174376
31
0.0
0
LINE
8
0
6
CONTINUOUS
10
-0.040120
20
0.174376
30
0.0
11
-0.043435
21
0.167043
31
0.0
0
LINE
8
0
6
CONTINUOUS
10
-0.019232
20
0.190487
30
0.0
11
-0.027680
21
0.186369
31
0.0
0
LINE
8
0
6
CONTINUOUS
10
-0.009817
20
0.193035
30
0.0
11
-0.019232
21
0.190487
31
0.0
0
LINE
8
0
6
CONTINUOUS
10
0.000089
20
0.193972
30
0.0
11
-0.009817
21
0.193035
31
0.0
0
LINE
8
0
6
CONTINUOUS
10
0.009991
20
0.193001
30
0.0
11
0.000089
21
0.193972
31
0.0
0
LINE
8
0
6
CONTINUOUS
10
0.019447
20
0.190582
30
0.0
11
0.009991
21
0.193001
31
0.0
0
LINE
8
0
6
CONTINUOUS
10
0.040137
20
0.174189
30
0.0
11
0.034852
21
0.180772
31
0.0
0
LINE
8
0
6
CONTINUOUS
10
0.043409
20
0.166855
30
0.0
11
0.040137
21
0.174189
31
0.0
0
LINE
8
0
6
CONTINUOUS
10
0.044505
20
0.159138
30
0.0
11
0.043409
21
0.166855
31
0.0
0
LINE
8
0
6
CONTINUOUS
10
0.027719
20
0.132057
30
0.0
11
0.034839
21
0.137543
31
0.0
0
LINE
8
0
6
CONTINUOUS
10
0.019260
20
0.127932
30
0.0
11
0.027719
21
0.132057
31
0.0
0
LINE
8
0
6
CONTINUOUS
10
0.009842
20
0.125364
30
0.0
11
0.019260
21
0.127932
31
0.0
0
LINE
8
0
6
CONTINUOUS
10
-0.000092
20
0.124524
30
0.0
11
0.009842
21
0.125364
31
0.0
0
LINE
8
0
6
CONTINUOUS
10
-0.010002
20
0.125410
30
0.0
11
-0.000092
21
0.124524
31
0.0
0
LINE
8
0
6
CONTINUOUS
10
-0.019419
20
0.127992
30
0.0
11
-0.010002
21
0.125410
31
0.0
0
LINE
8
0
6
CONTINUOUS
10
0.034852
20
0.180772
30
0.0
11
0.027818
21
0.186274
31
0.0
0
LINE
8
0
6
CONTINUOUS
10
-0.043435
20
0.167043
30
0.0
11
-0.044508
21
0.159290
31
0.0
0
LINE
8
0
6
CONTINUOUS
10
-0.034793
20
0.180949
30
0.0
11
-0.040120
21
0.174376
31
0.0
0
LINE
8
0
6
CONTINUOUS
10
-0.027680
20
0.186369
30
0.0
11
-0.034793
21
0.180949
31
0.0
0
LINE
8
0
6
CONTINUOUS
10
0.043495
20
0.151471
30
0.0
11
0.044505
21
0.159138
31
0.0
0
LINE
8
0
6
CONTINUOUS
10
0.040175
20
0.144127
30
0.0
11
0.043495
21
0.151471
31
0.0
0
LINE
8
0
6
CONTINUOUS
10
0.034839
20
0.137543
30
0.0
11
0.040175
21
0.144127
31
0.0
0
LINE
8
0
6
CONTINUOUS
10
-0.027859
20
0.132145
30
0.0
11
-0.019419
21
0.127992
31
0.0
0
LINE
8
0
6
CONTINUOUS
10
-0.034956
20
0.137662
30
0.0
11
-0.027859
21
0.132145
31
0.0
0
LINE
8
0
6
CONTINUOUS
10
-0.040197
20
0.144247
30
0.0
11
-0.034956
21
0.137662
31
0.0
0
LINE
8
0
6
CONTINUOUS
10
-0.043475
20
0.151591
30
0.0
11
-0.040197
21
0.144247
31
0.0
0
LINE
8
0
6
CONTINUOUS
10
-0.044508
20
0.159290
30
0.0
11
-0.043475
21
0.151591
31
0.0
0
LINE
8
0
6
CONTINUOUS
10
0.027818
20
0.186274
30
0.0
11
0.019447
21
0.190582
31
0.0
0
LINE
8
0
6
CONTINUOUS
10
-0.024345
20
0.158634
30
0.0
11
-0.024328
21
0.159835
31
0.0
0
LINE
8
0
6
CONTINUOUS
10
-0.024347
20
0.159326
30
0.0
11
-0.024345
21
0.158634
31
0.0
0
LINE
8
0
6
CONTINUOUS
10
-0.024328
20
0.159835
30
0.0
11
-0.022984
21
0.160424
31
0.0
0
LINE
8
0
6
CONTINUOUS
10
-0.021658
20
0.159812
30
0.0
11
-0.021660
21
0.160382
31
0.0
0
LINE
8
0
6
CONTINUOUS
10
-0.022984
20
0.160424
30
0.0
11
-0.021658
21
0.159812
31
0.0
0
LINE
8
0
6
CONTINUOUS
10
-0.038054
20
0.155880
30
0.0
11
-0.038039
21
0.156910
31
0.0
0
LINE
8
0
6
CONTINUOUS
10
-0.038056
20
0.156576
30
0.0
11
-0.038054
21
0.155880
31
0.0
0
LINE
8
0
6
CONTINUOUS
10
0.001003
20
0.158568
30
0.0
11
0.002450
21
0.157005
31
0.0
0
LINE
8
0
6
CONTINUOUS
10
-0.001459
20
0.158374
30
0.0
11
0.001003
21
0.158568
31
0.0
0
LINE
8
0
6
CONTINUOUS
10
-0.022098
20
0.165014
30
0.0
11
-0.022081
21
0.166215
31
0.0
0
LINE
8
0
6
CONTINUOUS
10
-0.022100
20
0.165690
30
0.0
11
-0.022098
21
0.165014
31
0.0
0
LINE
8
0
6
CONTINUOUS
10
-0.029761
20
0.164284
30
0.0
11
-0.029746
21
0.165314
31
0.0
0
LINE
8
0
6
CONTINUOUS
10
-0.029763
20
0.164951
30
0.0
11
-0.029761
21
0.164284
31
0.0
0
LINE
8
0
6
CONTINUOUS
10
-0.029746
20
0.165314
30
0.0
11
-0.028593
21
0.165819
31
0.0
0
LINE
8
0
6
CONTINUOUS
10
-0.025964
20
0.170223
30
0.0
11
-0.025950
21
0.171253
31
0.0
0
LINE
8
0
6
CONTINUOUS
10
-0.025966
20
0.170880
30
0.0
11
-0.025964
21
0.170223
31
0.0
0
LINE
8
0
6
CONTINUOUS
10
-0.030632
20
0.175884
30
0.0
11
-0.029387
21
0.176232
31
0.0
0
LINE
8
0
6
CONTINUOUS
10
-0.005060
20
0.135504
30
0.0
11
-0.003854
21
0.135081
31
0.0
0
LINE
8
0
6
CONTINUOUS
10
-0.006133
20
0.134901
30
0.0
11
-0.005060
21
0.135504
31
0.0
0
LINE
8
0
6
CONTINUOUS
10
-0.006128
20
0.135519
30
0.0
11
-0.006133
21
0.134901
31
0.0
0
LINE
8
0
6
CONTINUOUS
10
-0.013024
20
0.132050
30
0.0
11
-0.011818
21
0.131628
31
0.0
0
LINE
8
0
6
CONTINUOUS
10
-0.014097
20
0.131448
30
0.0
11
-0.013024
21
0.132050
31
0.0
0
LINE
8
0
6
CONTINUOUS
10
-0.014091
20
0.132075
30
0.0
11
-0.014097
21
0.131448
31
0.0
0
LINE
8
0
6
CONTINUOUS
10
-0.011796
20
0.136076
30
0.0
11
-0.011790
21
0.136714
31
0.0
0
LINE
8
0
6
CONTINUOUS
10
-0.011930
20
0.137101
30
0.0
11
-0.011796
21
0.136076
31
0.0
0
LINE
8
0
6
CONTINUOUS
10
-0.013024
20
0.150787
30
0.0
11
-0.011572
21
0.150279
31
0.0
0
LINE
8
0
6
CONTINUOUS
10
-0.011411
20
0.149045
30
0.0
11
-0.011404
21
0.149665
31
0.0
0
LINE
8
0
6
CONTINUOUS
10
-0.011572
20
0.150279
30
0.0
11
-0.011411
21
0.149045
31
0.0
0
LINE
8
0
6
CONTINUOUS
10
-0.019841
20
0.147068
30
0.0
11
-0.018591
21
0.147770
31
0.0
0
LINE
8
0
6
CONTINUOUS
10
-0.019834
20
0.147743
30
0.0
11
-0.019841
21
0.147068
31
0.0
0
LINE
8
0
6
CONTINUOUS
10
-0.023489
20
0.152866
30
0.0
11
-0.022239
21
0.153568
31
0.0
0
LINE
8
0
6
CONTINUOUS
10
-0.023482
20
0.153554
30
0.0
11
-0.023489
21
0.152866
31
0.0
0
LINE
8
0
6
CONTINUOUS
10
-0.029147
20
0.152563
30
0.0
11
-0.027941
21
0.152140
31
0.0
0
LINE
8
0
6
CONTINUOUS
10
-0.033210
20
0.144187
30
0.0
11
-0.032023
21
0.144641
31
0.0
0
LINE
8
0
6
CONTINUOUS
10
-0.028136
20
0.138795
30
0.0
11
-0.026949
21
0.139249
31
0.0
0
LINE
8
0
6
CONTINUOUS
10
-0.021752
20
0.133558
30
0.0
11
-0.021665
21
0.134586
31
0.0
0
LINE
8
0
6
CONTINUOUS
10
-0.021747
20
0.134248
30
0.0
11
-0.021752
21
0.133558
31
0.0
0
LINE
8
0
6
CONTINUOUS
10
-0.019379
20
0.134467
30
0.0
11
-0.019375
21
0.135051
31
0.0
0
LINE
8
0
6
CONTINUOUS
10
-0.020478
20
0.135041
30
0.0
11
-0.019379
21
0.134467
31
0.0
0
LINE
8
0
6
CONTINUOUS
10
-0.021665
20
0.134586
30
0.0
11
-0.020478
21
0.135041
31
0.0
0
LINE
8
0
6
CONTINUOUS
10
0.005643
20
0.161675
30
0.0
11
0.006834
21
0.162497
31
0.0
0
LINE
8
0
6
CONTINUOUS
10
0.005651
20
0.162297
30
0.0
11
0.005643
21
0.161675
31
0.0
0
LINE
8
0
6
CONTINUOUS
10
0.002397
20
0.150212
30
0.0
11
0.003576
21
0.149379
31
0.0
0
LINE
8
0
6
CONTINUOUS
10
0.002734
20
0.151424
30
0.0
11
0.002397
21
0.150212
31
0.0
0
LINE
8
0
6
CONTINUOUS
10
0.004250
20
0.151803
30
0.0
11
0.002734
21
0.151424
31
0.0
0
LINE
8
0
6
CONTINUOUS
10
0.005429
20
0.150969
30
0.0
11
0.004250
21
0.151803
31
0.0
0
LINE
8
0
6
CONTINUOUS
10
0.005092
20
0.149757
30
0.0
11
0.005429
21
0.150969
31
0.0
0
LINE
8
0
6
CONTINUOUS
10
0.003576
20
0.149379
30
0.0
11
0.005092
21
0.149757
31
0.0
0
LINE
8
0
6
CONTINUOUS
10
-0.003211
20
0.151611
30
0.0
11
-0.002280
21
0.150606
31
0.0
0
LINE
8
0
6
CONTINUOUS
10
0.024294
20
0.159572
30
0.0
11
0.024290
21
0.158372
31
0.0
0
LINE
8
0
6
CONTINUOUS
10
0.014237
20
0.165168
30
0.0
11
0.014233
21
0.163928
31
0.0
0
LINE
8
0
6
CONTINUOUS
10
0.019236
20
0.165972
30
0.0
11
0.020573
21
0.166570
31
0.0
0
LINE
8
0
6
CONTINUOUS
10
0.019238
20
0.166568
30
0.0
11
0.019236
21
0.165972
31
0.0
0
LINE
8
0
6
CONTINUOUS
10
0.014203
20
0.171229
30
0.0
11
0.015540
21
0.171827
31
0.0
0
LINE
8
0
6
CONTINUOUS
10
0.014205
20
0.171841
30
0.0
11
0.014203
21
0.171229
31
0.0
0
LINE
8
0
6
CONTINUOUS
10
0.026766
20
0.170388
30
0.0
11
0.026763
21
0.169358
31
0.0
0
LINE
8
0
6
CONTINUOUS
10
0.022577
20
0.180345
30
0.0
11
0.023598
21
0.181000
31
0.0
0
LINE
8
0
6
CONTINUOUS
10
0.022580
20
0.180954
30
0.0
11
0.022577
21
0.180345
31
0.0
0
LINE
8
0
6
CONTINUOUS
10
0.029474
20
0.176091
30
0.0
11
0.030712
21
0.175730
31
0.0
0
LINE
8
0
6
CONTINUOUS
10
0.002022
20
0.145900
30
0.0
11
0.003301
21
0.145161
31
0.0
0
LINE
8
0
6
CONTINUOUS
10
0.012838
20
0.131916
30
0.0
11
0.013901
21
0.131302
31
0.0
0
LINE
8
0
6
CONTINUOUS
10
0.009796
20
0.148230
30
0.0
11
0.011075
21
0.147491
31
0.0
0
LINE
8
0
6
CONTINUOUS
10
0.013212
20
0.151717
30
0.0
11
0.013394
21
0.152948
31
0.0
0
LINE
8
0
6
CONTINUOUS
10
0.013206
20
0.152328
30
0.0
11
0.013212
21
0.151717
31
0.0
0
LINE
8
0
6
CONTINUOUS
10
0.017106
20
0.147349
30
0.0
11
0.018521
21
0.147826
31
0.0
0
LINE
8
0
6
CONTINUOUS
10
0.018521
20
0.147826
30
0.0
11
0.019759
21
0.147111
31
0.0
0
LINE
8
0
6
CONTINUOUS
10
0.016930
20
0.146156
30
0.0
11
0.017106
21
0.147349
31
0.0
0
LINE
8
0
6
CONTINUOUS
10
0.016924
20
0.146754
30
0.0
11
0.016930
21
0.146156
31
0.0
0
LINE
8
0
6
CONTINUOUS
10
0.022436
20
0.153596
30
0.0
11
0.023674
21
0.152881
31
0.0
0
LINE
8
0
6
CONTINUOUS
10
0.034293
20
0.150206
30
0.0
11
0.035401
21
0.150768
31
0.0
0
LINE
8
0
6
CONTINUOUS
10
0.034288
20
0.150783
30
0.0
11
0.034293
21
0.150206
31
0.0
0
LINE
8
0
6
CONTINUOUS
10
0.035401
20
0.150768
30
0.0
11
0.036580
21
0.150301
31
0.0
0
LINE
8
0
6
CONTINUOUS
10
0.033154
20
0.144143
30
0.0
11
0.033225
21
0.143114
31
0.0
0
LINE
8
0
6
CONTINUOUS
10
0.030867
20
0.144049
30
0.0
11
0.031976
21
0.144610
31
0.0
0
LINE
8
0
6
CONTINUOUS
10
0.030863
20
0.144625
30
0.0
11
0.030867
21
0.144049
31
0.0
0
LINE
8
0
6
CONTINUOUS
10
0.031976
20
0.144610
30
0.0
11
0.033154
21
0.144143
31
0.0
0
LINE
8
0
6
CONTINUOUS
10
0.025700
20
0.138621
30
0.0
11
0.026808
21
0.139183
31
0.0
0
LINE
8
0
6
CONTINUOUS
10
0.025696
20
0.139194
30
0.0
11
0.025700
21
0.138621
31
0.0
0
LINE
8
0
6
CONTINUOUS
10
0.026808
20
0.139183
30
0.0
11
0.027987
21
0.138716
31
0.0
0
LINE
8
0
6
CONTINUOUS
10
0.021522
20
0.134369
30
0.0
11
0.021592
21
0.133340
31
0.0
0
LINE
8
0
6
CONTINUOUS
10
0.019234
20
0.134274
30
0.0
11
0.020343
21
0.134836
31
0.0
0
LINE
8
0
6
CONTINUOUS
10
0.019230
20
0.134849
30
0.0
11
0.019234
21
0.134274
31
0.0
0
LINE
8
0
6
CONTINUOUS
10
0.020343
20
0.134836
30
0.0
11
0.021522
21
0.134369
31
0.0
0
LINE
8
0
6
CONTINUOUS
10
0.004759
20
0.168865
30
0.0
11
0.005782
21
0.169814
31
0.0
0
LINE
8
0
6
CONTINUOUS
10
0.004768
20
0.169497
30
0.0
11
0.004759
21
0.168865
31
0.0
0
LINE
8
0
6
CONTINUOUS
10
0.012654
20
0.179824
30
0.0
11
0.013956
21
0.179645
31
0.0
0
LINE
8
0
6
CONTINUOUS
10
0.011803
20
0.179035
30
0.0
11
0.012654
21
0.179824
31
0.0
0
LINE
8
0
6
CONTINUOUS
10
0.011811
20
0.179664
30
0.0
11
0.011803
21
0.179035
31
0.0
0
LINE
8
0
6
CONTINUOUS
10
0.013956
20
0.179645
30
0.0
11
0.014408
21
0.178676
31
0.0
0
LINE
8
0
6
CONTINUOUS
10
0.007804
20
0.175188
30
0.0
11
0.009322
21
0.174979
31
0.0
0
LINE
8
0
6
CONTINUOUS
10
0.006813
20
0.174268
30
0.0
11
0.007804
21
0.175188
31
0.0
0
LINE
8
0
6
CONTINUOUS
10
0.006821
20
0.174894
30
0.0
11
0.006813
21
0.174268
31
0.0
0
LINE
8
0
6
CONTINUOUS
10
0.009322
20
0.174979
30
0.0
11
0.009849
21
0.173850
31
0.0
0
LINE
8
0
6
CONTINUOUS
10
0.008085
20
0.186912
30
0.0
11
0.009387
21
0.186733
31
0.0
0
LINE
8
0
6
CONTINUOUS
10
0.007235
20
0.186123
30
0.0
11
0.008085
21
0.186912
31
0.0
0
LINE
8
0
6
CONTINUOUS
10
0.007242
20
0.186762
30
0.0
11
0.007235
21
0.186123
31
0.0
0
LINE
8
0
6
CONTINUOUS
10
-0.011336
20
0.167248
30
0.0
11
-0.010313
21
0.168197
31
0.0
0
LINE
8
0
6
CONTINUOUS
10
-0.011327
20
0.167926
30
0.0
11
-0.011336
21
0.167248
31
0.0
0
LINE
8
0
6
CONTINUOUS
10
-0.014583
20
0.171567
30
0.0
11
-0.014056
21
0.170438
31
0.0
0
LINE
8
0
6
CONTINUOUS
10
-0.004123
20
0.181837
30
0.0
11
-0.002821
21
0.181658
31
0.0
0
LINE
8
0
6
CONTINUOUS
10
-0.004974
20
0.181048
30
0.0
11
-0.004123
21
0.181837
31
0.0
0
LINE
8
0
6
CONTINUOUS
10
-0.004966
20
0.181701
30
0.0
11
-0.004974
21
0.181048
31
0.0
0
LINE
8
0
6
CONTINUOUS
10
-0.009764
20
0.185984
30
0.0
11
-0.009095
21
0.186873
31
0.0
0
LINE
8
0
6
CONTINUOUS
10
-0.009757
20
0.186649
30
0.0
11
-0.009764
21
0.185984
31
0.0
0
LINE
8
0
6
CONTINUOUS
10
-0.000619
20
0.187738
30
0.0
11
0.000704
21
0.187731
31
0.0
0
LINE
8
0
6
CONTINUOUS
10
0.000704
20
0.187731
30
0.0
11
0.001357
21
0.186835
31
0.0
0
LINE
8
0
6
CONTINUOUS
10
-0.024328
20
0.159835
30
0.0
11
-0.024345
21
0.158634
31
0.0
0
LINE
8
0
6
CONTINUOUS
10
-0.022984
20
0.160424
30
0.0
11
-0.024328
21
0.159835
31
0.0
0
LINE
8
0
6
CONTINUOUS
10
-0.021658
20
0.159812
30
0.0
11
-0.022984
21
0.160424
31
0.0
0
LINE
8
0
6
CONTINUOUS
10
-0.021675
20
0.158611
30
0.0
11
-0.021658
21
0.159812
31
0.0
0
LINE
8
0
6
CONTINUOUS
10
-0.023019
20
0.158022
30
0.0
11
-0.021675
21
0.158611
31
0.0
0
LINE
8
0
6
CONTINUOUS
10
-0.024345
20
0.158634
30
0.0
11
-0.023019
21
0.158022
31
0.0
0
LINE
8
0
6
CONTINUOUS
10
-0.031151
20
0.157719
30
0.0
11
-0.031136
21
0.158749
31
0.0
0
LINE
8
0
6
CONTINUOUS
10
-0.031153
20
0.158393
30
0.0
11
-0.031151
21
0.157719
31
0.0
0
LINE
8
0
6
CONTINUOUS
10
-0.031136
20
0.158749
30
0.0
11
-0.029984
21
0.159254
31
0.0
0
LINE
8
0
6
CONTINUOUS
10
-0.028846
20
0.158729
30
0.0
11
-0.028848
21
0.159319
31
0.0
0
LINE
8
0
6
CONTINUOUS
10
-0.029984
20
0.159254
30
0.0
11
-0.028846
21
0.158729
31
0.0
0
LINE
8
0
6
CONTINUOUS
10
-0.031136
20
0.158749
30
0.0
11
-0.031151
21
0.157719
31
0.0
0
LINE
8
0
6
CONTINUOUS
10
-0.029984
20
0.159254
30
0.0
11
-0.031136
21
0.158749
31
0.0
0
LINE
8
0
6
CONTINUOUS
10
-0.028846
20
0.158729
30
0.0
11
-0.029984
21
0.159254
31
0.0
0
LINE
8
0
6
CONTINUOUS
10
-0.028861
20
0.157699
30
0.0
11
-0.028846
21
0.158729
31
0.0
0
LINE
8
0
6
CONTINUOUS
10
-0.030013
20
0.157194
30
0.0
11
-0.028861
21
0.157699
31
0.0
0
LINE
8
0
6
CONTINUOUS
10
-0.031151
20
0.157719
30
0.0
11
-0.030013
21
0.157194
31
0.0
0
LINE
8
0
6
CONTINUOUS
10
-0.038039
20
0.156910
30
0.0
11
-0.036887
21
0.157415
31
0.0
0
LINE
8
0
6
CONTINUOUS
10
-0.035749
20
0.156890
30
0.0
11
-0.035750
21
0.157467
31
0.0
0
LINE
8
0
6
CONTINUOUS
10
-0.036887
20
0.157415
30
0.0
11
-0.035749
21
0.156890
31
0.0
0
LINE
8
0
6
CONTINUOUS
10
-0.038039
20
0.156910
30
0.0
11
-0.038054
21
0.155880
31
0.0
0
LINE
8
0
6
CONTINUOUS
10
-0.036887
20
0.157415
30
0.0
11
-0.038039
21
0.156910
31
0.0
0
LINE
8
0
6
CONTINUOUS
10
-0.035749
20
0.156890
30
0.0
11
-0.036887
21
0.157415
31
0.0
0
LINE
8
0
6
CONTINUOUS
10
-0.035763
20
0.155859
30
0.0
11
-0.035749
21
0.156890
31
0.0
0
LINE
8
0
6
CONTINUOUS
10
-0.036916
20
0.155354
30
0.0
11
-0.035763
21
0.155859
31
0.0
0
LINE
8
0
6
CONTINUOUS
10
-0.038054
20
0.155880
30
0.0
11
-0.036916
21
0.155354
31
0.0
0
LINE
8
0
6
CONTINUOUS
10
-0.002474
20
0.156616
30
0.0
11
-0.001459
21
0.158374
31
0.0
0
LINE
8
0
6
CONTINUOUS
10
-0.002484
20
0.157260
30
0.0
11
-0.002474
21
0.156616
31
0.0
0
LINE
8
0
6
CONTINUOUS
10
-0.001459
20
0.158374
30
0.0
11
-0.002474
21
0.156616
31
0.0
0
LINE
8
0
6
CONTINUOUS
10
0.001003
20
0.158568
30
0.0
11
-0.001459
21
0.158374
31
0.0
0
LINE
8
0
6
CONTINUOUS
10
0.002450
20
0.157005
30
0.0
11
0.001003
21
0.158568
31
0.0
0
LINE
8
0
6
CONTINUOUS
10
0.001435
20
0.155247
30
0.0
11
0.002450
21
0.157005
31
0.0
0
LINE
8
0
6
CONTINUOUS
10
-0.001026
20
0.155052
30
0.0
11
0.001435
21
0.155247
31
0.0
0
LINE
8
0
6
CONTINUOUS
10
-0.002474
20
0.156616
30
0.0
11
-0.001026
21
0.155052
31
0.0
0
LINE
8
0
6
CONTINUOUS
10
-0.022081
20
0.166215
30
0.0
11
-0.020737
21
0.166803
31
0.0
0
LINE
8
0
6
CONTINUOUS
10
-0.019411
20
0.166191
30
0.0
11
-0.019413
21
0.166787
31
0.0
0
LINE
8
0
6
CONTINUOUS
10
-0.020737
20
0.166803
30
0.0
11
-0.019411
21
0.166191
31
0.0
0
LINE
8
0
6
CONTINUOUS
10
-0.022081
20
0.166215
30
0.0
11
-0.022098
21
0.165014
31
0.0
0
LINE
8
0
6
CONTINUOUS
10
-0.020737
20
0.166803
30
0.0
11
-0.022081
21
0.166215
31
0.0
0
LINE
8
0
6
CONTINUOUS
10
-0.019411
20
0.166191
30
0.0
11
-0.020737
21
0.166803
31
0.0
0
LINE
8
0
6
CONTINUOUS
10
-0.019428
20
0.164990
30
0.0
11
-0.019411
21
0.166191
31
0.0
0
LINE
8
0
6
CONTINUOUS
10
-0.020772
20
0.164402
30
0.0
11
-0.019428
21
0.164990
31
0.0
0
LINE
8
0
6
CONTINUOUS
10
-0.022098
20
0.165014
30
0.0
11
-0.020772
21
0.164402
31
0.0
0
LINE
8
0
6
CONTINUOUS
10
-0.027456
20
0.165294
30
0.0
11
-0.027457
21
0.165893
31
0.0
0
LINE
8
0
6
CONTINUOUS
10
-0.028593
20
0.165819
30
0.0
11
-0.027456
21
0.165294
31
0.0
0
LINE
8
0
6
CONTINUOUS
10
-0.029746
20
0.165314
30
0.0
11
-0.029761
21
0.164284
31
0.0
0
LINE
8
0
6
CONTINUOUS
10
-0.028593
20
0.165819
30
0.0
11
-0.029746
21
0.165314
31
0.0
0
LINE
8
0
6
CONTINUOUS
10
-0.027456
20
0.165294
30
0.0
11
-0.028593
21
0.165819
31
0.0
0
LINE
8
0
6
CONTINUOUS
10
-0.027470
20
0.164264
30
0.0
11
-0.027456
21
0.165294
31
0.0
0
LINE
8
0
6
CONTINUOUS
10
-0.028623
20
0.163759
30
0.0
11
-0.027470
21
0.164264
31
0.0
0
LINE
8
0
6
CONTINUOUS
10
-0.029761
20
0.164284
30
0.0
11
-0.028623
21
0.163759
31
0.0
0
LINE
8
0
6
CONTINUOUS
10
-0.025950
20
0.171253
30
0.0
11
-0.024797
21
0.171758
31
0.0
0
LINE
8
0
6
CONTINUOUS
10
-0.023659
20
0.171233
30
0.0
11
-0.023661
21
0.171841
31
0.0
0
LINE
8
0
6
CONTINUOUS
10
-0.024797
20
0.171758
30
0.0
11
-0.023659
21
0.171233
31
0.0
0
LINE
8
0
6
CONTINUOUS
10
-0.025950
20
0.171253
30
0.0
11
-0.025964
21
0.170223
31
0.0
0
LINE
8
0
6
CONTINUOUS
10
-0.024797
20
0.171758
30
0.0
11
-0.025950
21
0.171253
31
0.0
0
LINE
8
0
6
CONTINUOUS
10
-0.023659
20
0.171233
30
0.0
11
-0.024797
21
0.171758
31
0.0
0
LINE
8
0
6
CONTINUOUS
10
-0.023674
20
0.170203
30
0.0
11
-0.023659
21
0.171233
31
0.0
0
LINE
8
0
6
CONTINUOUS
10
-0.024827
20
0.169698
30
0.0
11
-0.023674
21
0.170203
31
0.0
0
LINE
8
0
6
CONTINUOUS
10
-0.025964
20
0.170223
30
0.0
11
-0.024827
21
0.169698
31
0.0
0
LINE
8
0
6
CONTINUOUS
10
-0.024921
20
0.179763
30
0.0
11
-0.024686
21
0.180777
31
0.0
0
LINE
8
0
6
CONTINUOUS
10
-0.024924
20
0.180429
30
0.0
11
-0.024921
21
0.179763
31
0.0
0
LINE
8
0
6
CONTINUOUS
10
-0.024686
20
0.180777
30
0.0
11
-0.023441
21
0.181125
31
0.0
0
LINE
8
0
6
CONTINUOUS
10
-0.022432
20
0.180459
30
0.0
11
-0.022434
21
0.181068
31
0.0
0
LINE
8
0
6
CONTINUOUS
10
-0.023441
20
0.181125
30
0.0
11
-0.022432
21
0.180459
31
0.0
0
LINE
8
0
6
CONTINUOUS
10
-0.024686
20
0.180777
30
0.0
11
-0.024921
21
0.179763
31
0.0
0
LINE
8
0
6
CONTINUOUS
10
-0.023441
20
0.181125
30
0.0
11
-0.024686
21
0.180777
31
0.0
0
LINE
8
0
6
CONTINUOUS
10
-0.022432
20
0.180459
30
0.0
11
-0.023441
21
0.181125
31
0.0
0
LINE
8
0
6
CONTINUOUS
10
-0.022667
20
0.179445
30
0.0
11
-0.022432
21
0.180459
31
0.0
0
LINE
8
0
6
CONTINUOUS
10
-0.023912
20
0.179097
30
0.0
11
-0.022667
21
0.179445
31
0.0
0
LINE
8
0
6
CONTINUOUS
10
-0.024921
20
0.179763
30
0.0
11
-0.023912
21
0.179097
31
0.0
0
LINE
8
0
6
CONTINUOUS
10
-0.030867
20
0.174870
30
0.0
11
-0.030632
21
0.175884
31
0.0
0
LINE
8
0
6
CONTINUOUS
10
-0.030870
20
0.175543
30
0.0
11
-0.030867
21
0.174870
31
0.0
0
LINE
8
0
6
CONTINUOUS
10
-0.028378
20
0.175566
30
0.0
11
-0.028380
21
0.176161
31
0.0
0
LINE
8
0
6
CONTINUOUS
10
-0.029387
20
0.176232
30
0.0
11
-0.028378
21
0.175566
31
0.0
0
LINE
8
0
6
CONTINUOUS
10
-0.030632
20
0.175884
30
0.0
11
-0.030867
21
0.174870
31
0.0
0
LINE
8
0
6
CONTINUOUS
10
-0.029387
20
0.176232
30
0.0
11
-0.030632
21
0.175884
31
0.0
0
LINE
8
0
6
CONTINUOUS
10
-0.028378
20
0.175566
30
0.0
11
-0.029387
21
0.176232
31
0.0
0
LINE
8
0
6
CONTINUOUS
10
-0.028613
20
0.174552
30
0.0
11
-0.028378
21
0.175566
31
0.0
0
LINE
8
0
6
CONTINUOUS
10
-0.029858
20
0.174204
30
0.0
11
-0.028613
21
0.174552
31
0.0
0
LINE
8
0
6
CONTINUOUS
10
-0.030867
20
0.174870
30
0.0
11
-0.029858
21
0.174204
31
0.0
0
LINE
8
0
6
CONTINUOUS
10
-0.035195
20
0.169118
30
0.0
11
-0.034960
21
0.170132
31
0.0
0
LINE
8
0
6
CONTINUOUS
10
-0.035198
20
0.169801
30
0.0
11
-0.035195
21
0.169118
31
0.0
0
LINE
8
0
6
CONTINUOUS
10
-0.034960
20
0.170132
30
0.0
11
-0.033715
21
0.170480
31
0.0
0
LINE
8
0
6
CONTINUOUS
10
-0.032706
20
0.169814
30
0.0
11
-0.032708
21
0.170400
31
0.0
0
LINE
8
0
6
CONTINUOUS
10
-0.033715
20
0.170480
30
0.0
11
-0.032706
21
0.169814
31
0.0
0
LINE
8
0
6
CONTINUOUS
10
-0.034960
20
0.170132
30
0.0
11
-0.035195
21
0.169118
31
0.0
0
LINE
8
0
6
CONTINUOUS
10
-0.033715
20
0.170480
30
0.0
11
-0.034960
21
0.170132
31
0.0
0
LINE
8
0
6
CONTINUOUS
10
-0.032706
20
0.169814
30
0.0
11
-0.033715
21
0.170480
31
0.0
0
LINE
8
0
6
CONTINUOUS
10
-0.032941
20
0.168800
30
0.0
11
-0.032706
21
0.169814
31
0.0
0
LINE
8
0
6
CONTINUOUS
10
-0.034186
20
0.168452
30
0.0
11
-0.032941
21
0.168800
31
0.0
0
LINE
8
0
6
CONTINUOUS
10
-0.035195
20
0.169118
30
0.0
11
-0.034186
21
0.168452
31
0.0
0
LINE
8
0
6
CONTINUOUS
10
-0.037727
20
0.162669
30
0.0
11
-0.037491
21
0.163683
31
0.0
0
LINE
8
0
6
CONTINUOUS
10
-0.037730
20
0.163364
30
0.0
11
-0.037727
21
0.162669
31
0.0
0
LINE
8
0
6
CONTINUOUS
10
-0.037491
20
0.163683
30
0.0
11
-0.036247
21
0.164031
31
0.0
0
LINE
8
0
6
CONTINUOUS
10
-0.035237
20
0.163365
30
0.0
11
-0.035240
21
0.163943
31
0.0
0
LINE
8
0
6
CONTINUOUS
10
-0.036247
20
0.164031
30
0.0
11
-0.035237
21
0.163365
31
0.0
0
LINE
8
0
6
CONTINUOUS
10
-0.037491
20
0.163683
30
0.0
11
-0.037727
21
0.162669
31
0.0
0
LINE
8
0
6
CONTINUOUS
10
-0.036247
20
0.164031
30
0.0
11
-0.037491
21
0.163683
31
0.0
0
LINE
8
0
6
CONTINUOUS
10
-0.035237
20
0.163365
30
0.0
11
-0.036247
21
0.164031
31
0.0
0
LINE
8
0
6
CONTINUOUS
10
-0.035473
20
0.162351
30
0.0
11
-0.035237
21
0.163365
31
0.0
0
LINE
8
0
6
CONTINUOUS
10
-0.036717
20
0.162003
30
0.0
11
-0.035473
21
0.162351
31
0.0
0
LINE
8
0
6
CONTINUOUS
10
-0.037727
20
0.162669
30
0.0
11
-0.036717
21
0.162003
31
0.0
0
LINE
8
0
6
CONTINUOUS
10
-0.006446
20
0.146796
30
0.0
11
-0.004995
21
0.146287
31
0.0
0
LINE
8
0
6
CONTINUOUS
10
-0.007737
20
0.146071
30
0.0
11
-0.006446
21
0.146796
31
0.0
0
LINE
8
0
6
CONTINUOUS
10
-0.007730
20
0.146705
30
0.0
11
-0.007737
21
0.146071
31
0.0
0
LINE
8
0
6
CONTINUOUS
10
-0.004834
20
0.145054
30
0.0
11
-0.004827
21
0.145690
31
0.0
0
LINE
8
0
6
CONTINUOUS
10
-0.004995
20
0.146287
30
0.0
11
-0.004834
21
0.145054
31
0.0
0
LINE
8
0
6
CONTINUOUS
10
-0.007576
20
0.144837
30
0.0
11
-0.006125
21
0.144329
31
0.0
0
LINE
8
0
6
CONTINUOUS
10
-0.007737
20
0.146071
30
0.0
11
-0.007576
21
0.144837
31
0.0
0
LINE
8
0
6
CONTINUOUS
10
-0.006446
20
0.146796
30
0.0
11
-0.007737
21
0.146071
31
0.0
0
LINE
8
0
6
CONTINUOUS
10
-0.004995
20
0.146287
30
0.0
11
-0.006446
21
0.146796
31
0.0
0
LINE
8
0
6
CONTINUOUS
10
-0.004834
20
0.145054
30
0.0
11
-0.004995
21
0.146287
31
0.0
0
LINE
8
0
6
CONTINUOUS
10
-0.006125
20
0.144329
30
0.0
11
-0.004834
21
0.145054
31
0.0
0
LINE
8
0
6
CONTINUOUS
10
-0.004614
20
0.130235
30
0.0
11
-0.003408
21
0.129813
31
0.0
0
LINE
8
0
6
CONTINUOUS
10
-0.005687
20
0.129633
30
0.0
11
-0.004614
21
0.130235
31
0.0
0
LINE
8
0
6
CONTINUOUS
10
-0.005681
20
0.130243
30
0.0
11
-0.005687
21
0.129633
31
0.0
0
LINE
8
0
6
CONTINUOUS
10
-0.003274
20
0.128788
30
0.0
11
-0.003269
21
0.129444
31
0.0
0
LINE
8
0
6
CONTINUOUS
10
-0.003408
20
0.129813
30
0.0
11
-0.003274
21
0.128788
31
0.0
0
LINE
8
0
6
CONTINUOUS
10
-0.005553
20
0.128608
30
0.0
11
-0.004347
21
0.128185
31
0.0
0
LINE
8
0
6
CONTINUOUS
10
-0.005687
20
0.129633
30
0.0
11
-0.005553
21
0.128608
31
0.0
0
LINE
8
0
6
CONTINUOUS
10
-0.004614
20
0.130235
30
0.0
11
-0.005687
21
0.129633
31
0.0
0
LINE
8
0
6
CONTINUOUS
10
-0.003408
20
0.129813
30
0.0
11
-0.004614
21
0.130235
31
0.0
0
LINE
8
0
6
CONTINUOUS
10
-0.003274
20
0.128788
30
0.0
11
-0.003408
21
0.129813
31
0.0
0
LINE
8
0
6
CONTINUOUS
10
-0.004347
20
0.128185
30
0.0
11
-0.003274
21
0.128788
31
0.0
0
LINE
8
0
6
CONTINUOUS
10
-0.003721
20
0.134056
30
0.0
11
-0.003715
21
0.134706
31
0.0
0
LINE
8
0
6
CONTINUOUS
10
-0.003854
20
0.135081
30
0.0
11
-0.003721
21
0.134056
31
0.0
0
LINE
8
0
6
CONTINUOUS
10
-0.005999
20
0.133876
30
0.0
11
-0.004793
21
0.133454
31
0.0
0
LINE
8
0
6
CONTINUOUS
10
-0.006133
20
0.134901
30
0.0
11
-0.005999
21
0.133876
31
0.0
0
LINE
8
0
6
CONTINUOUS
10
-0.005060
20
0.135504
30
0.0
11
-0.006133
21
0.134901
31
0.0
0
LINE
8
0
6
CONTINUOUS
10
-0.003854
20
0.135081
30
0.0
11
-0.005060
21
0.135504
31
0.0
0
LINE
8
0
6
CONTINUOUS
10
-0.003721
20
0.134056
30
0.0
11
-0.003854
21
0.135081
31
0.0
0
LINE
8
0
6
CONTINUOUS
10
-0.004793
20
0.133454
30
0.0
11
-0.003721
21
0.134056
31
0.0
0
LINE
8
0
6
CONTINUOUS
10
-0.004274
20
0.140958
30
0.0
11
-0.002868
21
0.140465
31
0.0
0
LINE
8
0
6
CONTINUOUS
10
-0.005524
20
0.140255
30
0.0
11
-0.004274
21
0.140958
31
0.0
0
LINE
8
0
6
CONTINUOUS
10
-0.005518
20
0.140871
30
0.0
11
-0.005524
21
0.140255
31
0.0
0
LINE
8
0
6
CONTINUOUS
10
-0.002712
20
0.139270
30
0.0
11
-0.002705
21
0.139926
31
0.0
0
LINE
8
0
6
CONTINUOUS
10
-0.002868
20
0.140465
30
0.0
11
-0.002712
21
0.139270
31
0.0
0
LINE
8
0
6
CONTINUOUS
10
-0.005369
20
0.139060
30
0.0
11
-0.003963
21
0.138568
31
0.0
0
LINE
8
0
6
CONTINUOUS
10
-0.005524
20
0.140255
30
0.0
11
-0.005369
21
0.139060
31
0.0
0
LINE
8
0
6
CONTINUOUS
10
-0.004274
20
0.140958
30
0.0
11
-0.005524
21
0.140255
31
0.0
0
LINE
8
0
6
CONTINUOUS
10
-0.002868
20
0.140465
30
0.0
11
-0.004274
21
0.140958
31
0.0
0
LINE
8
0
6
CONTINUOUS
10
-0.002712
20
0.139270
30
0.0
11
-0.002868
21
0.140465
31
0.0
0
LINE
8
0
6
CONTINUOUS
10
-0.003963
20
0.138568
30
0.0
11
-0.002712
21
0.139270
31
0.0
0
LINE
8
0
6
CONTINUOUS
10
-0.011684
20
0.130603
30
0.0
11
-0.011679
21
0.131243
31
0.0
0
LINE
8
0
6
CONTINUOUS
10
-0.011818
20
0.131628
30
0.0
11
-0.011684
21
0.130603
31
0.0
0
LINE
8
0
6
CONTINUOUS
10
-0.013963
20
0.130423
30
0.0
11
-0.012757
21
0.130000
31
0.0
0
LINE
8
0
6
CONTINUOUS
10
-0.014097
20
0.131448
30
0.0
11
-0.013963
21
0.130423
31
0.0
0
LINE
8
0
6
CONTINUOUS
10
-0.013024
20
0.132050
30
0.0
11
-0.014097
21
0.131448
31
0.0
0
LINE
8
0
6
CONTINUOUS
10
-0.011818
20
0.131628
30
0.0
11
-0.013024
21
0.132050
31
0.0
0
LINE
8
0
6
CONTINUOUS
10
-0.011684
20
0.130603
30
0.0
11
-0.011818
21
0.131628
31
0.0
0
LINE
8
0
6
CONTINUOUS
10
-0.012757
20
0.130000
30
0.0
11
-0.011684
21
0.130603
31
0.0
0
LINE
8
0
6
CONTINUOUS
10
-0.013136
20
0.137523
30
0.0
11
-0.011930
21
0.137101
31
0.0
0
LINE
8
0
6
CONTINUOUS
10
-0.014209
20
0.136921
30
0.0
11
-0.013136
21
0.137523
31
0.0
0
LINE
8
0
6
CONTINUOUS
10
-0.014203
20
0.137561
30
0.0
11
-0.014209
21
0.136921
31
0.0
0
LINE
8
0
6
CONTINUOUS
10
-0.014075
20
0.135896
30
0.0
11
-0.012869
21
0.135473
31
0.0
0
LINE
8
0
6
CONTINUOUS
10
-0.014209
20
0.136921
30
0.0
11
-0.014075
21
0.135896
31
0.0
0
LINE
8
0
6
CONTINUOUS
10
-0.013136
20
0.137523
30
0.0
11
-0.014209
21
0.136921
31
0.0
0
LINE
8
0
6
CONTINUOUS
10
-0.011930
20
0.137101
30
0.0
11
-0.013136
21
0.137523
31
0.0
0
LINE
8
0
6
CONTINUOUS
10
-0.011796
20
0.136076
30
0.0
11
-0.011930
21
0.137101
31
0.0
0
LINE
8
0
6
CONTINUOUS
10
-0.012869
20
0.135473
30
0.0
11
-0.011796
21
0.136076
31
0.0
0
LINE
8
0
6
CONTINUOUS
10
-0.012174
20
0.143370
30
0.0
11
-0.010768
21
0.142878
31
0.0
0
LINE
8
0
6
CONTINUOUS
10
-0.013425
20
0.142668
30
0.0
11
-0.012174
21
0.143370
31
0.0
0
LINE
8
0
6
CONTINUOUS
10
-0.013418
20
0.143312
30
0.0
11
-0.013425
21
0.142668
31
0.0
0
LINE
8
0
6
CONTINUOUS
10
-0.010613
20
0.141683
30
0.0
11
-0.010606
21
0.142306
31
0.0
0
LINE
8
0
6
CONTINUOUS
10
-0.010768
20
0.142878
30
0.0
11
-0.010613
21
0.141683
31
0.0
0
LINE
8
0
6
CONTINUOUS
10
-0.013269
20
0.141473
30
0.0
11
-0.011863
21
0.140981
31
0.0
0
LINE
8
0
6
CONTINUOUS
10
-0.013425
20
0.142668
30
0.0
11
-0.013269
21
0.141473
31
0.0
0
LINE
8
0
6
CONTINUOUS
10
-0.012174
20
0.143370
30
0.0
11
-0.013425
21
0.142668
31
0.0
0
LINE
8
0
6
CONTINUOUS
10
-0.010768
20
0.142878
30
0.0
11
-0.012174
21
0.143370
31
0.0
0
LINE
8
0
6
CONTINUOUS
10
-0.010613
20
0.141683
30
0.0
11
-0.010768
21
0.142878
31
0.0
0
LINE
8
0
6
CONTINUOUS
10
-0.011863
20
0.140981
30
0.0
11
-0.010613
21
0.141683
31
0.0
0
LINE
8
0
6
CONTINUOUS
10
-0.014315
20
0.150062
30
0.0
11
-0.013024
21
0.150787
31
0.0
0
LINE
8
0
6
CONTINUOUS
10
-0.014307
20
0.150717
30
0.0
11
-0.014315
21
0.150062
31
0.0
0
LINE
8
0
6
CONTINUOUS
10
-0.014154
20
0.148829
30
0.0
11
-0.012702
21
0.148320
31
0.0
0
LINE
8
0
6
CONTINUOUS
10
-0.014315
20
0.150062
30
0.0
11
-0.014154
21
0.148829
31
0.0
0
LINE
8
0
6
CONTINUOUS
10
-0.013024
20
0.150787
30
0.0
11
-0.014315
21
0.150062
31
0.0
0
LINE
8
0
6
CONTINUOUS
10
-0.011572
20
0.150279
30
0.0
11
-0.013024
21
0.150787
31
0.0
0
LINE
8
0
6
CONTINUOUS
10
-0.011411
20
0.149045
30
0.0
11
-0.011572
21
0.150279
31
0.0
0
LINE
8
0
6
CONTINUOUS
10
-0.012702
20
0.148320
30
0.0
11
-0.011411
21
0.149045
31
0.0
0
LINE
8
0
6
CONTINUOUS
10
-0.016137
20
0.156775
30
0.0
11
-0.014685
21
0.156267
31
0.0
0
LINE
8
0
6
CONTINUOUS
10
-0.017428
20
0.156050
30
0.0
11
-0.016137
21
0.156775
31
0.0
0
LINE
8
0
6
CONTINUOUS
10
-0.017420
20
0.156731
30
0.0
11
-0.017428
21
0.156050
31
0.0
0
LINE
8
0
6
CONTINUOUS
10
-0.014524
20
0.155033
30
0.0
11
-0.014518
21
0.155638
31
0.0
0
LINE
8
0
6
CONTINUOUS
10
-0.014685
20
0.156267
30
0.0
11
-0.014524
21
0.155033
31
0.0
0
LINE
8
0
6
CONTINUOUS
10
-0.017267
20
0.154817
30
0.0
11
-0.015815
21
0.154308
31
0.0
0
LINE
8
0
6
CONTINUOUS
10
-0.017428
20
0.156050
30
0.0
11
-0.017267
21
0.154817
31
0.0
0
LINE
8
0
6
CONTINUOUS
10
-0.016137
20
0.156775
30
0.0
11
-0.017428
21
0.156050
31
0.0
0
LINE
8
0
6
CONTINUOUS
10
-0.014685
20
0.156267
30
0.0
11
-0.016137
21
0.156775
31
0.0
0
LINE
8
0
6
CONTINUOUS
10
-0.014524
20
0.155033
30
0.0
11
-0.014685
21
0.156267
31
0.0
0
LINE
8
0
6
CONTINUOUS
10
-0.015815
20
0.154308
30
0.0
11
-0.014524
21
0.155033
31
0.0
0
LINE
8
0
6
CONTINUOUS
10
-0.018591
20
0.147770
30
0.0
11
-0.017184
21
0.147278
31
0.0
0
LINE
8
0
6
CONTINUOUS
10
-0.017029
20
0.146083
30
0.0
11
-0.017023
21
0.146683
31
0.0
0
LINE
8
0
6
CONTINUOUS
10
-0.017184
20
0.147278
30
0.0
11
-0.017029
21
0.146083
31
0.0
0
LINE
8
0
6
CONTINUOUS
10
-0.019685
20
0.145873
30
0.0
11
-0.018279
21
0.145380
31
0.0
0
LINE
8
0
6
CONTINUOUS
10
-0.019841
20
0.147068
30
0.0
11
-0.019685
21
0.145873
31
0.0
0
LINE
8
0
6
CONTINUOUS
10
-0.018591
20
0.147770
30
0.0
11
-0.019841
21
0.147068
31
0.0
0
LINE
8
0
6
CONTINUOUS
10
-0.017184
20
0.147278
30
0.0
11
-0.018591
21
0.147770
31
0.0
0
LINE
8
0
6
CONTINUOUS
10
-0.017029
20
0.146083
30
0.0
11
-0.017184
21
0.147278
31
0.0
0
LINE
8
0
6
CONTINUOUS
10
-0.018279
20
0.145380
30
0.0
11
-0.017029
21
0.146083
31
0.0
0
LINE
8
0
6
CONTINUOUS
10
-0.022239
20
0.153568
30
0.0
11
-0.020833
21
0.153075
31
0.0
0
LINE
8
0
6
CONTINUOUS
10
-0.020677
20
0.151881
30
0.0
11
-0.020671
21
0.152460
31
0.0
0
LINE
8
0
6
CONTINUOUS
10
-0.020833
20
0.153075
30
0.0
11
-0.020677
21
0.151881
31
0.0
0
LINE
8
0
6
CONTINUOUS
10
-0.023334
20
0.151671
30
0.0
11
-0.021928
21
0.151178
31
0.0
0
LINE
8
0
6
CONTINUOUS
10
-0.023489
20
0.152866
30
0.0
11
-0.023334
21
0.151671
31
0.0
0
LINE
8
0
6
CONTINUOUS
10
-0.022239
20
0.153568
30
0.0
11
-0.023489
21
0.152866
31
0.0
0
LINE
8
0
6
CONTINUOUS
10
-0.020833
20
0.153075
30
0.0
11
-0.022239
21
0.153568
31
0.0
0
LINE
8
0
6
CONTINUOUS
10
-0.020677
20
0.151881
30
0.0
11
-0.020833
21
0.153075
31
0.0
0
LINE
8
0
6
CONTINUOUS
10
-0.021928
20
0.151178
30
0.0
11
-0.020677
21
0.151881
31
0.0
0
LINE
8
0
6
CONTINUOUS
10
-0.020216
20
0.141376
30
0.0
11
-0.019010
21
0.140954
31
0.0
0
LINE
8
0
6
CONTINUOUS
10
-0.021289
20
0.140774
30
0.0
11
-0.020216
21
0.141376
31
0.0
0
LINE
8
0
6
CONTINUOUS
10
-0.021283
20
0.141426
30
0.0
11
-0.021289
21
0.140774
31
0.0
0
LINE
8
0
6
CONTINUOUS
10
-0.018876
20
0.139929
30
0.0
11
-0.018871
21
0.140544
31
0.0
0
LINE
8
0
6
CONTINUOUS
10
-0.019010
20
0.140954
30
0.0
11
-0.018876
21
0.139929
31
0.0
0
LINE
8
0
6
CONTINUOUS
10
-0.021155
20
0.139749
30
0.0
11
-0.019949
21
0.139326
31
0.0
0
LINE
8
0
6
CONTINUOUS
10
-0.021289
20
0.140774
30
0.0
11
-0.021155
21
0.139749
31
0.0
0
LINE
8
0
6
CONTINUOUS
10
-0.020216
20
0.141376
30
0.0
11
-0.021289
21
0.140774
31
0.0
0
LINE
8
0
6
CONTINUOUS
10
-0.019010
20
0.140954
30
0.0
11
-0.020216
21
0.141376
31
0.0
0
LINE
8
0
6
CONTINUOUS
10
-0.018876
20
0.139929
30
0.0
11
-0.019010
21
0.140954
31
0.0
0
LINE
8
0
6
CONTINUOUS
10
-0.019949
20
0.139326
30
0.0
11
-0.018876
21
0.139929
31
0.0
0
LINE
8
0
6
CONTINUOUS
10
-0.025723
20
0.146473
30
0.0
11
-0.024517
21
0.146051
31
0.0
0
LINE
8
0
6
CONTINUOUS
10
-0.026796
20
0.145871
30
0.0
11
-0.025723
21
0.146473
31
0.0
0
LINE
8
0
6
CONTINUOUS
10
-0.026790
20
0.146534
30
0.0
11
-0.026796
21
0.145871
31
0.0
0
LINE
8
0
6
CONTINUOUS
10
-0.024383
20
0.145026
30
0.0
11
-0.024378
21
0.145631
31
0.0
0
LINE
8
0
6
CONTINUOUS
10
-0.024517
20
0.146051
30
0.0
11
-0.024383
21
0.145026
31
0.0
0
LINE
8
0
6
CONTINUOUS
10
-0.026662
20
0.144846
30
0.0
11
-0.025456
21
0.144423
31
0.0
0
LINE
8
0
6
CONTINUOUS
10
-0.026796
20
0.145871
30
0.0
11
-0.026662
21
0.144846
31
0.0
0
LINE
8
0
6
CONTINUOUS
10
-0.025723
20
0.146473
30
0.0
11
-0.026796
21
0.145871
31
0.0
0
LINE
8
0
6
CONTINUOUS
10
-0.024517
20
0.146051
30
0.0
11
-0.025723
21
0.146473
31
0.0
0
LINE
8
0
6
CONTINUOUS
10
-0.024383
20
0.145026
30
0.0
11
-0.024517
21
0.146051
31
0.0
0
LINE
8
0
6
CONTINUOUS
10
-0.025456
20
0.144423
30
0.0
11
-0.024383
21
0.145026
31
0.0
0
LINE
8
0
6
CONTINUOUS
10
-0.030220
20
0.151960
30
0.0
11
-0.029147
21
0.152563
31
0.0
0
LINE
8
0
6
CONTINUOUS
10
-0.030214
20
0.152632
30
0.0
11
-0.030220
21
0.151960
31
0.0
0
LINE
8
0
6
CONTINUOUS
10
-0.027807
20
0.151115
30
0.0
11
-0.027802
21
0.151712
31
0.0
0
LINE
8
0
6
CONTINUOUS
10
-0.027941
20
0.152140
30
0.0
11
-0.027807
21
0.151115
31
0.0
0
LINE
8
0
6
CONTINUOUS
10
-0.030086
20
0.150935
30
0.0
11
-0.028880
21
0.150513
31
0.0
0
LINE
8
0
6
CONTINUOUS
10
-0.030220
20
0.151960
30
0.0
11
-0.030086
21
0.150935
31
0.0
0
LINE
8
0
6
CONTINUOUS
10
-0.029147
20
0.152563
30
0.0
11
-0.030220
21
0.151960
31
0.0
0
LINE
8
0
6
CONTINUOUS
10
-0.027941
20
0.152140
30
0.0
11
-0.029147
21
0.152563
31
0.0
0
LINE
8
0
6
CONTINUOUS
10
-0.027807
20
0.151115
30
0.0
11
-0.027941
21
0.152140
31
0.0
0
LINE
8
0
6
CONTINUOUS
10
-0.028880
20
0.150513
30
0.0
11
-0.027807
21
0.151115
31
0.0
0
LINE
8
0
6
CONTINUOUS
10
-0.036738
20
0.149293
30
0.0
11
-0.036650
21
0.150321
31
0.0
0
LINE
8
0
6
CONTINUOUS
10
-0.036733
20
0.149995
30
0.0
11
-0.036738
21
0.149293
31
0.0
0
LINE
8
0
6
CONTINUOUS
10
-0.034365
20
0.150202
30
0.0
11
-0.034360
21
0.150776
31
0.0
0
LINE
8
0
6
CONTINUOUS
10
-0.035463
20
0.150775
30
0.0
11
-0.034365
21
0.150202
31
0.0
0
LINE
8
0
6
CONTINUOUS
10
-0.036650
20
0.150321
30
0.0
11
-0.035463
21
0.150775
31
0.0
0
LINE
8
0
6
CONTINUOUS
10
-0.036738
20
0.149293
30
0.0
11
-0.035639
21
0.148719
31
0.0
0
LINE
8
0
6
CONTINUOUS
10
-0.036650
20
0.150321
30
0.0
11
-0.036738
21
0.149293
31
0.0
0
LINE
8
0
6
CONTINUOUS
10
-0.035463
20
0.150775
30
0.0
11
-0.036650
21
0.150321
31
0.0
0
LINE
8
0
6
CONTINUOUS
10
-0.034365
20
0.150202
30
0.0
11
-0.035463
21
0.150775
31
0.0
0
LINE
8
0
6
CONTINUOUS
10
-0.034452
20
0.149174
30
0.0
11
-0.034365
21
0.150202
31
0.0
0
LINE
8
0
6
CONTINUOUS
10
-0.035639
20
0.148719
30
0.0
11
-0.034452
21
0.149174
31
0.0
0
LINE
8
0
6
CONTINUOUS
10
-0.033297
20
0.143159
30
0.0
11
-0.033210
21
0.144187
31
0.0
0
LINE
8
0
6
CONTINUOUS
10
-0.033292
20
0.143860
30
0.0
11
-0.033297
21
0.143159
31
0.0
0
LINE
8
0
6
CONTINUOUS
10
-0.030924
20
0.144068
30
0.0
11
-0.030920
21
0.144643
31
0.0
0
LINE
8
0
6
CONTINUOUS
10
-0.032023
20
0.144641
30
0.0
11
-0.030924
21
0.144068
31
0.0
0
LINE
8
0
6
CONTINUOUS
10
-0.033297
20
0.143159
30
0.0
11
-0.032199
21
0.142585
31
0.0
0
LINE
8
0
6
CONTINUOUS
10
-0.033210
20
0.144187
30
0.0
11
-0.033297
21
0.143159
31
0.0
0
LINE
8
0
6
CONTINUOUS
10
-0.032023
20
0.144641
30
0.0
11
-0.033210
21
0.144187
31
0.0
0
LINE
8
0
6
CONTINUOUS
10
-0.030924
20
0.144068
30
0.0
11
-0.032023
21
0.144641
31
0.0
0
LINE
8
0
6
CONTINUOUS
10
-0.031012
20
0.143040
30
0.0
11
-0.030924
21
0.144068
31
0.0
0
LINE
8
0
6
CONTINUOUS
10
-0.032199
20
0.142585
30
0.0
11
-0.031012
21
0.143040
31
0.0
0
LINE
8
0
6
CONTINUOUS
10
-0.028224
20
0.137767
30
0.0
11
-0.028136
21
0.138795
31
0.0
0
LINE
8
0
6
CONTINUOUS
10
-0.028218
20
0.138465
30
0.0
11
-0.028224
21
0.137767
31
0.0
0
LINE
8
0
6
CONTINUOUS
10
-0.025850
20
0.138676
30
0.0
11
-0.025846
21
0.139253
31
0.0
0
LINE
8
0
6
CONTINUOUS
10
-0.026949
20
0.139249
30
0.0
11
-0.025850
21
0.138676
31
0.0
0
LINE
8
0
6
CONTINUOUS
10
-0.028224
20
0.137767
30
0.0
11
-0.027125
21
0.137193
31
0.0
0
LINE
8
0
6
CONTINUOUS
10
-0.028136
20
0.138795
30
0.0
11
-0.028224
21
0.137767
31
0.0
0
LINE
8
0
6
CONTINUOUS
10
-0.026949
20
0.139249
30
0.0
11
-0.028136
21
0.138795
31
0.0
0
LINE
8
0
6
CONTINUOUS
10
-0.025850
20
0.138676
30
0.0
11
-0.026949
21
0.139249
31
0.0
0
LINE
8
0
6
CONTINUOUS
10
-0.025938
20
0.137648
30
0.0
11
-0.025850
21
0.138676
31
0.0
0
LINE
8
0
6
CONTINUOUS
10
-0.027125
20
0.137193
30
0.0
11
-0.025938
21
0.137648
31
0.0
0
LINE
8
0
6
CONTINUOUS
10
-0.021752
20
0.133558
30
0.0
11
-0.020654
21
0.132985
31
0.0
0
LINE
8
0
6
CONTINUOUS
10
-0.021665
20
0.134586
30
0.0
11
-0.021752
21
0.133558
31
0.0
0
LINE
8
0
6
CONTINUOUS
10
-0.020478
20
0.135041
30
0.0
11
-0.021665
21
0.134586
31
0.0
0
LINE
8
0
6
CONTINUOUS
10
-0.019379
20
0.134467
30
0.0
11
-0.020478
21
0.135041
31
0.0
0
LINE
8
0
6
CONTINUOUS
10
-0.019467
20
0.133439
30
0.0
11
-0.019379
21
0.134467
31
0.0
0
LINE
8
0
6
CONTINUOUS
10
-0.020654
20
0.132985
30
0.0
11
-0.019467
21
0.133439
31
0.0
0
LINE
8
0
6
CONTINUOUS
10
0.010211
20
0.155892
30
0.0
11
0.010207
21
0.154652
31
0.0
0
LINE
8
0
6
CONTINUOUS
10
0.008834
20
0.156515
30
0.0
11
0.010211
21
0.155892
31
0.0
0
LINE
8
0
6
CONTINUOUS
10
0.007454
20
0.155897
30
0.0
11
0.008834
21
0.156515
31
0.0
0
LINE
8
0
6
CONTINUOUS
10
0.007457
20
0.156498
30
0.0
11
0.007454
21
0.155897
31
0.0
0
LINE
8
0
6
CONTINUOUS
10
0.008827
20
0.154035
30
0.0
11
0.010207
21
0.154652
31
0.0
0
LINE
8
0
6
CONTINUOUS
10
0.007451
20
0.154657
30
0.0
11
0.008827
21
0.154035
31
0.0
0
LINE
8
0
6
CONTINUOUS
10
0.007454
20
0.155897
30
0.0
11
0.007451
21
0.154657
31
0.0
0
LINE
8
0
6
CONTINUOUS
10
0.008834
20
0.156515
30
0.0
11
0.007454
21
0.155897
31
0.0
0
LINE
8
0
6
CONTINUOUS
10
0.010211
20
0.155892
30
0.0
11
0.008834
21
0.156515
31
0.0
0
LINE
8
0
6
CONTINUOUS
10
0.010207
20
0.154652
30
0.0
11
0.010211
21
0.155892
31
0.0
0
LINE
8
0
6
CONTINUOUS
10
-0.008510
20
0.161364
30
0.0
11
-0.007567
21
0.162362
31
0.0
0
LINE
8
0
6
CONTINUOUS
10
-0.008507
20
0.162038
30
0.0
11
-0.008510
21
0.161364
31
0.0
0
LINE
8
0
6
CONTINUOUS
10
-0.007567
20
0.162362
30
0.0
11
-0.005985
21
0.162225
31
0.0
0
LINE
8
0
6
CONTINUOUS
10
-0.005985
20
0.162225
30
0.0
11
-0.005347
21
0.161089
31
0.0
0
LINE
8
0
6
CONTINUOUS
10
-0.005985
20
0.162225
30
0.0
11
-0.007567
21
0.162362
31
0.0
0
LINE
8
0
6
CONTINUOUS
10
-0.005347
20
0.161089
30
0.0
11
-0.005985
21
0.162225
31
0.0
0
LINE
8
0
6
CONTINUOUS
10
-0.006290
20
0.160090
30
0.0
11
-0.005347
21
0.161089
31
0.0
0
LINE
8
0
6
CONTINUOUS
10
-0.007872
20
0.160228
30
0.0
11
-0.006290
21
0.160090
31
0.0
0
LINE
8
0
6
CONTINUOUS
10
-0.008510
20
0.161364
30
0.0
11
-0.007872
21
0.160228
31
0.0
0
LINE
8
0
6
CONTINUOUS
10
-0.007567
20
0.162362
30
0.0
11
-0.008510
21
0.161364
31
0.0
0
LINE
8
0
6
CONTINUOUS
10
0.008344
20
0.162105
30
0.0
11
0.008662
21
0.160890
31
0.0
0
LINE
8
0
6
CONTINUOUS
10
0.006834
20
0.162497
30
0.0
11
0.008344
21
0.162105
31
0.0
0
LINE
8
0
6
CONTINUOUS
10
0.008662
20
0.160890
30
0.0
11
0.008344
21
0.162105
31
0.0
0
LINE
8
0
6
CONTINUOUS
10
0.007471
20
0.160068
30
0.0
11
0.008662
21
0.160890
31
0.0
0
LINE
8
0
6
CONTINUOUS
10
0.005961
20
0.160460
30
0.0
11
0.007471
21
0.160068
31
0.0
0
LINE
8
0
6
CONTINUOUS
10
0.005643
20
0.161675
30
0.0
11
0.005961
21
0.160460
31
0.0
0
LINE
8
0
6
CONTINUOUS
10
0.006834
20
0.162497
30
0.0
11
0.005643
21
0.161675
31
0.0
0
LINE
8
0
6
CONTINUOUS
10
0.008344
20
0.162105
30
0.0
11
0.006834
21
0.162497
31
0.0
0
LINE
8
0
6
CONTINUOUS
10
-0.010366
20
0.155146
30
0.0
11
-0.009713
21
0.156277
31
0.0
0
LINE
8
0
6
CONTINUOUS
10
-0.010372
20
0.155821
30
0.0
11
-0.010366
21
0.155146
31
0.0
0
LINE
8
0
6
CONTINUOUS
10
-0.009713
20
0.156277
30
0.0
11
-0.008130
21
0.156402
31
0.0
0
LINE
8
0
6
CONTINUOUS
10
-0.008130
20
0.156402
30
0.0
11
-0.007199
21
0.155396
31
0.0
0
LINE
8
0
6
CONTINUOUS
10
-0.009713
20
0.156277
30
0.0
11
-0.010366
21
0.155146
31
0.0
0
LINE
8
0
6
CONTINUOUS
10
-0.008130
20
0.156402
30
0.0
11
-0.009713
21
0.156277
31
0.0
0
LINE
8
0
6
CONTINUOUS
10
-0.007199
20
0.155396
30
0.0
11
-0.008130
21
0.156402
31
0.0
0
LINE
8
0
6
CONTINUOUS
10
-0.007851
20
0.154265
30
0.0
11
-0.007199
21
0.155396
31
0.0
0
LINE
8
0
6
CONTINUOUS
10
-0.009435
20
0.154140
30
0.0
11
-0.007851
21
0.154265
31
0.0
0
LINE
8
0
6
CONTINUOUS
10
-0.010366
20
0.155146
30
0.0
11
-0.009435
21
0.154140
31
0.0
0
LINE
8
0
6
CONTINUOUS
10
0.002397
20
0.150212
30
0.0
11
0.002734
21
0.151424
31
0.0
0
LINE
8
0
6
CONTINUOUS
10
0.002390
20
0.150845
30
0.0
11
0.002397
21
0.150212
31
0.0
0
LINE
8
0
6
CONTINUOUS
10
0.002734
20
0.151424
30
0.0
11
0.004250
21
0.151803
31
0.0
0
LINE
8
0
6
CONTINUOUS
10
0.004250
20
0.151803
30
0.0
11
0.005429
21
0.150969
31
0.0
0
LINE
8
0
6
CONTINUOUS
10
-0.005447
20
0.150356
30
0.0
11
-0.004795
21
0.151486
31
0.0
0
LINE
8
0
6
CONTINUOUS
10
-0.005454
20
0.151018
30
0.0
11
-0.005447
21
0.150356
31
0.0
0
LINE
8
0
6
CONTINUOUS
10
-0.004795
20
0.151486
30
0.0
11
-0.003211
21
0.151611
31
0.0
0
LINE
8
0
6
CONTINUOUS
10
-0.004795
20
0.151486
30
0.0
11
-0.005447
21
0.150356
31
0.0
0
LINE
8
0
6
CONTINUOUS
10
-0.003211
20
0.151611
30
0.0
11
-0.004795
21
0.151486
31
0.0
0
LINE
8
0
6
CONTINUOUS
10
-0.002280
20
0.150606
30
0.0
11
-0.003211
21
0.151611
31
0.0
0
LINE
8
0
6
CONTINUOUS
10
-0.002933
20
0.149475
30
0.0
11
-0.002280
21
0.150606
31
0.0
0
LINE
8
0
6
CONTINUOUS
10
-0.004516
20
0.149350
30
0.0
11
-0.002933
21
0.149475
31
0.0
0
LINE
8
0
6
CONTINUOUS
10
-0.005447
20
0.150356
30
0.0
11
-0.004516
21
0.149350
31
0.0
0
LINE
8
0
6
CONTINUOUS
10
-0.001545
20
0.163793
30
0.0
11
-0.000892
21
0.164924
31
0.0
0
LINE
8
0
6
CONTINUOUS
10
-0.001551
20
0.164435
30
0.0
11
-0.001545
21
0.163793
31
0.0
0
LINE
8
0
6
CONTINUOUS
10
-0.000892
20
0.164924
30
0.0
11
0.000691
21
0.165049
31
0.0
0
LINE
8
0
6
CONTINUOUS
10
0.000691
20
0.165049
30
0.0
11
0.001622
21
0.164043
31
0.0
0
LINE
8
0
6
CONTINUOUS
10
-0.000892
20
0.164924
30
0.0
11
-0.001545
21
0.163793
31
0.0
0
LINE
8
0
6
CONTINUOUS
10
0.000691
20
0.165049
30
0.0
11
-0.000892
21
0.164924
31
0.0
0
LINE
8
0
6
CONTINUOUS
10
0.001622
20
0.164043
30
0.0
11
0.000691
21
0.165049
31
0.0
0
LINE
8
0
6
CONTINUOUS
10
0.000970
20
0.162912
30
0.0
11
0.001622
21
0.164043
31
0.0
0
LINE
8
0
6
CONTINUOUS
10
-0.000614
20
0.162787
30
0.0
11
0.000970
21
0.162912
31
0.0
0
LINE
8
0
6
CONTINUOUS
10
-0.001545
20
0.163793
30
0.0
11
-0.000614
21
0.162787
31
0.0
0
LINE
8
0
6
CONTINUOUS
10
0.017403
20
0.159087
30
0.0
11
0.017399
21
0.157847
31
0.0
0
LINE
8
0
6
CONTINUOUS
10
0.016026
20
0.159710
30
0.0
11
0.017403
21
0.159087
31
0.0
0
LINE
8
0
6
CONTINUOUS
10
0.014646
20
0.159092
30
0.0
11
0.016026
21
0.159710
31
0.0
0
LINE
8
0
6
CONTINUOUS
10
0.014649
20
0.159697
30
0.0
11
0.014646
21
0.159092
31
0.0
0
LINE
8
0
6
CONTINUOUS
10
0.016019
20
0.157230
30
0.0
11
0.017399
21
0.157847
31
0.0
0
LINE
8
0
6
CONTINUOUS
10
0.014643
20
0.157852
30
0.0
11
0.016019
21
0.157230
31
0.0
0
LINE
8
0
6
CONTINUOUS
10
0.014646
20
0.159092
30
0.0
11
0.014643
21
0.157852
31
0.0
0
LINE
8
0
6
CONTINUOUS
10
0.016026
20
0.159710
30
0.0
11
0.014646
21
0.159092
31
0.0
0
LINE
8
0
6
CONTINUOUS
10
0.017403
20
0.159087
30
0.0
11
0.016026
21
0.159710
31
0.0
0
LINE
8
0
6
CONTINUOUS
10
0.017399
20
0.157847
30
0.0
11
0.017403
21
0.159087
31
0.0
0
LINE
8
0
6
CONTINUOUS
10
0.022960
20
0.160175
30
0.0
11
0.024294
21
0.159572
31
0.0
0
LINE
8
0
6
CONTINUOUS
10
0.021624
20
0.159577
30
0.0
11
0.022960
21
0.160175
31
0.0
0
LINE
8
0
6
CONTINUOUS
10
0.021626
20
0.160148
30
0.0
11
0.021624
21
0.159577
31
0.0
0
LINE
8
0
6
CONTINUOUS
10
0.022954
20
0.157774
30
0.0
11
0.024290
21
0.158372
31
0.0
0
LINE
8
0
6
CONTINUOUS
10
0.021620
20
0.158377
30
0.0
11
0.022954
21
0.157774
31
0.0
0
LINE
8
0
6
CONTINUOUS
10
0.021624
20
0.159577
30
0.0
11
0.021620
21
0.158377
31
0.0
0
LINE
8
0
6
CONTINUOUS
10
0.022960
20
0.160175
30
0.0
11
0.021624
21
0.159577
31
0.0
0
LINE
8
0
6
CONTINUOUS
10
0.024294
20
0.159572
30
0.0
11
0.022960
21
0.160175
31
0.0
0
LINE
8
0
6
CONTINUOUS
10
0.024290
20
0.158372
30
0.0
11
0.024294
21
0.159572
31
0.0
0
LINE
8
0
6
CONTINUOUS
10
0.031199
20
0.157634
30
0.0
11
0.031197
21
0.156604
31
0.0
0
LINE
8
0
6
CONTINUOUS
10
0.030056
20
0.158151
30
0.0
11
0.031199
21
0.157634
31
0.0
0
LINE
8
0
6
CONTINUOUS
10
0.028909
20
0.157638
30
0.0
11
0.030056
21
0.158151
31
0.0
0
LINE
8
0
6
CONTINUOUS
10
0.028911
20
0.158223
30
0.0
11
0.028909
21
0.157638
31
0.0
0
LINE
8
0
6
CONTINUOUS
10
0.030050
20
0.156091
30
0.0
11
0.031197
21
0.156604
31
0.0
0
LINE
8
0
6
CONTINUOUS
10
0.028906
20
0.156608
30
0.0
11
0.030050
21
0.156091
31
0.0
0
LINE
8
0
6
CONTINUOUS
10
0.028909
20
0.157638
30
0.0
11
0.028906
21
0.156608
31
0.0
0
LINE
8
0
6
CONTINUOUS
10
0.030056
20
0.158151
30
0.0
11
0.028909
21
0.157638
31
0.0
0
LINE
8
0
6
CONTINUOUS
10
0.031199
20
0.157634
30
0.0
11
0.030056
21
0.158151
31
0.0
0
LINE
8
0
6
CONTINUOUS
10
0.031197
20
0.156604
30
0.0
11
0.031199
21
0.157634
31
0.0
0
LINE
8
0
6
CONTINUOUS
10
0.038213
20
0.156612
30
0.0
11
0.038210
21
0.155582
31
0.0
0
LINE
8
0
6
CONTINUOUS
10
0.038039
20
0.156691
30
0.0
11
0.038213
21
0.156612
31
0.0
0
LINE
8
0
6
CONTINUOUS
10
0.037063
20
0.155069
30
0.0
11
0.038210
21
0.155582
31
0.0
0
LINE
8
0
6
CONTINUOUS
10
0.038213
20
0.156612
30
0.0
11
0.038039
21
0.156691
31
0.0
0
LINE
8
0
6
CONTINUOUS
10
0.038210
20
0.155582
30
0.0
11
0.038213
21
0.156612
31
0.0
0
LINE
8
0
6
CONTINUOUS
10
0.038039
20
0.156693
30
0.0
11
0.038036
21
0.155663
31
0.0
0
LINE
8
0
6
CONTINUOUS
10
0.036895
20
0.157210
30
0.0
11
0.038039
21
0.156693
31
0.0
0
LINE
8
0
6
CONTINUOUS
10
0.035749
20
0.156697
30
0.0
11
0.036895
21
0.157210
31
0.0
0
LINE
8
0
6
CONTINUOUS
10
0.035751
20
0.157274
30
0.0
11
0.035749
21
0.156697
31
0.0
0
LINE
8
0
6
CONTINUOUS
10
0.036890
20
0.155150
30
0.0
11
0.038036
21
0.155663
31
0.0
0
LINE
8
0
6
CONTINUOUS
10
0.035746
20
0.155667
30
0.0
11
0.036890
21
0.155150
31
0.0
0
LINE
8
0
6
CONTINUOUS
10
0.035749
20
0.156697
30
0.0
11
0.035746
21
0.155667
31
0.0
0
LINE
8
0
6
CONTINUOUS
10
0.036895
20
0.157210
30
0.0
11
0.035749
21
0.156697
31
0.0
0
LINE
8
0
6
CONTINUOUS
10
0.038039
20
0.156693
30
0.0
11
0.036895
21
0.157210
31
0.0
0
LINE
8
0
6
CONTINUOUS
10
0.038036
20
0.155663
30
0.0
11
0.038039
21
0.156693
31
0.0
0
LINE
8
0
6
CONTINUOUS
10
0.012860
20
0.165791
30
0.0
11
0.014237
21
0.165168
31
0.0
0
LINE
8
0
6
CONTINUOUS
10
0.011480
20
0.165173
30
0.0
11
0.012860
21
0.165791
31
0.0
0
LINE
8
0
6
CONTINUOUS
10
0.011482
20
0.165794
30
0.0
11
0.011480
21
0.165173
31
0.0
0
LINE
8
0
6
CONTINUOUS
10
0.012853
20
0.163311
30
0.0
11
0.014233
21
0.163928
31
0.0
0
LINE
8
0
6
CONTINUOUS
10
0.011476
20
0.163933
30
0.0
11
0.012853
21
0.163311
31
0.0
0
LINE
8
0
6
CONTINUOUS
10
0.011480
20
0.165173
30
0.0
11
0.011476
21
0.163933
31
0.0
0
LINE
8
0
6
CONTINUOUS
10
0.012860
20
0.165791
30
0.0
11
0.011480
21
0.165173
31
0.0
0
LINE
8
0
6
CONTINUOUS
10
0.014237
20
0.165168
30
0.0
11
0.012860
21
0.165791
31
0.0
0
LINE
8
0
6
CONTINUOUS
10
0.014233
20
0.163928
30
0.0
11
0.014237
21
0.165168
31
0.0
0
LINE
8
0
6
CONTINUOUS
10
0.021906
20
0.165967
30
0.0
11
0.021903
21
0.164766
31
0.0
0
LINE
8
0
6
CONTINUOUS
10
0.020573
20
0.166570
30
0.0
11
0.021906
21
0.165967
31
0.0
0
LINE
8
0
6
CONTINUOUS
10
0.020566
20
0.164168
30
0.0
11
0.021903
21
0.164766
31
0.0
0
LINE
8
0
6
CONTINUOUS
10
0.019232
20
0.164771
30
0.0
11
0.020566
21
0.164168
31
0.0
0
LINE
8
0
6
CONTINUOUS
10
0.019236
20
0.165972
30
0.0
11
0.019232
21
0.164771
31
0.0
0
LINE
8
0
6
CONTINUOUS
10
0.020573
20
0.166570
30
0.0
11
0.019236
21
0.165972
31
0.0
0
LINE
8
0
6
CONTINUOUS
10
0.021906
20
0.165967
30
0.0
11
0.020573
21
0.166570
31
0.0
0
LINE
8
0
6
CONTINUOUS
10
0.021903
20
0.164766
30
0.0
11
0.021906
21
0.165967
31
0.0
0
LINE
8
0
6
CONTINUOUS
10
0.016873
20
0.171224
30
0.0
11
0.016870
21
0.170023
31
0.0
0
LINE
8
0
6
CONTINUOUS
10
0.015540
20
0.171827
30
0.0
11
0.016873
21
0.171224
31
0.0
0
LINE
8
0
6
CONTINUOUS
10
0.015533
20
0.169425
30
0.0
11
0.016870
21
0.170023
31
0.0
0
LINE
8
0
6
CONTINUOUS
10
0.014200
20
0.170028
30
0.0
11
0.015533
21
0.169425
31
0.0
0
LINE
8
0
6
CONTINUOUS
10
0.014203
20
0.171229
30
0.0
11
0.014200
21
0.170028
31
0.0
0
LINE
8
0
6
CONTINUOUS
10
0.015540
20
0.171827
30
0.0
11
0.014203
21
0.171229
31
0.0
0
LINE
8
0
6
CONTINUOUS
10
0.016873
20
0.171224
30
0.0
11
0.015540
21
0.171827
31
0.0
0
LINE
8
0
6
CONTINUOUS
10
0.016870
20
0.170023
30
0.0
11
0.016873
21
0.171224
31
0.0
0
LINE
8
0
6
CONTINUOUS
10
0.030057
20
0.164230
30
0.0
11
0.030054
21
0.163200
31
0.0
0
LINE
8
0
6
CONTINUOUS
10
0.028913
20
0.164748
30
0.0
11
0.030057
21
0.164230
31
0.0
0
LINE
8
0
6
CONTINUOUS
10
0.027766
20
0.164235
30
0.0
11
0.028913
21
0.164748
31
0.0
0
LINE
8
0
6
CONTINUOUS
10
0.027768
20
0.164833
30
0.0
11
0.027766
21
0.164235
31
0.0
0
LINE
8
0
6
CONTINUOUS
10
0.028907
20
0.162687
30
0.0
11
0.030054
21
0.163200
31
0.0
0
LINE
8
0
6
CONTINUOUS
10
0.027763
20
0.163204
30
0.0
11
0.028907
21
0.162687
31
0.0
0
LINE
8
0
6
CONTINUOUS
10
0.027766
20
0.164235
30
0.0
11
0.027763
21
0.163204
31
0.0
0
LINE
8
0
6
CONTINUOUS
10
0.028913
20
0.164748
30
0.0
11
0.027766
21
0.164235
31
0.0
0
LINE
8
0
6
CONTINUOUS
10
0.030057
20
0.164230
30
0.0
11
0.028913
21
0.164748
31
0.0
0
LINE
8
0
6
CONTINUOUS
10
0.030054
20
0.163200
30
0.0
11
0.030057
21
0.164230
31
0.0
0
LINE
8
0
6
CONTINUOUS
10
0.025622
20
0.170905
30
0.0
11
0.026766
21
0.170388
31
0.0
0
LINE
8
0
6
CONTINUOUS
10
0.024476
20
0.170392
30
0.0
11
0.025622
21
0.170905
31
0.0
0
LINE
8
0
6
CONTINUOUS
10
0.024478
20
0.171001
30
0.0
11
0.024476
21
0.170392
31
0.0
0
LINE
8
0
6
CONTINUOUS
10
0.025617
20
0.168845
30
0.0
11
0.026763
21
0.169358
31
0.0
0
LINE
8
0
6
CONTINUOUS
10
0.024473
20
0.169362
30
0.0
11
0.025617
21
0.168845
31
0.0
0
LINE
8
0
6
CONTINUOUS
10
0.024476
20
0.170392
30
0.0
11
0.024473
21
0.169362
31
0.0
0
LINE
8
0
6
CONTINUOUS
10
0.025622
20
0.170905
30
0.0
11
0.024476
21
0.170392
31
0.0
0
LINE
8
0
6
CONTINUOUS
10
0.026766
20
0.170388
30
0.0
11
0.025622
21
0.170905
31
0.0
0
LINE
8
0
6
CONTINUOUS
10
0.026763
20
0.169358
30
0.0
11
0.026766
21
0.170388
31
0.0
0
LINE
8
0
6
CONTINUOUS
10
0.021211
20
0.175499
30
0.0
11
0.021208
21
0.174469
31
0.0
0
LINE
8
0
6
CONTINUOUS
10
0.020067
20
0.176016
30
0.0
11
0.021211
21
0.175499
31
0.0
0
LINE
8
0
6
CONTINUOUS
10
0.018920
20
0.175503
30
0.0
11
0.020067
21
0.176016
31
0.0
0
LINE
8
0
6
CONTINUOUS
10
0.018922
20
0.176122
30
0.0
11
0.018920
21
0.175503
31
0.0
0
LINE
8
0
6
CONTINUOUS
10
0.020061
20
0.173956
30
0.0
11
0.021208
21
0.174469
31
0.0
0
LINE
8
0
6
CONTINUOUS
10
0.018917
20
0.174473
30
0.0
11
0.020061
21
0.173956
31
0.0
0
LINE
8
0
6
CONTINUOUS
10
0.018920
20
0.175503
30
0.0
11
0.018917
21
0.174473
31
0.0
0
LINE
8
0
6
CONTINUOUS
10
0.020067
20
0.176016
30
0.0
11
0.018920
21
0.175503
31
0.0
0
LINE
8
0
6
CONTINUOUS
10
0.021211
20
0.175499
30
0.0
11
0.020067
21
0.176016
31
0.0
0
LINE
8
0
6
CONTINUOUS
10
0.021208
20
0.174469
30
0.0
11
0.021211
21
0.175499
31
0.0
0
LINE
8
0
6
CONTINUOUS
10
0.024837
20
0.180639
30
0.0
11
0.025055
21
0.179623
31
0.0
0
LINE
8
0
6
CONTINUOUS
10
0.023598
20
0.181000
30
0.0
11
0.024837
21
0.180639
31
0.0
0
LINE
8
0
6
CONTINUOUS
10
0.024034
20
0.178968
30
0.0
11
0.025055
21
0.179623
31
0.0
0
LINE
8
0
6
CONTINUOUS
10
0.022795
20
0.179329
30
0.0
11
0.024034
21
0.178968
31
0.0
0
LINE
8
0
6
CONTINUOUS
10
0.022577
20
0.180345
30
0.0
11
0.022795
21
0.179329
31
0.0
0
LINE
8
0
6
CONTINUOUS
10
0.023598
20
0.181000
30
0.0
11
0.022577
21
0.180345
31
0.0
0
LINE
8
0
6
CONTINUOUS
10
0.024837
20
0.180639
30
0.0
11
0.023598
21
0.181000
31
0.0
0
LINE
8
0
6
CONTINUOUS
10
0.025055
20
0.179623
30
0.0
11
0.024837
21
0.180639
31
0.0
0
LINE
8
0
6
CONTINUOUS
10
0.030712
20
0.175730
30
0.0
11
0.030930
21
0.174714
31
0.0
0
LINE
8
0
6
CONTINUOUS
10
0.028453
20
0.175436
30
0.0
11
0.029474
21
0.176091
31
0.0
0
LINE
8
0
6
CONTINUOUS
10
0.028456
20
0.176032
30
0.0
11
0.028453
21
0.175436
31
0.0
0
LINE
8
0
6
CONTINUOUS
10
0.029909
20
0.174059
30
0.0
11
0.030930
21
0.174714
31
0.0
0
LINE
8
0
6
CONTINUOUS
10
0.028671
20
0.174420
30
0.0
11
0.029909
21
0.174059
31
0.0
0
LINE
8
0
6
CONTINUOUS
10
0.028453
20
0.175436
30
0.0
11
0.028671
21
0.174420
31
0.0
0
LINE
8
0
6
CONTINUOUS
10
0.029474
20
0.176091
30
0.0
11
0.028453
21
0.175436
31
0.0
0
LINE
8
0
6
CONTINUOUS
10
0.030712
20
0.175730
30
0.0
11
0.029474
21
0.176091
31
0.0
0
LINE
8
0
6
CONTINUOUS
10
0.030930
20
0.174714
30
0.0
11
0.030712
21
0.175730
31
0.0
0
LINE
8
0
6
CONTINUOUS
10
0.035041
20
0.169870
30
0.0
11
0.035259
21
0.168854
31
0.0
0
LINE
8
0
6
CONTINUOUS
10
0.033803
20
0.170232
30
0.0
11
0.035041
21
0.169870
31
0.0
0
LINE
8
0
6
CONTINUOUS
10
0.032782
20
0.169577
30
0.0
11
0.033803
21
0.170232
31
0.0
0
LINE
8
0
6
CONTINUOUS
10
0.032785
20
0.170163
30
0.0
11
0.032782
21
0.169577
31
0.0
0
LINE
8
0
6
CONTINUOUS
10
0.034238
20
0.168199
30
0.0
11
0.035259
21
0.168854
31
0.0
0
LINE
8
0
6
CONTINUOUS
10
0.033000
20
0.168561
30
0.0
11
0.034238
21
0.168199
31
0.0
0
LINE
8
0
6
CONTINUOUS
10
0.032782
20
0.169577
30
0.0
11
0.033000
21
0.168561
31
0.0
0
LINE
8
0
6
CONTINUOUS
10
0.033803
20
0.170232
30
0.0
11
0.032782
21
0.169577
31
0.0
0
LINE
8
0
6
CONTINUOUS
10
0.035041
20
0.169870
30
0.0
11
0.033803
21
0.170232
31
0.0
0
LINE
8
0
6
CONTINUOUS
10
0.035259
20
0.168854
30
0.0
11
0.035041
21
0.169870
31
0.0
0
LINE
8
0
6
CONTINUOUS
10
0.037582
20
0.163520
30
0.0
11
0.037799
21
0.162504
31
0.0
0
LINE
8
0
6
CONTINUOUS
10
0.036343
20
0.163881
30
0.0
11
0.037582
21
0.163520
31
0.0
0
LINE
8
0
6
CONTINUOUS
10
0.035322
20
0.163226
30
0.0
11
0.036343
21
0.163881
31
0.0
0
LINE
8
0
6
CONTINUOUS
10
0.035325
20
0.163804
30
0.0
11
0.035322
21
0.163226
31
0.0
0
LINE
8
0
6
CONTINUOUS
10
0.036779
20
0.161849
30
0.0
11
0.037799
21
0.162504
31
0.0
0
LINE
8
0
6
CONTINUOUS
10
0.035540
20
0.162210
30
0.0
11
0.036779
21
0.161849
31
0.0
0
LINE
8
0
6
CONTINUOUS
10
0.035322
20
0.163226
30
0.0
11
0.035540
21
0.162210
31
0.0
0
LINE
8
0
6
CONTINUOUS
10
0.036343
20
0.163881
30
0.0
11
0.035322
21
0.163226
31
0.0
0
LINE
8
0
6
CONTINUOUS
10
0.037582
20
0.163520
30
0.0
11
0.036343
21
0.163881
31
0.0
0
LINE
8
0
6
CONTINUOUS
10
0.037799
20
0.162504
30
0.0
11
0.037582
21
0.163520
31
0.0
0
LINE
8
0
6
CONTINUOUS
10
0.000562
20
0.145407
30
0.0
11
0.002022
21
0.145900
31
0.0
0
LINE
8
0
6
CONTINUOUS
10
0.000380
20
0.144175
30
0.0
11
0.000562
21
0.145407
31
0.0
0
LINE
8
0
6
CONTINUOUS
10
0.000373
20
0.144818
30
0.0
11
0.000380
21
0.144175
31
0.0
0
LINE
8
0
6
CONTINUOUS
10
0.000380
20
0.144175
30
0.0
11
0.001658
21
0.143436
31
0.0
0
LINE
8
0
6
CONTINUOUS
10
0.000562
20
0.145407
30
0.0
11
0.000380
21
0.144175
31
0.0
0
LINE
8
0
6
CONTINUOUS
10
0.002022
20
0.145900
30
0.0
11
0.000562
21
0.145407
31
0.0
0
LINE
8
0
6
CONTINUOUS
10
0.003301
20
0.145161
30
0.0
11
0.002022
21
0.145900
31
0.0
0
LINE
8
0
6
CONTINUOUS
10
0.003119
20
0.143929
30
0.0
11
0.003301
21
0.145161
31
0.0
0
LINE
8
0
6
CONTINUOUS
10
0.001658
20
0.143436
30
0.0
11
0.003119
21
0.143929
31
0.0
0
LINE
8
0
6
CONTINUOUS
10
0.003184
20
0.129778
30
0.0
11
0.004398
21
0.130188
31
0.0
0
LINE
8
0
6
CONTINUOUS
10
0.004398
20
0.130188
30
0.0
11
0.005460
21
0.129574
31
0.0
0
LINE
8
0
6
CONTINUOUS
10
0.003033
20
0.128755
30
0.0
11
0.003184
21
0.129778
31
0.0
0
LINE
8
0
6
CONTINUOUS
10
0.003028
20
0.129411
30
0.0
11
0.003033
21
0.128755
31
0.0
0
LINE
8
0
6
CONTINUOUS
10
0.003033
20
0.128755
30
0.0
11
0.004095
21
0.128141
31
0.0
0
LINE
8
0
6
CONTINUOUS
10
0.003184
20
0.129778
30
0.0
11
0.003033
21
0.128755
31
0.0
0
LINE
8
0
6
CONTINUOUS
10
0.004398
20
0.130188
30
0.0
11
0.003184
21
0.129778
31
0.0
0
LINE
8
0
6
CONTINUOUS
10
0.005460
20
0.129574
30
0.0
11
0.004398
21
0.130188
31
0.0
0
LINE
8
0
6
CONTINUOUS
10
0.005309
20
0.128550
30
0.0
11
0.005460
21
0.129574
31
0.0
0
LINE
8
0
6
CONTINUOUS
10
0.004095
20
0.128141
30
0.0
11
0.005309
21
0.128550
31
0.0
0
LINE
8
0
6
CONTINUOUS
10
0.002389
20
0.135047
30
0.0
11
0.003603
21
0.135457
31
0.0
0
LINE
8
0
6
CONTINUOUS
10
0.003603
20
0.135457
30
0.0
11
0.004665
21
0.134843
31
0.0
0
LINE
8
0
6
CONTINUOUS
10
0.002238
20
0.134024
30
0.0
11
0.002389
21
0.135047
31
0.0
0
LINE
8
0
6
CONTINUOUS
10
0.002233
20
0.134673
30
0.0
11
0.002238
21
0.134024
31
0.0
0
LINE
8
0
6
CONTINUOUS
10
0.002238
20
0.134024
30
0.0
11
0.003300
21
0.133410
31
0.0
0
LINE
8
0
6
CONTINUOUS
10
0.002389
20
0.135047
30
0.0
11
0.002238
21
0.134024
31
0.0
0
LINE
8
0
6
CONTINUOUS
10
0.003603
20
0.135457
30
0.0
11
0.002389
21
0.135047
31
0.0
0
LINE
8
0
6
CONTINUOUS
10
0.004665
20
0.134843
30
0.0
11
0.003603
21
0.135457
31
0.0
0
LINE
8
0
6
CONTINUOUS
10
0.004514
20
0.133819
30
0.0
11
0.004665
21
0.134843
31
0.0
0
LINE
8
0
6
CONTINUOUS
10
0.003300
20
0.133410
30
0.0
11
0.004514
21
0.133819
31
0.0
0
LINE
8
0
6
CONTINUOUS
10
0.002837
20
0.140436
30
0.0
11
0.004252
21
0.140913
31
0.0
0
LINE
8
0
6
CONTINUOUS
10
0.004252
20
0.140913
30
0.0
11
0.005490
21
0.140198
31
0.0
0
LINE
8
0
6
CONTINUOUS
10
0.002661
20
0.139243
30
0.0
11
0.002837
21
0.140436
31
0.0
0
LINE
8
0
6
CONTINUOUS
10
0.002655
20
0.139898
30
0.0
11
0.002661
21
0.139243
31
0.0
0
LINE
8
0
6
CONTINUOUS
10
0.002661
20
0.139243
30
0.0
11
0.003899
21
0.138527
31
0.0
0
LINE
8
0
6
CONTINUOUS
10
0.002837
20
0.140436
30
0.0
11
0.002661
21
0.139243
31
0.0
0
LINE
8
0
6
CONTINUOUS
10
0.004252
20
0.140913
30
0.0
11
0.002837
21
0.140436
31
0.0
0
LINE
8
0
6
CONTINUOUS
10
0.005490
20
0.140198
30
0.0
11
0.004252
21
0.140913
31
0.0
0
LINE
8
0
6
CONTINUOUS
10
0.005314
20
0.139005
30
0.0
11
0.005490
21
0.140198
31
0.0
0
LINE
8
0
6
CONTINUOUS
10
0.003899
20
0.138527
30
0.0
11
0.005314
21
0.139005
31
0.0
0
LINE
8
0
6
CONTINUOUS
10
0.011625
20
0.131506
30
0.0
11
0.012838
21
0.131916
31
0.0
0
LINE
8
0
6
CONTINUOUS
10
0.011474
20
0.130483
30
0.0
11
0.011625
21
0.131506
31
0.0
0
LINE
8
0
6
CONTINUOUS
10
0.011468
20
0.131123
30
0.0
11
0.011474
21
0.130483
31
0.0
0
LINE
8
0
6
CONTINUOUS
10
0.011474
20
0.130483
30
0.0
11
0.012536
21
0.129869
31
0.0
0
LINE
8
0
6
CONTINUOUS
10
0.011625
20
0.131506
30
0.0
11
0.011474
21
0.130483
31
0.0
0
LINE
8
0
6
CONTINUOUS
10
0.012838
20
0.131916
30
0.0
11
0.011625
21
0.131506
31
0.0
0
LINE
8
0
6
CONTINUOUS
10
0.013901
20
0.131302
30
0.0
11
0.012838
21
0.131916
31
0.0
0
LINE
8
0
6
CONTINUOUS
10
0.013749
20
0.130279
30
0.0
11
0.013901
21
0.131302
31
0.0
0
LINE
8
0
6
CONTINUOUS
10
0.012536
20
0.129869
30
0.0
11
0.013749
21
0.130279
31
0.0
0
LINE
8
0
6
CONTINUOUS
10
0.010830
20
0.136787
30
0.0
11
0.012044
21
0.137197
31
0.0
0
LINE
8
0
6
CONTINUOUS
10
0.012044
20
0.137197
30
0.0
11
0.013106
21
0.136583
31
0.0
0
LINE
8
0
6
CONTINUOUS
10
0.010679
20
0.135764
30
0.0
11
0.010830
21
0.136787
31
0.0
0
LINE
8
0
6
CONTINUOUS
10
0.010674
20
0.136402
30
0.0
11
0.010679
21
0.135764
31
0.0
0
LINE
8
0
6
CONTINUOUS
10
0.010679
20
0.135764
30
0.0
11
0.011741
21
0.135150
31
0.0
0
LINE
8
0
6
CONTINUOUS
10
0.010830
20
0.136787
30
0.0
11
0.010679
21
0.135764
31
0.0
0
LINE
8
0
6
CONTINUOUS
10
0.012044
20
0.137197
30
0.0
11
0.010830
21
0.136787
31
0.0
0
LINE
8
0
6
CONTINUOUS
10
0.013106
20
0.136583
30
0.0
11
0.012044
21
0.137197
31
0.0
0
LINE
8
0
6
CONTINUOUS
10
0.012955
20
0.135559
30
0.0
11
0.013106
21
0.136583
31
0.0
0
LINE
8
0
6
CONTINUOUS
10
0.011741
20
0.135150
30
0.0
11
0.012955
21
0.135559
31
0.0
0
LINE
8
0
6
CONTINUOUS
10
0.010779
20
0.142769
30
0.0
11
0.012193
21
0.143246
31
0.0
0
LINE
8
0
6
CONTINUOUS
10
0.012193
20
0.143246
30
0.0
11
0.013431
21
0.142530
31
0.0
0
LINE
8
0
6
CONTINUOUS
10
0.010602
20
0.141576
30
0.0
11
0.010779
21
0.142769
31
0.0
0
LINE
8
0
6
CONTINUOUS
10
0.010596
20
0.142198
30
0.0
11
0.010602
21
0.141576
31
0.0
0
LINE
8
0
6
CONTINUOUS
10
0.010602
20
0.141576
30
0.0
11
0.011841
21
0.140860
31
0.0
0
LINE
8
0
6
CONTINUOUS
10
0.010779
20
0.142769
30
0.0
11
0.010602
21
0.141576
31
0.0
0
LINE
8
0
6
CONTINUOUS
10
0.012193
20
0.143246
30
0.0
11
0.010779
21
0.142769
31
0.0
0
LINE
8
0
6
CONTINUOUS
10
0.013431
20
0.142530
30
0.0
11
0.012193
21
0.143246
31
0.0
0
LINE
8
0
6
CONTINUOUS
10
0.013255
20
0.141337
30
0.0
11
0.013431
21
0.142530
31
0.0
0
LINE
8
0
6
CONTINUOUS
10
0.011841
20
0.140860
30
0.0
11
0.013255
21
0.141337
31
0.0
0
LINE
8
0
6
CONTINUOUS
10
0.008336
20
0.147737
30
0.0
11
0.009796
21
0.148230
31
0.0
0
LINE
8
0
6
CONTINUOUS
10
0.008154
20
0.146505
30
0.0
11
0.008336
21
0.147737
31
0.0
0
LINE
8
0
6
CONTINUOUS
10
0.008148
20
0.147134
30
0.0
11
0.008154
21
0.146505
31
0.0
0
LINE
8
0
6
CONTINUOUS
10
0.008154
20
0.146505
30
0.0
11
0.009432
21
0.145766
31
0.0
0
LINE
8
0
6
CONTINUOUS
10
0.008336
20
0.147737
30
0.0
11
0.008154
21
0.146505
31
0.0
0
LINE
8
0
6
CONTINUOUS
10
0.009796
20
0.148230
30
0.0
11
0.008336
21
0.147737
31
0.0
0
LINE
8
0
6
CONTINUOUS
10
0.011075
20
0.147491
30
0.0
11
0.009796
21
0.148230
31
0.0
0
LINE
8
0
6
CONTINUOUS
10
0.010893
20
0.146259
30
0.0
11
0.011075
21
0.147491
31
0.0
0
LINE
8
0
6
CONTINUOUS
10
0.009432
20
0.145766
30
0.0
11
0.010893
21
0.146259
31
0.0
0
LINE
8
0
6
CONTINUOUS
10
0.013394
20
0.152948
30
0.0
11
0.014854
21
0.153441
31
0.0
0
LINE
8
0
6
CONTINUOUS
10
0.014854
20
0.153441
30
0.0
11
0.016132
21
0.152702
31
0.0
0
LINE
8
0
6
CONTINUOUS
10
0.013212
20
0.151717
30
0.0
11
0.014490
21
0.150978
31
0.0
0
LINE
8
0
6
CONTINUOUS
10
0.013394
20
0.152948
30
0.0
11
0.013212
21
0.151717
31
0.0
0
LINE
8
0
6
CONTINUOUS
10
0.014854
20
0.153441
30
0.0
11
0.013394
21
0.152948
31
0.0
0
LINE
8
0
6
CONTINUOUS
10
0.016132
20
0.152702
30
0.0
11
0.014854
21
0.153441
31
0.0
0
LINE
8
0
6
CONTINUOUS
10
0.015950
20
0.151471
30
0.0
11
0.016132
21
0.152702
31
0.0
0
LINE
8
0
6
CONTINUOUS
10
0.014490
20
0.150978
30
0.0
11
0.015950
21
0.151471
31
0.0
0
LINE
8
0
6
CONTINUOUS
10
0.016930
20
0.146156
30
0.0
11
0.018168
21
0.145440
31
0.0
0
LINE
8
0
6
CONTINUOUS
10
0.017106
20
0.147349
30
0.0
11
0.016930
21
0.146156
31
0.0
0
LINE
8
0
6
CONTINUOUS
10
0.018521
20
0.147826
30
0.0
11
0.017106
21
0.147349
31
0.0
0
LINE
8
0
6
CONTINUOUS
10
0.019759
20
0.147111
30
0.0
11
0.018521
21
0.147826
31
0.0
0
LINE
8
0
6
CONTINUOUS
10
0.019583
20
0.145918
30
0.0
11
0.019759
21
0.147111
31
0.0
0
LINE
8
0
6
CONTINUOUS
10
0.018168
20
0.145440
30
0.0
11
0.019583
21
0.145918
31
0.0
0
LINE
8
0
6
CONTINUOUS
10
0.021021
20
0.153119
30
0.0
11
0.022436
21
0.153596
31
0.0
0
LINE
8
0
6
CONTINUOUS
10
0.020845
20
0.151926
30
0.0
11
0.021021
21
0.153119
31
0.0
0
LINE
8
0
6
CONTINUOUS
10
0.020839
20
0.152505
30
0.0
11
0.020845
21
0.151926
31
0.0
0
LINE
8
0
6
CONTINUOUS
10
0.020845
20
0.151926
30
0.0
11
0.022083
21
0.151210
31
0.0
0
LINE
8
0
6
CONTINUOUS
10
0.021021
20
0.153119
30
0.0
11
0.020845
21
0.151926
31
0.0
0
LINE
8
0
6
CONTINUOUS
10
0.022436
20
0.153596
30
0.0
11
0.021021
21
0.153119
31
0.0
0
LINE
8
0
6
CONTINUOUS
10
0.023674
20
0.152881
30
0.0
11
0.022436
21
0.153596
31
0.0
0
LINE
8
0
6
CONTINUOUS
10
0.023498
20
0.151688
30
0.0
11
0.023674
21
0.152881
31
0.0
0
LINE
8
0
6
CONTINUOUS
10
0.022083
20
0.151210
30
0.0
11
0.023498
21
0.151688
31
0.0
0
LINE
8
0
6
CONTINUOUS
10
0.017971
20
0.140236
30
0.0
11
0.019185
21
0.140645
31
0.0
0
LINE
8
0
6
CONTINUOUS
10
0.019185
20
0.140645
30
0.0
11
0.020247
21
0.140031
31
0.0
0
LINE
8
0
6
CONTINUOUS
10
0.017820
20
0.139212
30
0.0
11
0.017971
21
0.140236
31
0.0
0
LINE
8
0
6
CONTINUOUS
10
0.017815
20
0.139834
30
0.0
11
0.017820
21
0.139212
31
0.0
0
LINE
8
0
6
CONTINUOUS
10
0.017820
20
0.139212
30
0.0
11
0.018882
21
0.138598
31
0.0
0
LINE
8
0
6
CONTINUOUS
10
0.017971
20
0.140236
30
0.0
11
0.017820
21
0.139212
31
0.0
0
LINE
8
0
6
CONTINUOUS
10
0.019185
20
0.140645
30
0.0
11
0.017971
21
0.140236
31
0.0
0
LINE
8
0
6
CONTINUOUS
10
0.020247
20
0.140031
30
0.0
11
0.019185
21
0.140645
31
0.0
0
LINE
8
0
6
CONTINUOUS
10
0.020096
20
0.139008
30
0.0
11
0.020247
21
0.140031
31
0.0
0
LINE
8
0
6
CONTINUOUS
10
0.018882
20
0.138598
30
0.0
11
0.020096
21
0.139008
31
0.0
0
LINE
8
0
6
CONTINUOUS
10
0.023726
20
0.145114
30
0.0
11
0.024940
21
0.145524
31
0.0
0
LINE
8
0
6
CONTINUOUS
10
0.024940
20
0.145524
30
0.0
11
0.026002
21
0.144910
31
0.0
0
LINE
8
0
6
CONTINUOUS
10
0.023575
20
0.144091
30
0.0
11
0.023726
21
0.145114
31
0.0
0
LINE
8
0
6
CONTINUOUS
10
0.023570
20
0.144696
30
0.0
11
0.023575
21
0.144091
31
0.0
0
LINE
8
0
6
CONTINUOUS
10
0.023575
20
0.144091
30
0.0
11
0.024637
21
0.143477
31
0.0
0
LINE
8
0
6
CONTINUOUS
10
0.023726
20
0.145114
30
0.0
11
0.023575
21
0.144091
31
0.0
0
LINE
8
0
6
CONTINUOUS
10
0.024940
20
0.145524
30
0.0
11
0.023726
21
0.145114
31
0.0
0
LINE
8
0
6
CONTINUOUS
10
0.026002
20
0.144910
30
0.0
11
0.024940
21
0.145524
31
0.0
0
LINE
8
0
6
CONTINUOUS
10
0.025851
20
0.143886
30
0.0
11
0.026002
21
0.144910
31
0.0
0
LINE
8
0
6
CONTINUOUS
10
0.024637
20
0.143477
30
0.0
11
0.025851
21
0.143886
31
0.0
0
LINE
8
0
6
CONTINUOUS
10
0.027691
20
0.151197
30
0.0
11
0.028905
21
0.151606
31
0.0
0
LINE
8
0
6
CONTINUOUS
10
0.028905
20
0.151606
30
0.0
11
0.029967
21
0.150992
31
0.0
0
LINE
8
0
6
CONTINUOUS
10
0.027540
20
0.150173
30
0.0
11
0.027691
21
0.151197
31
0.0
0
LINE
8
0
6
CONTINUOUS
10
0.027535
20
0.150769
30
0.0
11
0.027540
21
0.150173
31
0.0
0
LINE
8
0
6
CONTINUOUS
10
0.027540
20
0.150173
30
0.0
11
0.028602
21
0.149559
31
0.0
0
LINE
8
0
6
CONTINUOUS
10
0.027691
20
0.151197
30
0.0
11
0.027540
21
0.150173
31
0.0
0
LINE
8
0
6
CONTINUOUS
10
0.028905
20
0.151606
30
0.0
11
0.027691
21
0.151197
31
0.0
0
LINE
8
0
6
CONTINUOUS
10
0.029967
20
0.150992
30
0.0
11
0.028905
21
0.151606
31
0.0
0
LINE
8
0
6
CONTINUOUS
10
0.029816
20
0.149969
30
0.0
11
0.029967
21
0.150992
31
0.0
0
LINE
8
0
6
CONTINUOUS
10
0.028602
20
0.149559
30
0.0
11
0.029816
21
0.149969
31
0.0
0
LINE
8
0
6
CONTINUOUS
10
0.036580
20
0.150301
30
0.0
11
0.036650
21
0.149272
31
0.0
0
LINE
8
0
6
CONTINUOUS
10
0.034363
20
0.149177
30
0.0
11
0.035542
21
0.148710
31
0.0
0
LINE
8
0
6
CONTINUOUS
10
0.034293
20
0.150206
30
0.0
11
0.034363
21
0.149177
31
0.0
0
LINE
8
0
6
CONTINUOUS
10
0.035401
20
0.150768
30
0.0
11
0.034293
21
0.150206
31
0.0
0
LINE
8
0
6
CONTINUOUS
10
0.036580
20
0.150301
30
0.0
11
0.035401
21
0.150768
31
0.0
0
LINE
8
0
6
CONTINUOUS
10
0.036650
20
0.149272
30
0.0
11
0.036580
21
0.150301
31
0.0
0
LINE
8
0
6
CONTINUOUS
10
0.035542
20
0.148710
30
0.0
11
0.036650
21
0.149272
31
0.0
0
LINE
8
0
6
CONTINUOUS
10
0.030937
20
0.143020
30
0.0
11
0.032116
21
0.142553
31
0.0
0
LINE
8
0
6
CONTINUOUS
10
0.030867
20
0.144049
30
0.0
11
0.030937
21
0.143020
31
0.0
0
LINE
8
0
6
CONTINUOUS
10
0.031976
20
0.144610
30
0.0
11
0.030867
21
0.144049
31
0.0
0
LINE
8
0
6
CONTINUOUS
10
0.033154
20
0.144143
30
0.0
11
0.031976
21
0.144610
31
0.0
0
LINE
8
0
6
CONTINUOUS
10
0.033225
20
0.143114
30
0.0
11
0.033154
21
0.144143
31
0.0
0
LINE
8
0
6
CONTINUOUS
10
0.032116
20
0.142553
30
0.0
11
0.033225
21
0.143114
31
0.0
0
LINE
8
0
6
CONTINUOUS
10
0.027987
20
0.138716
30
0.0
11
0.028057
21
0.137687
31
0.0
0
LINE
8
0
6
CONTINUOUS
10
0.025770
20
0.137593
30
0.0
11
0.026949
21
0.137125
31
0.0
0
LINE
8
0
6
CONTINUOUS
10
0.025700
20
0.138621
30
0.0
11
0.025770
21
0.137593
31
0.0
0
LINE
8
0
6
CONTINUOUS
10
0.026808
20
0.139183
30
0.0
11
0.025700
21
0.138621
31
0.0
0
LINE
8
0
6
CONTINUOUS
10
0.027987
20
0.138716
30
0.0
11
0.026808
21
0.139183
31
0.0
0
LINE
8
0
6
CONTINUOUS
10
0.028057
20
0.137687
30
0.0
11
0.027987
21
0.138716
31
0.0
0
LINE
8
0
6
CONTINUOUS
10
0.026949
20
0.137125
30
0.0
11
0.028057
21
0.137687
31
0.0
0
LINE
8
0
6
CONTINUOUS
10
0.019304
20
0.133245
30
0.0
11
0.020483
21
0.132778
31
0.0
0
LINE
8
0
6
CONTINUOUS
10
0.019234
20
0.134274
30
0.0
11
0.019304
21
0.133245
31
0.0
0
LINE
8
0
6
CONTINUOUS
10
0.020343
20
0.134836
30
0.0
11
0.019234
21
0.134274
31
0.0
0
LINE
8
0
6
CONTINUOUS
10
0.021522
20
0.134369
30
0.0
11
0.020343
21
0.134836
31
0.0
0
LINE
8
0
6
CONTINUOUS
10
0.021592
20
0.133340
30
0.0
11
0.021522
21
0.134369
31
0.0
0
LINE
8
0
6
CONTINUOUS
10
0.020483
20
0.132778
30
0.0
11
0.021592
21
0.133340
31
0.0
0
LINE
8
0
6
CONTINUOUS
10
0.005782
20
0.169814
30
0.0
11
0.007350
21
0.169599
31
0.0
0
LINE
8
0
6
CONTINUOUS
10
0.007350
20
0.169599
30
0.0
11
0.007894
21
0.168434
31
0.0
0
LINE
8
0
6
CONTINUOUS
10
0.007894
20
0.168434
30
0.0
11
0.007350
21
0.169599
31
0.0
0
LINE
8
0
6
CONTINUOUS
10
0.006871
20
0.167484
30
0.0
11
0.007894
21
0.168434
31
0.0
0
LINE
8
0
6
CONTINUOUS
10
0.005304
20
0.167700
30
0.0
11
0.006871
21
0.167484
31
0.0
0
LINE
8
0
6
CONTINUOUS
10
0.004759
20
0.168865
30
0.0
11
0.005304
21
0.167700
31
0.0
0
LINE
8
0
6
CONTINUOUS
10
0.005782
20
0.169814
30
0.0
11
0.004759
21
0.168865
31
0.0
0
LINE
8
0
6
CONTINUOUS
10
0.007350
20
0.169599
30
0.0
11
0.005782
21
0.169814
31
0.0
0
LINE
8
0
6
CONTINUOUS
10
0.016362
20
0.184754
30
0.0
11
0.017664
21
0.184574
31
0.0
0
LINE
8
0
6
CONTINUOUS
10
0.015512
20
0.183964
30
0.0
11
0.016362
21
0.184754
31
0.0
0
LINE
8
0
6
CONTINUOUS
10
0.015519
20
0.184586
30
0.0
11
0.015512
21
0.183964
31
0.0
0
LINE
8
0
6
CONTINUOUS
10
0.017664
20
0.184574
30
0.0
11
0.018117
21
0.183606
31
0.0
0
LINE
8
0
6
CONTINUOUS
10
0.018117
20
0.183606
30
0.0
11
0.017664
21
0.184574
31
0.0
0
LINE
8
0
6
CONTINUOUS
10
0.017267
20
0.182817
30
0.0
11
0.018117
21
0.183606
31
0.0
0
LINE
8
0
6
CONTINUOUS
10
0.015964
20
0.182996
30
0.0
11
0.017267
21
0.182817
31
0.0
0
LINE
8
0
6
CONTINUOUS
10
0.015512
20
0.183964
30
0.0
11
0.015964
21
0.182996
31
0.0
0
LINE
8
0
6
CONTINUOUS
10
0.016362
20
0.184754
30
0.0
11
0.015512
21
0.183964
31
0.0
0
LINE
8
0
6
CONTINUOUS
10
0.017664
20
0.184574
30
0.0
11
0.016362
21
0.184754
31
0.0
0
LINE
8
0
6
CONTINUOUS
10
0.014408
20
0.178676
30
0.0
11
0.013956
21
0.179645
31
0.0
0
LINE
8
0
6
CONTINUOUS
10
0.013558
20
0.177887
30
0.0
11
0.014408
21
0.178676
31
0.0
0
LINE
8
0
6
CONTINUOUS
10
0.012256
20
0.178066
30
0.0
11
0.013558
21
0.177887
31
0.0
0
LINE
8
0
6
CONTINUOUS
10
0.011803
20
0.179035
30
0.0
11
0.012256
21
0.178066
31
0.0
0
LINE
8
0
6
CONTINUOUS
10
0.012654
20
0.179824
30
0.0
11
0.011803
21
0.179035
31
0.0
0
LINE
8
0
6
CONTINUOUS
10
0.013956
20
0.179645
30
0.0
11
0.012654
21
0.179824
31
0.0
0
LINE
8
0
6
CONTINUOUS
10
0.009849
20
0.173850
30
0.0
11
0.009322
21
0.174979
31
0.0
0
LINE
8
0
6
CONTINUOUS
10
0.008858
20
0.172931
30
0.0
11
0.009849
21
0.173850
31
0.0
0
LINE
8
0
6
CONTINUOUS
10
0.007340
20
0.173139
30
0.0
11
0.008858
21
0.172931
31
0.0
0
LINE
8
0
6
CONTINUOUS
10
0.006813
20
0.174268
30
0.0
11
0.007340
21
0.173139
31
0.0
0
LINE
8
0
6
CONTINUOUS
10
0.007804
20
0.175188
30
0.0
11
0.006813
21
0.174268
31
0.0
0
LINE
8
0
6
CONTINUOUS
10
0.009322
20
0.174979
30
0.0
11
0.007804
21
0.175188
31
0.0
0
LINE
8
0
6
CONTINUOUS
10
0.009387
20
0.186733
30
0.0
11
0.009840
21
0.185765
31
0.0
0
LINE
8
0
6
CONTINUOUS
10
0.009840
20
0.185765
30
0.0
11
0.009387
21
0.186733
31
0.0
0
LINE
8
0
6
CONTINUOUS
10
0.008990
20
0.184976
30
0.0
11
0.009840
21
0.185765
31
0.0
0
LINE
8
0
6
CONTINUOUS
10
0.007687
20
0.185155
30
0.0
11
0.008990
21
0.184976
31
0.0
0
LINE
8
0
6
CONTINUOUS
10
0.007235
20
0.186123
30
0.0
11
0.007687
21
0.185155
31
0.0
0
LINE
8
0
6
CONTINUOUS
10
0.008085
20
0.186912
30
0.0
11
0.007235
21
0.186123
31
0.0
0
LINE
8
0
6
CONTINUOUS
10
0.009387
20
0.186733
30
0.0
11
0.008085
21
0.186912
31
0.0
0
LINE
8
0
6
CONTINUOUS
10
0.004811
20
0.181651
30
0.0
11
0.006113
21
0.181472
31
0.0
0
LINE
8
0
6
CONTINUOUS
10
0.003961
20
0.180862
30
0.0
11
0.004811
21
0.181651
31
0.0
0
LINE
8
0
6
CONTINUOUS
10
0.003968
20
0.181503
30
0.0
11
0.003961
21
0.180862
31
0.0
0
LINE
8
0
6
CONTINUOUS
10
0.006113
20
0.181472
30
0.0
11
0.006565
21
0.180504
31
0.0
0
LINE
8
0
6
CONTINUOUS
10
0.006565
20
0.180504
30
0.0
11
0.006113
21
0.181472
31
0.0
0
LINE
8
0
6
CONTINUOUS
10
0.005715
20
0.179714
30
0.0
11
0.006565
21
0.180504
31
0.0
0
LINE
8
0
6
CONTINUOUS
10
0.004413
20
0.179894
30
0.0
11
0.005715
21
0.179714
31
0.0
0
LINE
8
0
6
CONTINUOUS
10
0.003961
20
0.180862
30
0.0
11
0.004413
21
0.179894
31
0.0
0
LINE
8
0
6
CONTINUOUS
10
0.004811
20
0.181651
30
0.0
11
0.003961
21
0.180862
31
0.0
0
LINE
8
0
6
CONTINUOUS
10
0.006113
20
0.181472
30
0.0
11
0.004811
21
0.181651
31
0.0
0
LINE
8
0
6
CONTINUOUS
10
-0.000472
20
0.176382
30
0.0
11
0.001047
21
0.176173
31
0.0
0
LINE
8
0
6
CONTINUOUS
10
-0.001462
20
0.175462
30
0.0
11
-0.000472
21
0.176382
31
0.0
0
LINE
8
0
6
CONTINUOUS
10
-0.001454
20
0.176121
30
0.0
11
-0.001462
21
0.175462
31
0.0
0
LINE
8
0
6
CONTINUOUS
10
0.001047
20
0.176173
30
0.0
11
0.001574
21
0.175045
31
0.0
0
LINE
8
0
6
CONTINUOUS
10
0.001574
20
0.175045
30
0.0
11
0.001047
21
0.176173
31
0.0
0
LINE
8
0
6
CONTINUOUS
10
0.000583
20
0.174125
30
0.0
11
0.001574
21
0.175045
31
0.0
0
LINE
8
0
6
CONTINUOUS
10
-0.000935
20
0.174333
30
0.0
11
0.000583
21
0.174125
31
0.0
0
LINE
8
0
6
CONTINUOUS
10
-0.001462
20
0.175462
30
0.0
11
-0.000935
21
0.174333
31
0.0
0
LINE
8
0
6
CONTINUOUS
10
-0.000472
20
0.176382
30
0.0
11
-0.001462
21
0.175462
31
0.0
0
LINE
8
0
6
CONTINUOUS
10
0.001047
20
0.176173
30
0.0
11
-0.000472
21
0.176382
31
0.0
0
LINE
8
0
6
CONTINUOUS
10
-0.002500
20
0.170487
30
0.0
11
-0.000933
21
0.170271
31
0.0
0
LINE
8
0
6
CONTINUOUS
10
-0.003523
20
0.169537
30
0.0
11
-0.002500
21
0.170487
31
0.0
0
LINE
8
0
6
CONTINUOUS
10
-0.003514
20
0.170185
30
0.0
11
-0.003523
21
0.169537
31
0.0
0
LINE
8
0
6
CONTINUOUS
10
-0.000933
20
0.170271
30
0.0
11
-0.000388
21
0.169106
31
0.0
0
LINE
8
0
6
CONTINUOUS
10
-0.000388
20
0.169106
30
0.0
11
-0.000933
21
0.170271
31
0.0
0
LINE
8
0
6
CONTINUOUS
10
-0.001411
20
0.168156
30
0.0
11
-0.000388
21
0.169106
31
0.0
0
LINE
8
0
6
CONTINUOUS
10
-0.002979
20
0.168372
30
0.0
11
-0.001411
21
0.168156
31
0.0
0
LINE
8
0
6
CONTINUOUS
10
-0.003523
20
0.169537
30
0.0
11
-0.002979
21
0.168372
31
0.0
0
LINE
8
0
6
CONTINUOUS
10
-0.002500
20
0.170487
30
0.0
11
-0.003523
21
0.169537
31
0.0
0
LINE
8
0
6
CONTINUOUS
10
-0.000933
20
0.170271
30
0.0
11
-0.002500
21
0.170487
31
0.0
0
LINE
8
0
6
CONTINUOUS
10
-0.010313
20
0.168197
30
0.0
11
-0.008745
21
0.167982
31
0.0
0
LINE
8
0
6
CONTINUOUS
10
-0.008745
20
0.167982
30
0.0
11
-0.008201
21
0.166817
31
0.0
0
LINE
8
0
6
CONTINUOUS
10
-0.008201
20
0.166817
30
0.0
11
-0.008745
21
0.167982
31
0.0
0
LINE
8
0
6
CONTINUOUS
10
-0.009224
20
0.165867
30
0.0
11
-0.008201
21
0.166817
31
0.0
0
LINE
8
0
6
CONTINUOUS
10
-0.010791
20
0.166082
30
0.0
11
-0.009224
21
0.165867
31
0.0
0
LINE
8
0
6
CONTINUOUS
10
-0.011336
20
0.167248
30
0.0
11
-0.010791
21
0.166082
31
0.0
0
LINE
8
0
6
CONTINUOUS
10
-0.010313
20
0.168197
30
0.0
11
-0.011336
21
0.167248
31
0.0
0
LINE
8
0
6
CONTINUOUS
10
-0.008745
20
0.167982
30
0.0
11
-0.010313
21
0.168197
31
0.0
0
LINE
8
0
6
CONTINUOUS
10
-0.008757
20
0.175279
30
0.0
11
-0.007239
21
0.175070
31
0.0
0
LINE
8
0
6
CONTINUOUS
10
-0.009748
20
0.174359
30
0.0
11
-0.008757
21
0.175279
31
0.0
0
LINE
8
0
6
CONTINUOUS
10
-0.009739
20
0.175034
30
0.0
11
-0.009748
21
0.174359
31
0.0
0
LINE
8
0
6
CONTINUOUS
10
-0.007239
20
0.175070
30
0.0
11
-0.006711
21
0.173941
31
0.0
0
LINE
8
0
6
CONTINUOUS
10
-0.006711
20
0.173941
30
0.0
11
-0.007239
21
0.175070
31
0.0
0
LINE
8
0
6
CONTINUOUS
10
-0.007702
20
0.173022
30
0.0
11
-0.006711
21
0.173941
31
0.0
0
LINE
8
0
6
CONTINUOUS
10
-0.009220
20
0.173230
30
0.0
11
-0.007702
21
0.173022
31
0.0
0
LINE
8
0
6
CONTINUOUS
10
-0.009748
20
0.174359
30
0.0
11
-0.009220
21
0.173230
31
0.0
0
LINE
8
0
6
CONTINUOUS
10
-0.008757
20
0.175279
30
0.0
11
-0.009748
21
0.174359
31
0.0
0
LINE
8
0
6
CONTINUOUS
10
-0.007239
20
0.175070
30
0.0
11
-0.008757
21
0.175279
31
0.0
0
LINE
8
0
6
CONTINUOUS
10
-0.016101
20
0.171776
30
0.0
11
-0.014583
21
0.171567
31
0.0
0
LINE
8
0
6
CONTINUOUS
10
-0.017092
20
0.170856
30
0.0
11
-0.016101
21
0.171776
31
0.0
0
LINE
8
0
6
CONTINUOUS
10
-0.017083
20
0.171556
30
0.0
11
-0.017092
21
0.170856
31
0.0
0
LINE
8
0
6
CONTINUOUS
10
-0.014056
20
0.170438
30
0.0
11
-0.014583
21
0.171567
31
0.0
0
LINE
8
0
6
CONTINUOUS
10
-0.015046
20
0.169518
30
0.0
11
-0.014056
21
0.170438
31
0.0
0
LINE
8
0
6
CONTINUOUS
10
-0.016565
20
0.169727
30
0.0
11
-0.015046
21
0.169518
31
0.0
0
LINE
8
0
6
CONTINUOUS
10
-0.017092
20
0.170856
30
0.0
11
-0.016565
21
0.169727
31
0.0
0
LINE
8
0
6
CONTINUOUS
10
-0.016101
20
0.171776
30
0.0
11
-0.017092
21
0.170856
31
0.0
0
LINE
8
0
6
CONTINUOUS
10
-0.014583
20
0.171567
30
0.0
11
-0.016101
21
0.171776
31
0.0
0
LINE
8
0
6
CONTINUOUS
10
-0.002821
20
0.181658
30
0.0
11
-0.002369
21
0.180690
31
0.0
0
LINE
8
0
6
CONTINUOUS
10
-0.002369
20
0.180690
30
0.0
11
-0.002821
21
0.181658
31
0.0
0
LINE
8
0
6
CONTINUOUS
10
-0.003219
20
0.179901
30
0.0
11
-0.002369
21
0.180690
31
0.0
0
LINE
8
0
6
CONTINUOUS
10
-0.004521
20
0.180080
30
0.0
11
-0.003219
21
0.179901
31
0.0
0
LINE
8
0
6
CONTINUOUS
10
-0.004974
20
0.181048
30
0.0
11
-0.004521
21
0.180080
31
0.0
0
LINE
8
0
6
CONTINUOUS
10
-0.004123
20
0.181837
30
0.0
11
-0.004974
21
0.181048
31
0.0
0
LINE
8
0
6
CONTINUOUS
10
-0.002821
20
0.181658
30
0.0
11
-0.004123
21
0.181837
31
0.0
0
LINE
8
0
6
CONTINUOUS
10
-0.012468
20
0.180247
30
0.0
11
-0.011165
21
0.180068
31
0.0
0
LINE
8
0
6
CONTINUOUS
10
-0.013318
20
0.179458
30
0.0
11
-0.012468
21
0.180247
31
0.0
0
LINE
8
0
6
CONTINUOUS
10
-0.013310
20
0.180121
30
0.0
11
-0.013318
21
0.179458
31
0.0
0
LINE
8
0
6
CONTINUOUS
10
-0.011165
20
0.180068
30
0.0
11
-0.010713
21
0.179099
31
0.0
0
LINE
8
0
6
CONTINUOUS
10
-0.010713
20
0.179099
30
0.0
11
-0.011165
21
0.180068
31
0.0
0
LINE
8
0
6
CONTINUOUS
10
-0.011563
20
0.178310
30
0.0
11
-0.010713
21
0.179099
31
0.0
0
LINE
8
0
6
CONTINUOUS
10
-0.012866
20
0.178489
30
0.0
11
-0.011563
21
0.178310
31
0.0
0
LINE
8
0
6
CONTINUOUS
10
-0.013318
20
0.179458
30
0.0
11
-0.012866
21
0.178489
31
0.0
0
LINE
8
0
6
CONTINUOUS
10
-0.012468
20
0.180247
30
0.0
11
-0.013318
21
0.179458
31
0.0
0
LINE
8
0
6
CONTINUOUS
10
-0.011165
20
0.180068
30
0.0
11
-0.012468
21
0.180247
31
0.0
0
LINE
8
0
6
CONTINUOUS
10
-0.019727
20
0.176655
30
0.0
11
-0.018425
21
0.176476
31
0.0
0
LINE
8
0
6
CONTINUOUS
10
-0.020577
20
0.175866
30
0.0
11
-0.019727
21
0.176655
31
0.0
0
LINE
8
0
6
CONTINUOUS
10
-0.020569
20
0.176547
30
0.0
11
-0.020577
21
0.175866
31
0.0
0
LINE
8
0
6
CONTINUOUS
10
-0.018425
20
0.176476
30
0.0
11
-0.017972
21
0.175508
31
0.0
0
LINE
8
0
6
CONTINUOUS
10
-0.017972
20
0.175508
30
0.0
11
-0.018425
21
0.176476
31
0.0
0
LINE
8
0
6
CONTINUOUS
10
-0.018822
20
0.174718
30
0.0
11
-0.017972
21
0.175508
31
0.0
0
LINE
8
0
6
CONTINUOUS
10
-0.020125
20
0.174898
30
0.0
11
-0.018822
21
0.174718
31
0.0
0
LINE
8
0
6
CONTINUOUS
10
-0.020577
20
0.175866
30
0.0
11
-0.020125
21
0.174898
31
0.0
0
LINE
8
0
6
CONTINUOUS
10
-0.019727
20
0.176655
30
0.0
11
-0.020577
21
0.175866
31
0.0
0
LINE
8
0
6
CONTINUOUS
10
-0.018425
20
0.176476
30
0.0
11
-0.019727
21
0.176655
31
0.0
0
LINE
8
0
6
CONTINUOUS
10
-0.017251
20
0.184558
30
0.0
11
-0.015929
21
0.184551
31
0.0
0
LINE
8
0
6
CONTINUOUS
10
-0.017920
20
0.183670
30
0.0
11
-0.017251
21
0.184558
31
0.0
0
LINE
8
0
6
CONTINUOUS
10
-0.017913
20
0.184351
30
0.0
11
-0.017920
21
0.183670
31
0.0
0
LINE
8
0
6
CONTINUOUS
10
-0.015929
20
0.184551
30
0.0
11
-0.015276
21
0.183655
31
0.0
0
LINE
8
0
6
CONTINUOUS
10
-0.015276
20
0.183655
30
0.0
11
-0.015929
21
0.184551
31
0.0
0
LINE
8
0
6
CONTINUOUS
10
-0.015945
20
0.182767
30
0.0
11
-0.015276
21
0.183655
31
0.0
0
LINE
8
0
6
CONTINUOUS
10
-0.017267
20
0.182774
30
0.0
11
-0.015945
21
0.182767
31
0.0
0
LINE
8
0
6
CONTINUOUS
10
-0.017920
20
0.183670
30
0.0
11
-0.017267
21
0.182774
31
0.0
0
LINE
8
0
6
CONTINUOUS
10
-0.017251
20
0.184558
30
0.0
11
-0.017920
21
0.183670
31
0.0
0
LINE
8
0
6
CONTINUOUS
10
-0.015929
20
0.184551
30
0.0
11
-0.017251
21
0.184558
31
0.0
0
LINE
8
0
6
CONTINUOUS
10
-0.009095
20
0.186873
30
0.0
11
-0.007773
21
0.186866
31
0.0
0
LINE
8
0
6
CONTINUOUS
10
-0.007773
20
0.186866
30
0.0
11
-0.007120
21
0.185970
31
0.0
0
LINE
8
0
6
CONTINUOUS
10
-0.007120
20
0.185970
30
0.0
11
-0.007773
21
0.186866
31
0.0
0
LINE
8
0
6
CONTINUOUS
10
-0.007789
20
0.185081
30
0.0
11
-0.007120
21
0.185970
31
0.0
0
LINE
8
0
6
CONTINUOUS
10
-0.009111
20
0.185089
30
0.0
11
-0.007789
21
0.185081
31
0.0
0
LINE
8
0
6
CONTINUOUS
10
-0.009764
20
0.185984
30
0.0
11
-0.009111
21
0.185089
31
0.0
0
LINE
8
0
6
CONTINUOUS
10
-0.009095
20
0.186873
30
0.0
11
-0.009764
21
0.185984
31
0.0
0
LINE
8
0
6
CONTINUOUS
10
-0.007773
20
0.186866
30
0.0
11
-0.009095
21
0.186873
31
0.0
0
LINE
8
0
6
CONTINUOUS
10
-0.001288
20
0.186849
30
0.0
11
-0.000619
21
0.187738
31
0.0
0
LINE
8
0
6
CONTINUOUS
10
-0.001281
20
0.187497
30
0.0
11
-0.001288
21
0.186849
31
0.0
0
LINE
8
0
6
CONTINUOUS
10
0.001357
20
0.186835
30
0.0
11
0.000704
21
0.187731
31
0.0
0
LINE
8
0
6
CONTINUOUS
10
0.000688
20
0.185946
30
0.0
11
0.001357
21
0.186835
31
0.0
0
LINE
8
0
6
CONTINUOUS
10
-0.000635
20
0.185953
30
0.0
11
0.000688
21
0.185946
31
0.0
0
LINE
8
0
6
CONTINUOUS
10
-0.001288
20
0.186849
30
0.0
11
-0.000635
21
0.185953
31
0.0
0
LINE
8
0
6
CONTINUOUS
10
-0.000619
20
0.187738
30
0.0
11
-0.001288
21
0.186849
31
0.0
0
LINE
8
0
6
CONTINUOUS
10
0.000704
20
0.187731
30
0.0
11
-0.000619
21
0.187738
31
0.0
0
LINE
8
0
6
CONTINUOUS
10
-0.016189
20
0.161387
30
0.0
11
-0.016171
21
0.162627
31
0.0
0
LINE
8
0
6
CONTINUOUS
10
-0.016191
20
0.162050
30
0.0
11
-0.016189
21
0.161387
31
0.0
0
LINE
8
0
6
CONTINUOUS
10
-0.016171
20
0.162627
30
0.0
11
-0.014784
21
0.163235
31
0.0
0
LINE
8
0
6
CONTINUOUS
10
-0.013415
20
0.162602
30
0.0
11
-0.013417
21
0.163215
31
0.0
0
LINE
8
0
6
CONTINUOUS
10
-0.014784
20
0.163235
30
0.0
11
-0.013415
21
0.162602
31
0.0
0
LINE
8
0
6
CONTINUOUS
10
-0.016171
20
0.162627
30
0.0
11
-0.016189
21
0.161387
31
0.0
0
LINE
8
0
6
CONTINUOUS
10
-0.014784
20
0.163235
30
0.0
11
-0.016171
21
0.162627
31
0.0
0
LINE
8
0
6
CONTINUOUS
10
-0.013415
20
0.162602
30
0.0
11
-0.014784
21
0.163235
31
0.0
0
LINE
8
0
6
CONTINUOUS
10
-0.013432
20
0.161363
30
0.0
11
-0.013415
21
0.162602
31
0.0
0
LINE
8
0
6
CONTINUOUS
10
-0.014820
20
0.160755
30
0.0
11
-0.013432
21
0.161363
31
0.0
0
LINE
8
0
6
CONTINUOUS
10
-0.016189
20
0.161387
30
0.0
11
-0.014820
21
0.160755
31
0.0
0
LINE
8
0
6
CONTINUOUS
10
-0.001550
20
-0.213621
30
0.0
11
0.003117
21
-0.213499
31
0.0
0
LINE
8
0
6
CONTINUOUS
10
0.003117
20
-0.213499
30
0.0
11
0.005050
21
-0.213204
31
0.0
0
LINE
8
0
6
CONTINUOUS
10
0.005052
20
-0.191808
30
0.0
11
0.005050
21
-0.213204
31
0.0
0
LINE
8
0
6
CONTINUOUS
10
-0.008150
20
-0.213204
30
0.0
11
-0.006217
21
-0.213499
31
0.0
0
LINE
8
0
6
CONTINUOUS
10
-0.008148
20
-0.191803
30
0.0
11
-0.008150
21
-0.213204
31
0.0
0
LINE
8
0
6
CONTINUOUS
10
-0.006217
20
-0.213499
30
0.0
11
-0.001550
21
-0.213621
31
0.0
0
LINE
8
0
6
CONTINUOUS
10
0.005068
20
-0.169466
30
0.0
11
0.005052
21
-0.191808
31
0.0
0
LINE
8
0
6
CONTINUOUS
10
-0.008132
20
-0.169450
30
0.0
11
-0.008148
21
-0.191803
31
0.0
0
LINE
8
0
6
CONTINUOUS
10
0.005110
20
-0.146216
30
0.0
11
0.005068
21
-0.169466
31
0.0
0
LINE
8
0
6
CONTINUOUS
10
-0.008090
20
-0.146182
30
0.0
11
-0.008132
21
-0.169450
31
0.0
0
LINE
8
0
6
CONTINUOUS
10
0.005191
20
-0.122094
30
0.0
11
0.005110
21
-0.146216
31
0.0
0
LINE
8
0
6
CONTINUOUS
10
-0.008009
20
-0.122036
30
0.0
11
-0.008090
21
-0.146182
31
0.0
0
LINE
8
0
6
CONTINUOUS
10
0.005325
20
-0.097135
30
0.0
11
0.005191
21
-0.122094
31
0.0
0
LINE
8
0
6
CONTINUOUS
10
-0.007874
20
-0.097049
30
0.0
11
-0.008009
21
-0.122036
31
0.0
0
LINE
8
0
6
CONTINUOUS
10
0.005526
20
-0.071378
30
0.0
11
0.005325
21
-0.097135
31
0.0
0
LINE
8
0
6
CONTINUOUS
10
-0.007674
20
-0.071258
30
0.0
11
-0.007874
21
-0.097049
31
0.0
0
LINE
8
0
6
CONTINUOUS
10
0.005806
20
-0.044857
30
0.0
11
0.005526
21
-0.071378
31
0.0
0
LINE
8
0
6
CONTINUOUS
10
-0.007393
20
-0.044701
30
0.0
11
-0.007674
21
-0.071258
31
0.0
0
LINE
8
0
6
CONTINUOUS
10
0.006134
20
-0.020856
30
0.0
11
0.005806
21
-0.044857
31
0.0
0
LINE
8
0
6
CONTINUOUS
10
-0.007067
20
-0.020815
30
0.0
11
-0.007393
21
-0.044701
31
0.0
0
LINE
8
0
6
CONTINUOUS
10
0.014332
20
0.002128
30
0.0
11
0.014332
21
0.010807
31
0.0
0
LINE
8
0
6
CONTINUOUS
10
0.008749
20
-0.046791
30
0.0
11
0.010567
21
-0.046975
31
0.0
0
LINE
8
0
6
CONTINUOUS
10
0.008789
20
-0.000339
30
0.0
11
0.008616
21
-0.000381
31
0.0
0
LINE
8
0
6
CONTINUOUS
10
0.009845
20
-0.000082
30
0.0
11
0.008789
21
-0.000339
31
0.0
0
LINE
8
0
6
CONTINUOUS
10
0.010836
20
-0.047002
30
0.0
11
0.011001
21
-0.046961
31
0.0
0
LINE
8
0
6
CONTINUOUS
10
0.014332
20
0.001706
30
0.0
11
0.014332
21
0.002128
31
0.0
0
LINE
8
0
6
CONTINUOUS
10
0.010646
20
0.000282
30
0.0
11
0.009845
21
-0.000082
31
0.0
0
LINE
8
0
6
CONTINUOUS
10
0.010567
20
-0.046975
30
0.0
11
0.010836
21
-0.047002
31
0.0
0
LINE
8
0
6
CONTINUOUS
10
0.011095
20
0.000671
30
0.0
11
0.010646
21
0.000282
31
0.0
0
LINE
8
0
6
CONTINUOUS
10
0.014339
20
0.001284
30
0.0
11
0.014332
21
0.001706
31
0.0
0
LINE
8
0
6
CONTINUOUS
10
0.011219
20
0.001075
30
0.0
11
0.011095
21
0.000671
31
0.0
0
LINE
8
0
6
CONTINUOUS
10
0.014021
20
-0.045663
30
0.0
11
0.014320
21
-0.045288
31
0.0
0
LINE
8
0
6
CONTINUOUS
10
0.013539
20
-0.046029
30
0.0
11
0.014021
21
-0.045663
31
0.0
0
LINE
8
0
6
CONTINUOUS
10
0.014332
20
-0.044909
30
0.0
11
0.014332
21
-0.043882
31
0.0
0
LINE
8
0
6
CONTINUOUS
10
0.014320
20
-0.045288
30
0.0
11
0.014332
21
-0.044909
31
0.0
0
LINE
8
0
6
CONTINUOUS
10
0.011001
20
-0.046961
30
0.0
11
0.012007
21
-0.046714
31
0.0
0
LINE
8
0
6
CONTINUOUS
10
0.012007
20
-0.046714
30
0.0
11
0.012884
21
-0.046383
31
0.0
0
LINE
8
0
6
CONTINUOUS
10
0.008505
20
-0.046767
30
0.0
11
0.008749
21
-0.046791
31
0.0
0
LINE
8
0
6
CONTINUOUS
10
0.008507
20
-0.045745
30
0.0
11
0.008505
21
-0.046767
31
0.0
0
LINE
8
0
6
CONTINUOUS
10
0.014332
20
-0.043882
30
0.0
11
0.014332
21
0.000829
31
0.0
0
LINE
8
0
6
CONTINUOUS
10
0.008614
20
-0.001254
30
0.0
11
0.008507
21
-0.045745
31
0.0
0
LINE
8
0
6
CONTINUOUS
10
0.014338
20
0.000408
30
0.0
11
0.014339
21
0.001284
31
0.0
0
LINE
8
0
6
CONTINUOUS
10
0.007510
20
-0.043360
30
0.0
11
0.008512
21
-0.043637
31
0.0
0
LINE
8
0
6
CONTINUOUS
10
0.012884
20
-0.046383
30
0.0
11
0.013539
21
-0.046029
31
0.0
0
LINE
8
0
6
CONTINUOUS
10
0.008616
20
-0.000381
30
0.0
11
0.008614
21
-0.001254
31
0.0
0
LINE
8
0
6
CONTINUOUS
10
0.014332
20
0.011003
30
0.0
11
0.014277
21
0.011003
31
0.0
0
LINE
8
0
6
CONTINUOUS
10
0.014332
20
0.010807
30
0.0
11
0.014332
21
0.011003
31
0.0
0
LINE
8
0
6
CONTINUOUS
10
0.005830
20
-0.043092
30
0.0
11
0.007510
21
-0.043360
31
0.0
0
LINE
8
0
6
CONTINUOUS
10
-0.015668
20
0.010807
30
0.0
11
-0.015668
21
0.002128
31
0.0
0
LINE
8
0
6
CONTINUOUS
10
-0.014984
20
0.011001
30
0.0
11
-0.015108
21
0.011001
31
0.0
0
LINE
8
0
6
CONTINUOUS
10
-0.011903
20
-0.046975
30
0.0
11
-0.010084
21
-0.046791
31
0.0
0
LINE
8
0
6
CONTINUOUS
10
-0.009951
20
-0.000381
30
0.0
11
-0.010124
21
-0.000339
31
0.0
0
LINE
8
0
6
CONTINUOUS
10
-0.010124
20
-0.000339
30
0.0
11
-0.011181
21
-0.000082
31
0.0
0
LINE
8
0
6
CONTINUOUS
10
-0.012337
20
-0.046961
30
0.0
11
-0.012172
21
-0.047002
31
0.0
0
LINE
8
0
6
CONTINUOUS
10
-0.015668
20
0.002128
30
0.0
11
-0.015668
21
0.001706
31
0.0
0
LINE
8
0
6
CONTINUOUS
10
-0.011181
20
-0.000082
30
0.0
11
-0.011982
21
0.000282
31
0.0
0
LINE
8
0
6
CONTINUOUS
10
-0.012172
20
-0.047002
30
0.0
11
-0.011903
21
-0.046975
31
0.0
0
LINE
8
0
6
CONTINUOUS
10
-0.011982
20
0.000282
30
0.0
11
-0.012430
21
0.000671
31
0.0
0
LINE
8
0
6
CONTINUOUS
10
-0.015668
20
0.001706
30
0.0
11
-0.015675
21
0.001284
31
0.0
0
LINE
8
0
6
CONTINUOUS
10
-0.012430
20
0.000671
30
0.0
11
-0.012555
21
0.001075
31
0.0
0
LINE
8
0
6
CONTINUOUS
10
-0.015655
20
-0.045288
30
0.0
11
-0.015357
21
-0.045663
31
0.0
0
LINE
8
0
6
CONTINUOUS
10
-0.015357
20
-0.045663
30
0.0
11
-0.014874
21
-0.046029
31
0.0
0
LINE
8
0
6
CONTINUOUS
10
-0.015668
20
-0.044909
30
0.0
11
-0.015655
21
-0.045288
31
0.0
0
LINE
8
0
6
CONTINUOUS
10
-0.015668
20
-0.043882
30
0.0
11
-0.015668
21
-0.044909
31
0.0
0
LINE
8
0
6
CONTINUOUS
10
-0.013343
20
-0.046714
30
0.0
11
-0.012337
21
-0.046961
31
0.0
0
LINE
8
0
6
CONTINUOUS
10
-0.014220
20
-0.046383
30
0.0
11
-0.013343
21
-0.046714
31
0.0
0
LINE
8
0
6
CONTINUOUS
10
-0.009841
20
-0.046767
30
0.0
11
-0.009843
21
-0.045745
31
0.0
0
LINE
8
0
6
CONTINUOUS
10
-0.010084
20
-0.046791
30
0.0
11
-0.009841
21
-0.046767
31
0.0
0
LINE
8
0
6
CONTINUOUS
10
-0.015668
20
0.000829
30
0.0
11
-0.015668
21
-0.043882
31
0.0
0
LINE
8
0
6
CONTINUOUS
10
-0.009843
20
-0.045745
30
0.0
11
-0.009949
21
-0.001254
31
0.0
0
LINE
8
0
6
CONTINUOUS
10
-0.015675
20
0.001284
30
0.0
11
-0.015674
21
0.000408
31
0.0
0
LINE
8
0
6
CONTINUOUS
10
-0.009848
20
-0.043637
30
0.0
11
-0.008845
21
-0.043360
31
0.0
0
LINE
8
0
6
CONTINUOUS
10
-0.014874
20
-0.046029
30
0.0
11
-0.014220
21
-0.046383
31
0.0
0
LINE
8
0
6
CONTINUOUS
10
-0.009949
20
-0.001254
30
0.0
11
-0.009951
21
-0.000381
31
0.0
0
LINE
8
0
6
CONTINUOUS
10
-0.015668
20
0.011003
30
0.0
11
-0.015668
21
0.010807
31
0.0
0
LINE
8
0
6
CONTINUOUS
10
-0.015108
20
0.011001
30
0.0
11
-0.015668
21
0.011003
31
0.0
0
LINE
8
0
6
CONTINUOUS
10
-0.008845
20
-0.043360
30
0.0
11
-0.007372
21
-0.043125
31
0.0
0
LINE
8
0
6
CONTINUOUS
10
0.022580
20
0.180954
30
0.0
11
0.023602
21
0.181672
31
0.0
0
LINE
8
0
6
CONTINUOUS
10
-0.036888
20
0.158038
30
0.0
11
-0.036494
21
0.157837
31
0.0
0
LINE
8
0
6
CONTINUOUS
10
-0.038041
20
0.157598
30
0.0
11
-0.036888
21
0.158038
31
0.0
0
LINE
8
0
6
CONTINUOUS
10
-0.036645
20
0.150996
30
0.0
11
-0.035459
21
0.151382
31
0.0
0
LINE
8
0
6
CONTINUOUS
10
-0.035459
20
0.151382
30
0.0
11
-0.035262
21
0.151272
31
0.0
0
LINE
8
0
6
CONTINUOUS
10
-0.033292
20
0.143860
30
0.0
11
-0.033205
21
0.144848
31
0.0
0
LINE
8
0
6
CONTINUOUS
10
-0.033205
20
0.144848
30
0.0
11
-0.032174
21
0.145185
31
0.0
0
LINE
8
0
6
CONTINUOUS
10
-0.028218
20
0.138465
30
0.0
11
-0.028131
21
0.139442
31
0.0
0
LINE
8
0
6
CONTINUOUS
10
-0.028131
20
0.139442
30
0.0
11
-0.027272
21
0.139724
31
0.0
0
LINE
8
0
6
CONTINUOUS
10
-0.021660
20
0.135217
30
0.0
11
-0.021091
21
0.135409
31
0.0
0
LINE
8
0
6
CONTINUOUS
10
-0.021747
20
0.134248
30
0.0
11
-0.021660
21
0.135217
31
0.0
0
LINE
8
0
6
CONTINUOUS
10
0.035397
20
0.151376
30
0.0
11
0.036575
21
0.150974
31
0.0
0
LINE
8
0
6
CONTINUOUS
10
-0.024924
20
0.180429
30
0.0
11
-0.024689
21
0.181487
31
0.0
0
LINE
8
0
6
CONTINUOUS
10
-0.030858
20
0.175595
30
0.0
11
-0.030635
21
0.176592
31
0.0
0
LINE
8
0
6
CONTINUOUS
10
-0.036250
20
0.164658
30
0.0
11
-0.036112
21
0.164560
31
0.0
0
LINE
8
0
6
CONTINUOUS
10
-0.037730
20
0.163364
30
0.0
11
-0.037495
21
0.164371
31
0.0
0
LINE
8
0
6
CONTINUOUS
10
-0.003269
20
0.129444
30
0.0
11
-0.003393
21
0.130326
31
0.0
0
LINE
8
0
6
CONTINUOUS
10
-0.005681
20
0.130243
30
0.0
11
-0.005205
21
0.130488
31
0.0
0
LINE
8
0
6
CONTINUOUS
10
0.027174
20
0.139635
30
0.0
11
0.027982
21
0.139366
31
0.0
0
LINE
8
0
6
CONTINUOUS
10
0.008499
20
0.187558
30
0.0
11
0.009396
21
0.187444
31
0.0
0
LINE
8
0
6
CONTINUOUS
10
-0.009757
20
0.186649
30
0.0
11
-0.009087
21
0.187587
31
0.0
0
LINE
8
0
6
CONTINUOUS
10
-0.023577
20
0.181768
30
0.0
11
-0.023444
21
0.181806
31
0.0
0
LINE
8
0
6
CONTINUOUS
10
-0.033718
20
0.171123
30
0.0
11
-0.033084
21
0.170666
31
0.0
0
LINE
8
0
6
CONTINUOUS
10
-0.034963
20
0.170826
30
0.0
11
-0.033718
21
0.171123
31
0.0
0
LINE
8
0
6
CONTINUOUS
10
-0.009720
20
0.156935
30
0.0
11
-0.008136
21
0.157026
31
0.0
0
LINE
8
0
6
CONTINUOUS
10
-0.016787
20
0.157054
30
0.0
11
-0.016130
21
0.157409
31
0.0
0
LINE
8
0
6
CONTINUOUS
10
-0.014229
20
0.150756
30
0.0
11
-0.013017
21
0.151406
31
0.0
0
LINE
8
0
6
CONTINUOUS
10
-0.005454
20
0.151018
30
0.0
11
-0.004801
21
0.152115
31
0.0
0
LINE
8
0
6
CONTINUOUS
10
-0.004827
20
0.145690
30
0.0
11
-0.004988
21
0.146893
31
0.0
0
LINE
8
0
6
CONTINUOUS
10
0.013388
20
0.153550
30
0.0
11
0.014848
21
0.154068
31
0.0
0
LINE
8
0
6
CONTINUOUS
10
0.005651
20
0.162297
30
0.0
11
0.006843
21
0.163153
31
0.0
0
LINE
8
0
6
CONTINUOUS
10
-0.009048
20
0.168678
30
0.0
11
-0.008736
21
0.168630
31
0.0
0
LINE
8
0
6
CONTINUOUS
10
-0.014307
20
0.150717
30
0.0
11
-0.014229
21
0.150756
31
0.0
0
LINE
8
0
6
CONTINUOUS
10
-0.019834
20
0.147743
30
0.0
11
-0.018584
21
0.148370
31
0.0
0
LINE
8
0
6
CONTINUOUS
10
-0.013418
20
0.143312
30
0.0
11
-0.012168
21
0.143944
31
0.0
0
LINE
8
0
6
CONTINUOUS
10
-0.002705
20
0.139926
30
0.0
11
-0.002862
21
0.141048
31
0.0
0
LINE
8
0
6
CONTINUOUS
10
0.019238
20
0.166568
30
0.0
11
0.020575
21
0.167241
31
0.0
0
LINE
8
0
6
CONTINUOUS
10
0.005351
20
0.170056
30
0.0
11
0.005792
21
0.170496
31
0.0
0
LINE
8
0
6
CONTINUOUS
10
-0.020739
20
0.167474
30
0.0
11
-0.019413
21
0.166787
31
0.0
0
LINE
8
0
6
CONTINUOUS
10
-0.016191
20
0.162050
30
0.0
11
-0.016174
21
0.163315
31
0.0
0
LINE
8
0
6
CONTINUOUS
10
-0.022986
20
0.161063
30
0.0
11
-0.021660
21
0.160382
31
0.0
0
LINE
8
0
6
CONTINUOUS
10
-0.024330
20
0.160535
30
0.0
11
-0.022986
21
0.161063
31
0.0
0
LINE
8
0
6
CONTINUOUS
10
-0.026790
20
0.146534
30
0.0
11
-0.025718
21
0.147084
31
0.0
0
LINE
8
0
6
CONTINUOUS
10
-0.025718
20
0.147084
30
0.0
11
-0.024512
21
0.146633
31
0.0
0
LINE
8
0
6
CONTINUOUS
10
-0.032174
20
0.145185
30
0.0
11
-0.032018
21
0.145237
31
0.0
0
LINE
8
0
6
CONTINUOUS
10
-0.021283
20
0.141426
30
0.0
11
-0.020211
21
0.141978
31
0.0
0
LINE
8
0
6
CONTINUOUS
10
-0.027272
20
0.139724
30
0.0
11
-0.026945
21
0.139836
31
0.0
0
LINE
8
0
6
CONTINUOUS
10
-0.011790
20
0.136714
30
0.0
11
-0.011924
21
0.137692
31
0.0
0
LINE
8
0
6
CONTINUOUS
10
-0.003715
20
0.134706
30
0.0
11
-0.003849
21
0.135680
31
0.0
0
LINE
8
0
6
CONTINUOUS
10
-0.004609
20
0.130804
30
0.0
11
-0.003403
21
0.130397
31
0.0
0
LINE
8
0
6
CONTINUOUS
10
-0.006128
20
0.135519
30
0.0
11
-0.005055
21
0.136087
31
0.0
0
LINE
8
0
6
CONTINUOUS
10
0.025696
20
0.139194
30
0.0
11
0.026804
21
0.139766
31
0.0
0
LINE
8
0
6
CONTINUOUS
10
0.030863
20
0.144625
30
0.0
11
0.031971
21
0.145208
31
0.0
0
LINE
8
0
6
CONTINUOUS
10
-0.024799
20
0.172418
30
0.0
11
-0.023661
21
0.171841
31
0.0
0
LINE
8
0
6
CONTINUOUS
10
-0.033084
20
0.170666
30
0.0
11
-0.032708
21
0.170400
31
0.0
0
LINE
8
0
6
CONTINUOUS
10
-0.028595
20
0.166468
30
0.0
11
-0.027457
21
0.165893
31
0.0
0
LINE
8
0
6
CONTINUOUS
10
-0.029986
20
0.159891
30
0.0
11
-0.028848
21
0.159319
31
0.0
0
ENDSEC
0
EOF
