999
unknown String-ID: 20550
0
SECTION
2
HEADER
9
$ACADVER
1
AC1009
9
$DWGCODEPAGE
3
unknown String-ID: 20561
0
ENDSEC
0
SECTION
2
TABLES
0
TABLE
2
LAYER
70
1
0
LAYER
2
0
70
0
62
7
6
CONTINUOUS
0
ENDTAB
0
ENDSEC
0
SECTION
2
ENTITIES
0
LINE
8
0
6
CONTINUOUS
10
0.086674
20
0.303628
30
0.0
11
0.088312
21
0.304783
31
0.0
0
LINE
8
0
6
CONTINUOUS
10
0.084822
20
0.302335
30
0.0
11
0.086674
21
0.303628
31
0.0
0
LINE
8
0
6
CONTINUOUS
10
0.084608
20
0.302197
30
0.0
11
0.084822
21
0.302335
31
0.0
0
LINE
8
0
6
CONTINUOUS
10
0.058055
20
0.285952
30
0.0
11
0.057646
21
0.286530
31
0.0
0
LINE
8
0
6
CONTINUOUS
10
0.063923
20
0.289510
30
0.0
11
0.064362
21
0.289824
31
0.0
0
LINE
8
0
6
CONTINUOUS
10
0.071136
20
0.293949
30
0.0
11
0.070805
21
0.294415
31
0.0
0
LINE
8
0
6
CONTINUOUS
10
0.076959
20
0.297416
30
0.0
11
0.077727
21
0.297948
31
0.0
0
LINE
8
0
6
CONTINUOUS
10
0.076496
20
0.298070
30
0.0
11
0.076959
21
0.297416
31
0.0
0
LINE
8
0
6
CONTINUOUS
10
0.083994
20
0.301946
30
0.0
11
0.085297
21
0.302860
31
0.0
0
LINE
8
0
6
CONTINUOUS
10
0.085946
20
0.303321
30
0.0
11
0.085359
21
0.304144
31
0.0
0
LINE
8
0
6
CONTINUOUS
10
0.085297
20
0.302860
30
0.0
11
0.085946
21
0.303321
31
0.0
0
LINE
8
0
6
CONTINUOUS
10
0.083339
20
0.301495
30
0.0
11
0.083994
21
0.301946
31
0.0
0
LINE
8
0
6
CONTINUOUS
10
0.082739
20
0.302337
30
0.0
11
0.083339
21
0.301495
31
0.0
0
LINE
8
0
6
CONTINUOUS
10
0.090542
20
0.306546
30
0.0
11
0.091818
21
0.307441
31
0.0
0
LINE
8
0
6
CONTINUOUS
10
0.092224
20
0.307734
30
0.0
11
0.091624
21
0.308590
31
0.0
0
LINE
8
0
6
CONTINUOUS
10
0.091818
20
0.307441
30
0.0
11
0.092224
21
0.307734
31
0.0
0
LINE
8
0
6
CONTINUOUS
10
0.089673
20
0.305943
30
0.0
11
0.090542
21
0.306546
31
0.0
0
LINE
8
0
6
CONTINUOUS
10
0.089100
20
0.306760
30
0.0
11
0.089673
21
0.305943
31
0.0
0
LINE
8
0
6
CONTINUOUS
10
0.078428
20
0.298075
30
0.0
11
0.078832
21
0.298351
31
0.0
0
LINE
8
0
6
CONTINUOUS
10
0.077815
20
0.298942
30
0.0
11
0.078428
21
0.298075
31
0.0
0
LINE
8
0
6
CONTINUOUS
10
0.078832
20
0.298351
30
0.0
11
0.080107
21
0.299243
31
0.0
0
LINE
8
0
6
CONTINUOUS
10
0.080107
20
0.299243
30
0.0
11
0.080979
21
0.299859
31
0.0
0
LINE
8
0
6
CONTINUOUS
10
0.077781
20
0.298909
30
0.0
11
0.078361
21
0.298073
31
0.0
0
LINE
8
0
6
CONTINUOUS
10
0.092503
20
0.307964
30
0.0
11
0.092640
21
0.308052
31
0.0
0
LINE
8
0
6
CONTINUOUS
10
0.091953
20
0.308757
30
0.0
11
0.092503
21
0.307964
31
0.0
0
LINE
8
0
6
CONTINUOUS
10
0.093832
20
0.308884
30
0.0
11
0.094885
21
0.309627
31
0.0
0
LINE
8
0
6
CONTINUOUS
10
0.092640
20
0.308052
30
0.0
11
0.093832
21
0.308884
31
0.0
0
LINE
8
0
6
CONTINUOUS
10
0.087089
20
0.304368
30
0.0
11
0.088392
21
0.305282
31
0.0
0
LINE
8
0
6
CONTINUOUS
10
0.088392
20
0.305282
30
0.0
11
0.089041
21
0.305743
31
0.0
0
LINE
8
0
6
CONTINUOUS
10
0.086434
20
0.303917
30
0.0
11
0.087089
21
0.304368
31
0.0
0
LINE
8
0
6
CONTINUOUS
10
0.085847
20
0.304740
30
0.0
11
0.086434
21
0.303917
31
0.0
0
LINE
8
0
6
CONTINUOUS
10
0.087035
20
0.304922
30
0.0
11
0.088297
21
0.305807
31
0.0
0
LINE
8
0
6
CONTINUOUS
10
0.088926
20
0.306254
30
0.0
11
0.088328
21
0.307093
31
0.0
0
LINE
8
0
6
CONTINUOUS
10
0.088297
20
0.305807
30
0.0
11
0.088926
21
0.306254
31
0.0
0
LINE
8
0
6
CONTINUOUS
10
0.086401
20
0.304485
30
0.0
11
0.087035
21
0.304922
31
0.0
0
LINE
8
0
6
CONTINUOUS
10
0.084598
20
0.303780
30
0.0
11
0.085681
21
0.304539
31
0.0
0
LINE
8
0
6
CONTINUOUS
10
0.086220
20
0.304922
30
0.0
11
0.085631
21
0.305751
31
0.0
0
LINE
8
0
6
CONTINUOUS
10
0.085681
20
0.304539
30
0.0
11
0.086220
21
0.304922
31
0.0
0
LINE
8
0
6
CONTINUOUS
10
0.084054
20
0.303404
30
0.0
11
0.084598
21
0.303780
31
0.0
0
LINE
8
0
6
CONTINUOUS
10
0.082978
20
0.303178
30
0.0
11
0.084061
21
0.303937
31
0.0
0
LINE
8
0
6
CONTINUOUS
10
0.082434
20
0.302802
30
0.0
11
0.082978
21
0.303178
31
0.0
0
LINE
8
0
6
CONTINUOUS
10
0.081841
20
0.303637
30
0.0
11
0.082434
21
0.302802
31
0.0
0
LINE
8
0
6
CONTINUOUS
10
0.083082
20
0.303232
30
0.0
11
0.084165
21
0.303991
31
0.0
0
LINE
8
0
6
CONTINUOUS
10
0.084704
20
0.304374
30
0.0
11
0.084124
21
0.305191
31
0.0
0
LINE
8
0
6
CONTINUOUS
10
0.084165
20
0.303991
30
0.0
11
0.084704
21
0.304374
31
0.0
0
LINE
8
0
6
CONTINUOUS
10
0.082538
20
0.302856
30
0.0
11
0.083082
21
0.303232
31
0.0
0
LINE
8
0
6
CONTINUOUS
10
0.084598
20
0.303780
30
0.0
11
0.085681
21
0.304539
31
0.0
0
LINE
8
0
6
CONTINUOUS
10
0.086220
20
0.304922
30
0.0
11
0.085631
21
0.305751
31
0.0
0
LINE
8
0
6
CONTINUOUS
10
0.085681
20
0.304539
30
0.0
11
0.086220
21
0.304922
31
0.0
0
LINE
8
0
6
CONTINUOUS
10
0.084054
20
0.303404
30
0.0
11
0.084598
21
0.303780
31
0.0
0
LINE
8
0
6
CONTINUOUS
10
0.087035
20
0.304922
30
0.0
11
0.088297
21
0.305807
31
0.0
0
LINE
8
0
6
CONTINUOUS
10
0.088926
20
0.306254
30
0.0
11
0.088328
21
0.307093
31
0.0
0
LINE
8
0
6
CONTINUOUS
10
0.088297
20
0.305807
30
0.0
11
0.088926
21
0.306254
31
0.0
0
LINE
8
0
6
CONTINUOUS
10
0.086401
20
0.304485
30
0.0
11
0.087035
21
0.304922
31
0.0
0
LINE
8
0
6
CONTINUOUS
10
0.087089
20
0.304368
30
0.0
11
0.088392
21
0.305282
31
0.0
0
LINE
8
0
6
CONTINUOUS
10
0.088392
20
0.305282
30
0.0
11
0.089041
21
0.305743
31
0.0
0
LINE
8
0
6
CONTINUOUS
10
0.086434
20
0.303917
30
0.0
11
0.087089
21
0.304368
31
0.0
0
LINE
8
0
6
CONTINUOUS
10
0.085847
20
0.304740
30
0.0
11
0.086434
21
0.303917
31
0.0
0
LINE
8
0
6
CONTINUOUS
10
0.093473
20
0.308854
30
0.0
11
0.094776
21
0.309768
31
0.0
0
LINE
8
0
6
CONTINUOUS
10
0.095425
20
0.310229
30
0.0
11
0.094898
21
0.310969
31
0.0
0
LINE
8
0
6
CONTINUOUS
10
0.094776
20
0.309768
30
0.0
11
0.095425
21
0.310229
31
0.0
0
LINE
8
0
6
CONTINUOUS
10
0.092819
20
0.308402
30
0.0
11
0.093473
21
0.308854
31
0.0
0
LINE
8
0
6
CONTINUOUS
10
0.092244
20
0.309208
30
0.0
11
0.092819
21
0.308402
31
0.0
0
LINE
8
0
6
CONTINUOUS
10
0.093761
20
0.309634
30
0.0
11
0.095024
21
0.310519
31
0.0
0
LINE
8
0
6
CONTINUOUS
10
0.095652
20
0.310966
30
0.0
11
0.095025
21
0.311847
31
0.0
0
LINE
8
0
6
CONTINUOUS
10
0.095024
20
0.310519
30
0.0
11
0.095652
21
0.310966
31
0.0
0
LINE
8
0
6
CONTINUOUS
10
0.093127
20
0.309197
30
0.0
11
0.093761
21
0.309634
31
0.0
0
LINE
8
0
6
CONTINUOUS
10
0.099254
20
0.313522
30
0.0
11
0.100517
21
0.314406
31
0.0
0
LINE
8
0
6
CONTINUOUS
10
0.101145
20
0.314854
30
0.0
11
0.100505
21
0.315752
31
0.0
0
LINE
8
0
6
CONTINUOUS
10
0.100517
20
0.314406
30
0.0
11
0.101145
21
0.314854
31
0.0
0
LINE
8
0
6
CONTINUOUS
10
0.098621
20
0.313084
30
0.0
11
0.099254
21
0.313522
31
0.0
0
LINE
8
0
6
CONTINUOUS
10
0.091534
20
0.308640
30
0.0
11
0.092617
21
0.309399
31
0.0
0
LINE
8
0
6
CONTINUOUS
10
0.093156
20
0.309783
30
0.0
11
0.092551
21
0.310634
31
0.0
0
LINE
8
0
6
CONTINUOUS
10
0.092617
20
0.309399
30
0.0
11
0.093156
21
0.309783
31
0.0
0
LINE
8
0
6
CONTINUOUS
10
0.090990
20
0.308265
30
0.0
11
0.091534
21
0.308640
31
0.0
0
LINE
8
0
6
CONTINUOUS
10
0.097980
20
0.313188
30
0.0
11
0.099063
21
0.313947
31
0.0
0
LINE
8
0
6
CONTINUOUS
10
0.099602
20
0.314330
30
0.0
11
0.098987
21
0.315195
31
0.0
0
LINE
8
0
6
CONTINUOUS
10
0.099063
20
0.313947
30
0.0
11
0.099602
21
0.314330
31
0.0
0
LINE
8
0
6
CONTINUOUS
10
0.097436
20
0.312812
30
0.0
11
0.097980
21
0.313188
31
0.0
0
LINE
8
0
6
CONTINUOUS
10
0.103340
20
0.316963
30
0.0
11
0.104423
21
0.317722
31
0.0
0
LINE
8
0
6
CONTINUOUS
10
0.104962
20
0.318105
30
0.0
11
0.104339
21
0.318982
31
0.0
0
LINE
8
0
6
CONTINUOUS
10
0.104423
20
0.317722
30
0.0
11
0.104962
21
0.318105
31
0.0
0
LINE
8
0
6
CONTINUOUS
10
0.102796
20
0.316587
30
0.0
11
0.103340
21
0.316963
31
0.0
0
LINE
8
0
6
CONTINUOUS
10
0.108225
20
0.320909
30
0.0
11
0.109293
21
0.321659
31
0.0
0
LINE
8
0
6
CONTINUOUS
10
0.109667
20
0.321928
30
0.0
11
0.109037
21
0.322815
31
0.0
0
LINE
8
0
6
CONTINUOUS
10
0.109293
20
0.321659
30
0.0
11
0.109667
21
0.321928
31
0.0
0
LINE
8
0
6
CONTINUOUS
10
0.107533
20
0.320429
30
0.0
11
0.108225
21
0.320909
31
0.0
0
LINE
8
0
6
CONTINUOUS
10
0.106977
20
0.321212
30
0.0
11
0.107533
21
0.320429
31
0.0
0
LINE
8
0
6
CONTINUOUS
10
0.103090
20
0.317279
30
0.0
11
0.104157
21
0.318029
31
0.0
0
LINE
8
0
6
CONTINUOUS
10
0.104532
20
0.318297
30
0.0
11
0.103919
21
0.319161
31
0.0
0
LINE
8
0
6
CONTINUOUS
10
0.104157
20
0.318029
30
0.0
11
0.104532
21
0.318297
31
0.0
0
LINE
8
0
6
CONTINUOUS
10
0.102397
20
0.316799
30
0.0
11
0.103090
21
0.317279
31
0.0
0
LINE
8
0
6
CONTINUOUS
10
0.101832
20
0.317596
30
0.0
11
0.102397
21
0.316799
31
0.0
0
LINE
8
0
6
CONTINUOUS
10
0.096941
20
0.312955
30
0.0
11
0.098008
21
0.313704
31
0.0
0
LINE
8
0
6
CONTINUOUS
10
0.098383
20
0.313973
30
0.0
11
0.097783
21
0.314818
31
0.0
0
LINE
8
0
6
CONTINUOUS
10
0.098008
20
0.313704
30
0.0
11
0.098383
21
0.313973
31
0.0
0
LINE
8
0
6
CONTINUOUS
10
0.096249
20
0.312475
30
0.0
11
0.096941
21
0.312955
31
0.0
0
LINE
8
0
6
CONTINUOUS
10
0.095670
20
0.313290
30
0.0
11
0.096249
21
0.312475
31
0.0
0
LINE
8
0
6
CONTINUOUS
10
0.090260
20
0.308276
30
0.0
11
0.091327
21
0.309025
31
0.0
0
LINE
8
0
6
CONTINUOUS
10
0.091702
20
0.309294
30
0.0
11
0.091117
21
0.310118
31
0.0
0
LINE
8
0
6
CONTINUOUS
10
0.091327
20
0.309025
30
0.0
11
0.091702
21
0.309294
31
0.0
0
LINE
8
0
6
CONTINUOUS
10
0.089567
20
0.307795
30
0.0
11
0.090260
21
0.308276
31
0.0
0
LINE
8
0
6
CONTINUOUS
10
0.088974
20
0.308630
30
0.0
11
0.089567
21
0.307795
31
0.0
0
LINE
8
0
6
CONTINUOUS
10
0.071883
20
0.293786
30
0.0
11
0.072408
21
0.294146
31
0.0
0
LINE
8
0
6
CONTINUOUS
10
0.071246
20
0.294685
30
0.0
11
0.071883
21
0.293786
31
0.0
0
LINE
8
0
6
CONTINUOUS
10
0.072408
20
0.294146
30
0.0
11
0.073703
21
0.295053
31
0.0
0
LINE
8
0
6
CONTINUOUS
10
0.073703
20
0.295053
30
0.0
11
0.074475
21
0.295600
31
0.0
0
LINE
8
0
6
CONTINUOUS
10
0.053977
20
0.283044
30
0.0
11
0.054412
21
0.283343
31
0.0
0
LINE
8
0
6
CONTINUOUS
10
0.053321
20
0.283972
30
0.0
11
0.053977
21
0.283044
31
0.0
0
LINE
8
0
6
CONTINUOUS
10
0.054412
20
0.283343
30
0.0
11
0.055489
21
0.284097
31
0.0
0
LINE
8
0
6
CONTINUOUS
10
0.055489
20
0.284097
30
0.0
11
0.056130
21
0.284552
31
0.0
0
LINE
8
0
6
CONTINUOUS
10
0.060099
20
0.286758
30
0.0
11
0.060534
21
0.287057
31
0.0
0
LINE
8
0
6
CONTINUOUS
10
0.060534
20
0.287057
30
0.0
11
0.061611
21
0.287811
31
0.0
0
LINE
8
0
6
CONTINUOUS
10
0.061611
20
0.287811
30
0.0
11
0.062252
21
0.288265
31
0.0
0
LINE
8
0
6
CONTINUOUS
10
0.066103
20
0.290346
30
0.0
11
0.066611
21
0.290695
31
0.0
0
LINE
8
0
6
CONTINUOUS
10
0.066611
20
0.290695
30
0.0
11
0.067866
21
0.291573
31
0.0
0
LINE
8
0
6
CONTINUOUS
10
0.067866
20
0.291573
30
0.0
11
0.068613
21
0.292103
31
0.0
0
LINE
8
0
6
CONTINUOUS
10
0.055856
20
0.284290
30
0.0
11
0.056291
21
0.284589
31
0.0
0
LINE
8
0
6
CONTINUOUS
10
0.055205
20
0.285210
30
0.0
11
0.055856
21
0.284290
31
0.0
0
LINE
8
0
6
CONTINUOUS
10
0.056291
20
0.284589
30
0.0
11
0.057367
21
0.285343
31
0.0
0
LINE
8
0
6
CONTINUOUS
10
0.058009
20
0.285798
30
0.0
11
0.057474
21
0.286553
31
0.0
0
LINE
8
0
6
CONTINUOUS
10
0.057367
20
0.285343
30
0.0
11
0.058009
21
0.285798
31
0.0
0
LINE
8
0
6
CONTINUOUS
10
0.061967
20
0.288019
30
0.0
11
0.062402
21
0.288318
31
0.0
0
LINE
8
0
6
CONTINUOUS
10
0.061336
20
0.288910
30
0.0
11
0.061967
21
0.288019
31
0.0
0
LINE
8
0
6
CONTINUOUS
10
0.062402
20
0.288318
30
0.0
11
0.063479
21
0.289072
31
0.0
0
LINE
8
0
6
CONTINUOUS
10
0.063479
20
0.289072
30
0.0
11
0.064120
21
0.289526
31
0.0
0
LINE
8
0
6
CONTINUOUS
10
0.068580
20
0.292049
30
0.0
11
0.069088
21
0.292397
31
0.0
0
LINE
8
0
6
CONTINUOUS
10
0.067938
20
0.292956
30
0.0
11
0.068580
21
0.292049
31
0.0
0
LINE
8
0
6
CONTINUOUS
10
0.069088
20
0.292397
30
0.0
11
0.070343
21
0.293276
31
0.0
0
LINE
8
0
6
CONTINUOUS
10
0.070343
20
0.293276
30
0.0
11
0.071090
21
0.293806
31
0.0
0
LINE
8
0
6
CONTINUOUS
10
0.074363
20
0.295485
30
0.0
11
0.074887
21
0.295845
31
0.0
0
LINE
8
0
6
CONTINUOUS
10
0.074887
20
0.295845
30
0.0
11
0.076182
21
0.296752
31
0.0
0
LINE
8
0
6
CONTINUOUS
10
0.076954
20
0.297299
30
0.0
11
0.076387
21
0.298099
31
0.0
0
LINE
8
0
6
CONTINUOUS
10
0.076182
20
0.296752
30
0.0
11
0.076954
21
0.297299
31
0.0
0
LINE
8
0
6
CONTINUOUS
10
0.079866
20
0.299311
30
0.0
11
0.080390
21
0.299671
31
0.0
0
LINE
8
0
6
CONTINUOUS
10
0.079402
20
0.299967
30
0.0
11
0.079866
21
0.299311
31
0.0
0
LINE
8
0
6
CONTINUOUS
10
0.080390
20
0.299671
30
0.0
11
0.081686
21
0.300578
31
0.0
0
LINE
8
0
6
CONTINUOUS
10
0.082458
20
0.301125
30
0.0
11
0.081876
21
0.301946
31
0.0
0
LINE
8
0
6
CONTINUOUS
10
0.081686
20
0.300578
30
0.0
11
0.082458
21
0.301125
31
0.0
0
LINE
8
0
6
CONTINUOUS
10
0.073438
20
0.295404
30
0.0
11
0.073945
21
0.295752
31
0.0
0
LINE
8
0
6
CONTINUOUS
10
0.072813
20
0.296285
30
0.0
11
0.073438
21
0.295404
31
0.0
0
LINE
8
0
6
CONTINUOUS
10
0.073945
20
0.295752
30
0.0
11
0.075200
21
0.296631
31
0.0
0
LINE
8
0
6
CONTINUOUS
10
0.075947
20
0.297161
30
0.0
11
0.075389
21
0.297948
31
0.0
0
LINE
8
0
6
CONTINUOUS
10
0.075200
20
0.296631
30
0.0
11
0.075947
21
0.297161
31
0.0
0
LINE
8
0
6
CONTINUOUS
10
0.079494
20
0.299653
30
0.0
11
0.080002
21
0.300001
31
0.0
0
LINE
8
0
6
CONTINUOUS
10
0.079313
20
0.299908
30
0.0
11
0.079494
21
0.299653
31
0.0
0
LINE
8
0
6
CONTINUOUS
10
0.080002
20
0.300001
30
0.0
11
0.081256
21
0.300880
31
0.0
0
LINE
8
0
6
CONTINUOUS
10
0.082004
20
0.301410
30
0.0
11
0.081428
21
0.302223
31
0.0
0
LINE
8
0
6
CONTINUOUS
10
0.081256
20
0.300880
30
0.0
11
0.082004
21
0.301410
31
0.0
0
LINE
8
0
6
CONTINUOUS
10
0.065630
20
0.290541
30
0.0
11
0.066066
21
0.290840
31
0.0
0
LINE
8
0
6
CONTINUOUS
10
0.065222
20
0.291118
30
0.0
11
0.065630
21
0.290541
31
0.0
0
LINE
8
0
6
CONTINUOUS
10
0.066066
20
0.290840
30
0.0
11
0.067142
21
0.291593
31
0.0
0
LINE
8
0
6
CONTINUOUS
10
0.067783
20
0.292048
30
0.0
11
0.067226
21
0.292836
31
0.0
0
LINE
8
0
6
CONTINUOUS
10
0.067142
20
0.291593
30
0.0
11
0.067783
21
0.292048
31
0.0
0
LINE
8
0
6
CONTINUOUS
10
0.070771
20
0.294125
30
0.0
11
0.071206
21
0.294424
31
0.0
0
LINE
8
0
6
CONTINUOUS
10
0.070636
20
0.294316
30
0.0
11
0.070771
21
0.294125
31
0.0
0
LINE
8
0
6
CONTINUOUS
10
0.071206
20
0.294424
30
0.0
11
0.072283
21
0.295177
31
0.0
0
LINE
8
0
6
CONTINUOUS
10
0.072924
20
0.295632
30
0.0
11
0.072357
21
0.296433
31
0.0
0
LINE
8
0
6
CONTINUOUS
10
0.072283
20
0.295177
30
0.0
11
0.072924
21
0.295632
31
0.0
0
LINE
8
0
6
CONTINUOUS
10
0.077168
20
0.298600
30
0.0
11
0.077603
21
0.298899
31
0.0
0
LINE
8
0
6
CONTINUOUS
10
0.077603
20
0.298899
30
0.0
11
0.078680
21
0.299653
31
0.0
0
LINE
8
0
6
CONTINUOUS
10
0.079321
20
0.300107
30
0.0
11
0.078744
21
0.300923
31
0.0
0
LINE
8
0
6
CONTINUOUS
10
0.078680
20
0.299653
30
0.0
11
0.079321
21
0.300107
31
0.0
0
LINE
8
0
6
CONTINUOUS
10
0.075764
20
0.298115
30
0.0
11
0.076359
21
0.298526
31
0.0
0
LINE
8
0
6
CONTINUOUS
10
0.075152
20
0.298978
30
0.0
11
0.075764
21
0.298115
31
0.0
0
LINE
8
0
6
CONTINUOUS
10
0.076359
20
0.298526
30
0.0
11
0.077440
21
0.299285
31
0.0
0
LINE
8
0
6
CONTINUOUS
10
0.077927
20
0.299631
30
0.0
11
0.077362
21
0.300429
31
0.0
0
LINE
8
0
6
CONTINUOUS
10
0.077440
20
0.299285
30
0.0
11
0.077927
21
0.299631
31
0.0
0
LINE
8
0
6
CONTINUOUS
10
0.069279
20
0.293586
30
0.0
11
0.069874
21
0.293998
31
0.0
0
LINE
8
0
6
CONTINUOUS
10
0.068644
20
0.294482
30
0.0
11
0.069279
21
0.293586
31
0.0
0
LINE
8
0
6
CONTINUOUS
10
0.069874
20
0.293998
30
0.0
11
0.070955
21
0.294756
31
0.0
0
LINE
8
0
6
CONTINUOUS
10
0.071441
20
0.295103
30
0.0
11
0.070887
21
0.295885
31
0.0
0
LINE
8
0
6
CONTINUOUS
10
0.070955
20
0.294756
30
0.0
11
0.071441
21
0.295103
31
0.0
0
LINE
8
0
6
CONTINUOUS
10
0.063539
20
0.289604
30
0.0
11
0.064134
21
0.290015
31
0.0
0
LINE
8
0
6
CONTINUOUS
10
0.062899
20
0.290508
30
0.0
11
0.063539
21
0.289604
31
0.0
0
LINE
8
0
6
CONTINUOUS
10
0.064134
20
0.290015
30
0.0
11
0.065215
21
0.290773
31
0.0
0
LINE
8
0
6
CONTINUOUS
10
0.065702
20
0.291120
30
0.0
11
0.065160
21
0.291884
31
0.0
0
LINE
8
0
6
CONTINUOUS
10
0.065215
20
0.290773
30
0.0
11
0.065702
21
0.291120
31
0.0
0
LINE
8
0
6
CONTINUOUS
10
0.058928
20
0.286420
30
0.0
11
0.059523
21
0.286831
31
0.0
0
LINE
8
0
6
CONTINUOUS
10
0.058281
20
0.287334
30
0.0
11
0.058928
21
0.286420
31
0.0
0
LINE
8
0
6
CONTINUOUS
10
0.059523
20
0.286831
30
0.0
11
0.060604
21
0.287590
31
0.0
0
LINE
8
0
6
CONTINUOUS
10
0.061091
20
0.287936
30
0.0
11
0.060558
21
0.288689
31
0.0
0
LINE
8
0
6
CONTINUOUS
10
0.060604
20
0.287590
30
0.0
11
0.061091
21
0.287936
31
0.0
0
LINE
8
0
6
CONTINUOUS
10
0.099400
20
0.313049
30
0.0
11
0.099620
21
0.313211
31
0.0
0
LINE
8
0
6
CONTINUOUS
10
0.098177
20
0.312189
30
0.0
11
0.099400
21
0.313049
31
0.0
0
LINE
8
0
6
CONTINUOUS
10
0.097174
20
0.311492
30
0.0
11
0.098177
21
0.312189
31
0.0
0
LINE
8
0
6
CONTINUOUS
10
0.096614
20
0.312294
30
0.0
11
0.097174
21
0.311492
31
0.0
0
LINE
8
0
6
CONTINUOUS
10
0.113566
20
0.324714
30
0.0
11
0.112944
21
0.325604
31
0.0
0
LINE
8
0
6
CONTINUOUS
10
0.113383
20
0.324579
30
0.0
11
0.113566
21
0.324714
31
0.0
0
LINE
8
0
6
CONTINUOUS
10
0.112367
20
0.323865
30
0.0
11
0.113383
21
0.324579
31
0.0
0
LINE
8
0
6
CONTINUOUS
10
0.111534
20
0.323286
30
0.0
11
0.112367
21
0.323865
31
0.0
0
LINE
8
0
6
CONTINUOUS
10
0.110987
20
0.324067
30
0.0
11
0.111534
21
0.323286
31
0.0
0
LINE
8
0
6
CONTINUOUS
10
0.108743
20
0.320795
30
0.0
11
0.108926
21
0.320930
31
0.0
0
LINE
8
0
6
CONTINUOUS
10
0.107727
20
0.320080
30
0.0
11
0.108743
21
0.320795
31
0.0
0
LINE
8
0
6
CONTINUOUS
10
0.106894
20
0.319501
30
0.0
11
0.107727
21
0.320080
31
0.0
0
LINE
8
0
6
CONTINUOUS
10
0.106340
20
0.320292
30
0.0
11
0.106894
21
0.319501
31
0.0
0
LINE
8
0
6
CONTINUOUS
10
0.104436
20
0.317190
30
0.0
11
0.104649
21
0.317347
31
0.0
0
LINE
8
0
6
CONTINUOUS
10
0.103252
20
0.316357
30
0.0
11
0.104436
21
0.317190
31
0.0
0
LINE
8
0
6
CONTINUOUS
10
0.102281
20
0.315682
30
0.0
11
0.103252
21
0.316357
31
0.0
0
LINE
8
0
6
CONTINUOUS
10
0.101751
20
0.316438
30
0.0
11
0.102281
21
0.315682
31
0.0
0
LINE
8
0
6
CONTINUOUS
10
0.115823
20
0.326317
30
0.0
11
0.115179
21
0.327236
31
0.0
0
LINE
8
0
6
CONTINUOUS
10
0.115640
20
0.326182
30
0.0
11
0.115823
21
0.326317
31
0.0
0
LINE
8
0
6
CONTINUOUS
10
0.114624
20
0.325468
30
0.0
11
0.115640
21
0.326182
31
0.0
0
LINE
8
0
6
CONTINUOUS
10
0.113791
20
0.324888
30
0.0
11
0.114624
21
0.325468
31
0.0
0
LINE
8
0
6
CONTINUOUS
10
0.113252
20
0.325659
30
0.0
11
0.113791
21
0.324888
31
0.0
0
LINE
8
0
6
CONTINUOUS
10
0.110819
20
0.322292
30
0.0
11
0.110202
21
0.323175
31
0.0
0
LINE
8
0
6
CONTINUOUS
10
0.110636
20
0.322157
30
0.0
11
0.110819
21
0.322292
31
0.0
0
LINE
8
0
6
CONTINUOUS
10
0.109620
20
0.321443
30
0.0
11
0.110636
21
0.322157
31
0.0
0
LINE
8
0
6
CONTINUOUS
10
0.108787
20
0.320864
30
0.0
11
0.109620
21
0.321443
31
0.0
0
LINE
8
0
6
CONTINUOUS
10
0.105886
20
0.318241
30
0.0
11
0.105240
21
0.319165
31
0.0
0
LINE
8
0
6
CONTINUOUS
10
0.105673
20
0.318084
30
0.0
11
0.105886
21
0.318241
31
0.0
0
LINE
8
0
6
CONTINUOUS
10
0.104489
20
0.317251
30
0.0
11
0.105673
21
0.318084
31
0.0
0
LINE
8
0
6
CONTINUOUS
10
0.100084
20
0.313560
30
0.0
11
0.100305
21
0.313722
31
0.0
0
LINE
8
0
6
CONTINUOUS
10
0.096417
20
0.311033
30
0.0
11
0.097640
21
0.311893
31
0.0
0
LINE
8
0
6
CONTINUOUS
10
0.095415
20
0.310336
30
0.0
11
0.096417
21
0.311033
31
0.0
0
LINE
8
0
6
CONTINUOUS
10
0.110975
20
0.322451
30
0.0
11
0.110373
21
0.323312
31
0.0
0
LINE
8
0
6
CONTINUOUS
10
0.110792
20
0.322316
30
0.0
11
0.110975
21
0.322451
31
0.0
0
LINE
8
0
6
CONTINUOUS
10
0.111013
20
0.323822
30
0.0
11
0.111365
21
0.323319
31
0.0
0
LINE
8
0
6
CONTINUOUS
10
0.115702
20
0.326279
30
0.0
11
0.116641
21
0.326940
31
0.0
0
LINE
8
0
6
CONTINUOUS
10
0.091966
20
0.307941
30
0.0
11
0.092625
21
0.308409
31
0.0
0
LINE
8
0
6
CONTINUOUS
10
-0.041029
20
0.172765
30
0.0
11
-0.041579
21
0.174792
31
0.0
0
LINE
8
0
6
CONTINUOUS
10
-0.041858
20
0.175638
30
0.0
11
-0.041835
21
0.175595
31
0.0
0
LINE
8
0
6
CONTINUOUS
10
-0.041029
20
0.172765
30
0.0
11
-0.041858
21
0.175638
31
0.0
0
LINE
8
0
6
CONTINUOUS
10
-0.042158
20
0.176304
30
0.0
11
-0.041858
21
0.175638
31
0.0
0
LINE
8
0
6
CONTINUOUS
10
-0.078088
20
0.164843
30
0.0
11
-0.077267
21
0.161995
31
0.0
0
LINE
8
0
6
CONTINUOUS
10
-0.077267
20
0.161995
30
0.0
11
-0.077227
21
0.161863
31
0.0
0
LINE
8
0
6
CONTINUOUS
10
-0.078088
20
0.164843
30
0.0
11
-0.077163
21
0.161758
31
0.0
0
LINE
8
0
6
CONTINUOUS
10
-0.076959
20
0.161304
30
0.0
11
-0.077163
21
0.161758
31
0.0
0
LINE
8
0
6
CONTINUOUS
10
-0.077079
20
0.161596
30
0.0
11
-0.077227
21
0.161863
31
0.0
0
LINE
8
0
6
CONTINUOUS
10
-0.040613
20
0.169074
30
0.0
11
-0.041029
21
0.172765
31
0.0
0
LINE
8
0
6
CONTINUOUS
10
-0.041644
20
0.174692
30
0.0
11
-0.042158
21
0.176304
31
0.0
0
LINE
8
0
6
CONTINUOUS
10
-0.070309
20
0.184406
30
0.0
11
-0.073146
21
0.182009
31
0.0
0
LINE
8
0
6
CONTINUOUS
10
-0.043656
20
0.158503
30
0.0
11
-0.041951
21
0.161804
31
0.0
0
LINE
8
0
6
CONTINUOUS
10
-0.040924
20
0.165373
30
0.0
11
-0.040613
21
0.169074
31
0.0
0
LINE
8
0
6
CONTINUOUS
10
-0.062990
20
0.150170
30
0.0
11
-0.059289
21
0.149859
31
0.0
0
LINE
8
0
6
CONTINUOUS
10
-0.046352
20
0.182391
30
0.0
11
-0.049257
21
0.184707
31
0.0
0
LINE
8
0
6
CONTINUOUS
10
-0.059828
20
0.187749
30
0.0
11
-0.063519
21
0.187332
31
0.0
0
LINE
8
0
6
CONTINUOUS
10
-0.055598
20
0.150276
30
0.0
11
-0.052059
21
0.151404
31
0.0
0
LINE
8
0
6
CONTINUOUS
10
-0.077165
20
0.175804
30
0.0
11
-0.078193
21
0.172235
31
0.0
0
LINE
8
0
6
CONTINUOUS
10
-0.073146
20
0.182009
30
0.0
11
-0.075461
21
0.179105
31
0.0
0
LINE
8
0
6
CONTINUOUS
10
-0.042158
20
0.176304
30
0.0
11
-0.043955
21
0.179554
31
0.0
0
LINE
8
0
6
CONTINUOUS
10
-0.066559
20
0.151197
30
0.0
11
-0.062990
21
0.150170
31
0.0
0
LINE
8
0
6
CONTINUOUS
10
-0.041951
20
0.161804
30
0.0
11
-0.040924
21
0.165373
31
0.0
0
LINE
8
0
6
CONTINUOUS
10
-0.069860
20
0.152901
30
0.0
11
-0.066559
21
0.151197
31
0.0
0
LINE
8
0
6
CONTINUOUS
10
-0.045971
20
0.155599
30
0.0
11
-0.043656
21
0.158503
31
0.0
0
LINE
8
0
6
CONTINUOUS
10
-0.067058
20
0.186204
30
0.0
11
-0.070309
21
0.184406
31
0.0
0
LINE
8
0
6
CONTINUOUS
10
-0.072765
20
0.155217
30
0.0
11
-0.069860
21
0.152901
31
0.0
0
LINE
8
0
6
CONTINUOUS
10
-0.078504
20
0.168534
30
0.0
11
-0.078088
21
0.164843
31
0.0
0
LINE
8
0
6
CONTINUOUS
10
-0.075162
20
0.158054
30
0.0
11
-0.072765
21
0.155217
31
0.0
0
LINE
8
0
6
CONTINUOUS
10
-0.075461
20
0.179105
30
0.0
11
-0.077165
21
0.175804
31
0.0
0
LINE
8
0
6
CONTINUOUS
10
-0.049257
20
0.184707
30
0.0
11
-0.050005
21
0.185093
31
0.0
0
LINE
8
0
6
CONTINUOUS
10
-0.078088
20
0.164843
30
0.0
11
-0.076959
21
0.161304
31
0.0
0
LINE
8
0
6
CONTINUOUS
10
-0.078193
20
0.172235
30
0.0
11
-0.078504
21
0.168534
31
0.0
0
LINE
8
0
6
CONTINUOUS
10
-0.056127
20
0.187438
30
0.0
11
-0.059828
21
0.187749
31
0.0
0
LINE
8
0
6
CONTINUOUS
10
-0.043955
20
0.179554
30
0.0
11
-0.046352
21
0.182391
31
0.0
0
LINE
8
0
6
CONTINUOUS
10
-0.063519
20
0.187332
30
0.0
11
-0.067058
21
0.186204
31
0.0
0
LINE
8
0
6
CONTINUOUS
10
-0.059289
20
0.149859
30
0.0
11
-0.055598
21
0.150276
31
0.0
0
LINE
8
0
6
CONTINUOUS
10
-0.076959
20
0.161304
30
0.0
11
-0.075162
21
0.158054
31
0.0
0
LINE
8
0
6
CONTINUOUS
10
-0.048808
20
0.153202
30
0.0
11
-0.045971
21
0.155599
31
0.0
0
LINE
8
0
6
CONTINUOUS
10
-0.052059
20
0.151404
30
0.0
11
-0.048808
21
0.153202
31
0.0
0
LINE
8
0
6
CONTINUOUS
10
-0.055600
20
0.187286
30
0.0
11
-0.056127
21
0.187438
31
0.0
0
LINE
8
0
6
CONTINUOUS
10
-0.078432
20
0.168804
30
0.0
11
-0.077789
21
0.173689
31
0.0
0
LINE
8
0
6
CONTINUOUS
10
-0.077789
20
0.163920
30
0.0
11
-0.078432
21
0.168804
31
0.0
0
LINE
8
0
6
CONTINUOUS
10
-0.078245
20
0.168796
30
0.0
11
-0.077789
21
0.163920
31
0.0
0
LINE
8
0
6
CONTINUOUS
10
-0.077789
20
0.163920
30
0.0
11
-0.075903
21
0.159368
31
0.0
0
LINE
8
0
6
CONTINUOUS
10
-0.075903
20
0.159368
30
0.0
11
-0.072904
21
0.155459
31
0.0
0
LINE
8
0
6
CONTINUOUS
10
-0.072904
20
0.155459
30
0.0
11
-0.068995
21
0.152460
31
0.0
0
LINE
8
0
6
CONTINUOUS
10
-0.068995
20
0.152460
30
0.0
11
-0.064443
21
0.150575
31
0.0
0
LINE
8
0
6
CONTINUOUS
10
-0.064443
20
0.150575
30
0.0
11
-0.059558
21
0.149932
31
0.0
0
LINE
8
0
6
CONTINUOUS
10
-0.059558
20
0.149932
30
0.0
11
-0.054674
21
0.150575
31
0.0
0
LINE
8
0
6
CONTINUOUS
10
-0.054674
20
0.150575
30
0.0
11
-0.050122
21
0.152460
31
0.0
0
LINE
8
0
6
CONTINUOUS
10
-0.050122
20
0.152460
30
0.0
11
-0.046213
21
0.155459
31
0.0
0
LINE
8
0
6
CONTINUOUS
10
-0.046213
20
0.155459
30
0.0
11
-0.043214
21
0.159368
31
0.0
0
LINE
8
0
6
CONTINUOUS
10
-0.043214
20
0.159368
30
0.0
11
-0.041328
21
0.163920
31
0.0
0
LINE
8
0
6
CONTINUOUS
10
-0.041328
20
0.163920
30
0.0
11
-0.040685
21
0.168804
31
0.0
0
LINE
8
0
6
CONTINUOUS
10
-0.040685
20
0.168804
30
0.0
11
-0.041328
21
0.173689
31
0.0
0
LINE
8
0
6
CONTINUOUS
10
-0.041328
20
0.173689
30
0.0
11
-0.043214
21
0.178240
31
0.0
0
LINE
8
0
6
CONTINUOUS
10
-0.043214
20
0.178240
30
0.0
11
-0.046213
21
0.182149
31
0.0
0
LINE
8
0
6
CONTINUOUS
10
-0.046213
20
0.182149
30
0.0
11
-0.050122
21
0.185148
31
0.0
0
LINE
8
0
6
CONTINUOUS
10
-0.050122
20
0.185148
30
0.0
11
-0.054674
21
0.187033
31
0.0
0
LINE
8
0
6
CONTINUOUS
10
-0.054674
20
0.187033
30
0.0
11
-0.059558
21
0.187676
31
0.0
0
LINE
8
0
6
CONTINUOUS
10
-0.059558
20
0.187676
30
0.0
11
-0.064443
21
0.187033
31
0.0
0
LINE
8
0
6
CONTINUOUS
10
-0.064443
20
0.187033
30
0.0
11
-0.068995
21
0.185148
31
0.0
0
LINE
8
0
6
CONTINUOUS
10
-0.068995
20
0.185148
30
0.0
11
-0.072904
21
0.182149
31
0.0
0
LINE
8
0
6
CONTINUOUS
10
-0.072904
20
0.182149
30
0.0
11
-0.075903
21
0.178240
31
0.0
0
LINE
8
0
6
CONTINUOUS
10
-0.075903
20
0.178240
30
0.0
11
-0.077789
21
0.173689
31
0.0
0
LINE
8
0
6
CONTINUOUS
10
-0.047409
20
0.192758
30
0.0
11
-0.047572
21
0.191991
31
0.0
0
LINE
8
0
6
CONTINUOUS
10
-0.047451
20
0.193541
30
0.0
11
-0.047409
21
0.192758
31
0.0
0
LINE
8
0
6
CONTINUOUS
10
-0.047694
20
0.194287
30
0.0
11
-0.047451
21
0.193541
31
0.0
0
LINE
8
0
6
CONTINUOUS
10
-0.048122
20
0.194944
30
0.0
11
-0.047694
21
0.194287
31
0.0
0
LINE
8
0
6
CONTINUOUS
10
-0.048705
20
0.195468
30
0.0
11
-0.048122
21
0.194944
31
0.0
0
LINE
8
0
6
CONTINUOUS
10
-0.049403
20
0.195823
30
0.0
11
-0.048724
21
0.195478
31
0.0
0
LINE
8
0
6
CONTINUOUS
10
-0.050170
20
0.195985
30
0.0
11
-0.049403
21
0.195823
31
0.0
0
LINE
8
0
6
CONTINUOUS
10
-0.047594
20
0.191991
30
0.0
11
-0.047433
21
0.192757
31
0.0
0
LINE
8
0
6
CONTINUOUS
10
-0.047433
20
0.192757
30
0.0
11
-0.047477
21
0.193539
31
0.0
0
LINE
8
0
6
CONTINUOUS
10
-0.047477
20
0.193539
30
0.0
11
-0.047721
21
0.194283
31
0.0
0
LINE
8
0
6
CONTINUOUS
10
-0.047721
20
0.194283
30
0.0
11
-0.048150
21
0.194939
31
0.0
0
LINE
8
0
6
CONTINUOUS
10
-0.048150
20
0.194939
30
0.0
11
-0.048724
21
0.195453
31
0.0
0
LINE
8
0
6
CONTINUOUS
10
-0.048734
20
0.195462
30
0.0
11
-0.049433
21
0.195816
31
0.0
0
LINE
8
0
6
CONTINUOUS
10
-0.049433
20
0.195816
30
0.0
11
-0.050201
21
0.195978
31
0.0
0
LINE
8
0
6
CONTINUOUS
10
-0.050201
20
0.195978
30
0.0
11
-0.050983
21
0.195936
31
0.0
0
LINE
8
0
6
CONTINUOUS
10
-0.050983
20
0.195936
30
0.0
11
-0.051728
21
0.195693
31
0.0
0
LINE
8
0
6
CONTINUOUS
10
-0.051728
20
0.195693
30
0.0
11
-0.052384
21
0.195265
31
0.0
0
LINE
8
0
6
CONTINUOUS
10
-0.052384
20
0.195265
30
0.0
11
-0.052907
21
0.194683
31
0.0
0
LINE
8
0
6
CONTINUOUS
10
-0.052907
20
0.194683
30
0.0
11
-0.053261
21
0.193985
31
0.0
0
LINE
8
0
6
CONTINUOUS
10
-0.050015
20
0.185066
30
0.0
11
-0.047572
21
0.191991
31
0.0
0
LINE
8
0
6
CONTINUOUS
10
-0.050956
20
0.195944
30
0.0
11
-0.050174
21
0.195986
31
0.0
0
LINE
8
0
6
CONTINUOUS
10
-0.050025
20
0.185074
30
0.0
11
-0.047594
21
0.191991
31
0.0
0
LINE
8
0
6
CONTINUOUS
10
-0.049124
20
-0.305033
30
0.0
11
-0.048724
21
-0.305033
31
0.0
0
LINE
8
0
6
CONTINUOUS
10
-0.059725
20
-0.357033
30
0.0
11
-0.121250
21
-0.357033
31
0.0
0
LINE
8
0
6
CONTINUOUS
10
-0.056925
20
-0.357033
30
0.0
11
-0.059725
21
-0.357033
31
0.0
0
LINE
8
0
6
CONTINUOUS
10
-0.054225
20
-0.357033
30
0.0
11
-0.056925
21
-0.357033
31
0.0
0
LINE
8
0
6
CONTINUOUS
10
-0.051925
20
-0.357033
30
0.0
11
-0.054225
21
-0.357033
31
0.0
0
LINE
8
0
6
CONTINUOUS
10
-0.050224
20
-0.357033
30
0.0
11
-0.051925
21
-0.357033
31
0.0
0
LINE
8
0
6
CONTINUOUS
10
-0.049124
20
-0.357033
30
0.0
11
-0.050224
21
-0.357033
31
0.0
0
LINE
8
0
6
CONTINUOUS
10
-0.048724
20
-0.357033
30
0.0
11
-0.049124
21
-0.357033
31
0.0
0
LINE
8
0
6
CONTINUOUS
10
-0.049124
20
-0.305033
30
0.0
11
-0.050224
21
-0.305033
31
0.0
0
LINE
8
0
6
CONTINUOUS
10
-0.050224
20
-0.305033
30
0.0
11
-0.051925
21
-0.305033
31
0.0
0
LINE
8
0
6
CONTINUOUS
10
-0.054225
20
-0.305033
30
0.0
11
-0.056925
21
-0.305033
31
0.0
0
LINE
8
0
6
CONTINUOUS
10
-0.048724
20
-0.356479
30
0.0
11
-0.048724
21
-0.357033
31
0.0
0
LINE
8
0
6
CONTINUOUS
10
-0.056925
20
-0.305033
30
0.0
11
-0.059725
21
-0.305033
31
0.0
0
LINE
8
0
6
CONTINUOUS
10
-0.051925
20
-0.305033
30
0.0
11
-0.054225
21
-0.305033
31
0.0
0
LINE
8
0
6
CONTINUOUS
10
-0.048724
20
0.311259
30
0.0
11
-0.048724
21
0.311967
31
0.0
0
LINE
8
0
6
CONTINUOUS
10
-0.059725
20
0.311967
30
0.0
11
-0.056925
21
0.311967
31
0.0
0
LINE
8
0
6
CONTINUOUS
10
-0.056925
20
0.311967
30
0.0
11
-0.054225
21
0.311967
31
0.0
0
LINE
8
0
6
CONTINUOUS
10
-0.054225
20
0.311967
30
0.0
11
-0.051925
21
0.311967
31
0.0
0
LINE
8
0
6
CONTINUOUS
10
-0.051925
20
0.311967
30
0.0
11
-0.050224
21
0.311967
31
0.0
0
LINE
8
0
6
CONTINUOUS
10
-0.050224
20
0.311967
30
0.0
11
-0.049124
21
0.311967
31
0.0
0
LINE
8
0
6
CONTINUOUS
10
-0.049124
20
0.311967
30
0.0
11
-0.048724
21
0.311967
31
0.0
0
LINE
8
0
6
CONTINUOUS
10
-0.048724
20
-0.304533
30
0.0
11
-0.049224
21
-0.305033
31
0.0
0
LINE
8
0
6
CONTINUOUS
10
-0.048724
20
0.259467
30
0.0
11
-0.048724
21
0.259154
31
0.0
0
LINE
8
0
6
CONTINUOUS
10
-0.049224
20
0.259967
30
0.0
11
-0.048724
21
0.259467
31
0.0
0
LINE
8
0
6
CONTINUOUS
10
-0.070726
20
0.259467
30
0.0
11
-0.070225
21
0.259967
31
0.0
0
LINE
8
0
6
CONTINUOUS
10
-0.070726
20
-0.304533
30
0.0
11
-0.070225
21
-0.305033
31
0.0
0
LINE
8
0
6
CONTINUOUS
10
-0.070726
20
0.259467
30
0.0
11
-0.070726
21
0.259154
31
0.0
0
LINE
8
0
6
CONTINUOUS
10
-0.059725
20
0.259967
30
0.0
11
-0.056925
21
0.259967
31
0.0
0
LINE
8
0
6
CONTINUOUS
10
-0.056925
20
0.259967
30
0.0
11
-0.054225
21
0.259967
31
0.0
0
LINE
8
0
6
CONTINUOUS
10
-0.054225
20
0.259967
30
0.0
11
-0.051925
21
0.259967
31
0.0
0
LINE
8
0
6
CONTINUOUS
10
-0.051925
20
0.259967
30
0.0
11
-0.050224
21
0.259967
31
0.0
0
LINE
8
0
6
CONTINUOUS
10
-0.050224
20
0.259967
30
0.0
11
-0.049124
21
0.259967
31
0.0
0
LINE
8
0
6
CONTINUOUS
10
-0.048724
20
0.259967
30
0.0
11
-0.048724
21
0.260675
31
0.0
0
LINE
8
0
6
CONTINUOUS
10
-0.049124
20
0.259967
30
0.0
11
-0.048724
21
0.259967
31
0.0
0
LINE
8
0
6
CONTINUOUS
10
-0.048724
20
0.260675
30
0.0
11
-0.048724
21
0.311259
31
0.0
0
LINE
8
0
6
CONTINUOUS
10
-0.121750
20
0.311967
30
0.0
11
-0.121750
21
0.311259
31
0.0
0
LINE
8
0
6
CONTINUOUS
10
-0.059725
20
0.259967
30
0.0
11
-0.121250
21
0.259967
31
0.0
0
LINE
8
0
6
CONTINUOUS
10
-0.121750
20
0.260675
30
0.0
11
-0.121750
21
0.259967
31
0.0
0
LINE
8
0
6
CONTINUOUS
10
-0.121750
20
0.311259
30
0.0
11
-0.121750
21
0.260675
31
0.0
0
LINE
8
0
6
CONTINUOUS
10
-0.048724
20
0.259154
30
0.0
11
-0.048724
21
0.258612
31
0.0
0
LINE
8
0
6
CONTINUOUS
10
-0.070726
20
0.259154
30
0.0
11
-0.070726
21
0.258612
31
0.0
0
LINE
8
0
6
CONTINUOUS
10
-0.048724
20
-0.305033
30
0.0
11
-0.048724
21
-0.305587
31
0.0
0
LINE
8
0
6
CONTINUOUS
10
-0.048724
20
-0.305587
30
0.0
11
-0.048724
21
-0.356479
31
0.0
0
LINE
8
0
6
CONTINUOUS
10
-0.121750
20
-0.305033
30
0.0
11
-0.121750
21
-0.305587
31
0.0
0
LINE
8
0
6
CONTINUOUS
10
-0.121750
20
-0.305587
30
0.0
11
-0.121750
21
-0.356479
31
0.0
0
LINE
8
0
6
CONTINUOUS
10
-0.121750
20
-0.357033
30
0.0
11
-0.121250
21
-0.357033
31
0.0
0
LINE
8
0
6
CONTINUOUS
10
-0.121750
20
-0.356479
30
0.0
11
-0.121750
21
-0.357033
31
0.0
0
LINE
8
0
6
CONTINUOUS
10
-0.121250
20
-0.305033
30
0.0
11
-0.059725
21
-0.305033
31
0.0
0
LINE
8
0
6
CONTINUOUS
10
-0.121750
20
-0.305033
30
0.0
11
-0.121250
21
-0.305033
31
0.0
0
LINE
8
0
6
CONTINUOUS
10
-0.048724
20
-0.304533
30
0.0
11
-0.048724
21
-0.304319
31
0.0
0
LINE
8
0
6
CONTINUOUS
10
-0.070726
20
-0.304533
30
0.0
11
-0.070726
21
-0.304319
31
0.0
0
LINE
8
0
6
CONTINUOUS
10
-0.048724
20
0.258612
30
0.0
11
-0.048724
21
0.195478
31
0.0
0
LINE
8
0
6
CONTINUOUS
10
-0.048724
20
0.188724
30
0.0
11
-0.048724
21
0.184282
31
0.0
0
LINE
8
0
6
CONTINUOUS
10
-0.048724
20
0.153273
30
0.0
11
-0.048724
21
-0.303739
31
0.0
0
LINE
8
0
6
CONTINUOUS
10
-0.070726
20
0.258612
30
0.0
11
-0.070726
21
0.184054
31
0.0
0
LINE
8
0
6
CONTINUOUS
10
-0.070726
20
0.153591
30
0.0
11
-0.070726
21
-0.303739
31
0.0
0
LINE
8
0
6
CONTINUOUS
10
-0.048724
20
-0.303739
30
0.0
11
-0.048724
21
-0.304319
31
0.0
0
LINE
8
0
6
CONTINUOUS
10
-0.070726
20
-0.303739
30
0.0
11
-0.070726
21
-0.304319
31
0.0
0
LINE
8
0
6
CONTINUOUS
10
-0.121250
20
0.259967
30
0.0
11
-0.121750
21
0.259967
31
0.0
0
LINE
8
0
6
CONTINUOUS
10
-0.121250
20
0.311967
30
0.0
11
-0.059725
21
0.311967
31
0.0
0
LINE
8
0
6
CONTINUOUS
10
-0.121750
20
0.311967
30
0.0
11
-0.121250
21
0.311967
31
0.0
0
LINE
8
0
6
CONTINUOUS
10
-0.074741
20
0.157556
30
0.0
11
-0.077733
21
0.152005
31
0.0
0
LINE
8
0
6
CONTINUOUS
10
-0.071915
20
0.126671
30
0.0
11
-0.070726
21
0.129217
31
0.0
0
LINE
8
0
6
CONTINUOUS
10
-0.077733
20
0.152005
30
0.0
11
-0.086635
21
0.132940
31
0.0
0
LINE
8
0
6
CONTINUOUS
10
-0.078394
20
0.109889
30
0.0
11
-0.071915
21
0.126671
31
0.0
0
LINE
8
0
6
CONTINUOUS
10
-0.086635
20
0.132940
30
0.0
11
-0.093530
21
0.115073
31
0.0
0
LINE
8
0
6
CONTINUOUS
10
-0.083154
20
0.094028
30
0.0
11
-0.078394
21
0.109889
31
0.0
0
LINE
8
0
6
CONTINUOUS
10
-0.093530
20
0.115073
30
0.0
11
-0.098649
21
0.098014
31
0.0
0
LINE
8
0
6
CONTINUOUS
10
-0.086471
20
0.078618
30
0.0
11
-0.083154
21
0.094028
31
0.0
0
LINE
8
0
6
CONTINUOUS
10
-0.098649
20
0.098014
30
0.0
11
-0.102227
21
0.081401
31
0.0
0
LINE
8
0
6
CONTINUOUS
10
-0.088606
20
0.063179
30
0.0
11
-0.086471
21
0.078618
31
0.0
0
LINE
8
0
6
CONTINUOUS
10
-0.102227
20
0.081401
30
0.0
11
-0.104515
21
0.064877
31
0.0
0
LINE
8
0
6
CONTINUOUS
10
-0.089803
20
0.047242
30
0.0
11
-0.088606
21
0.063179
31
0.0
0
LINE
8
0
6
CONTINUOUS
10
-0.104515
20
0.064877
30
0.0
11
-0.105781
21
0.048078
31
0.0
0
LINE
8
0
6
CONTINUOUS
10
-0.090300
20
0.030362
30
0.0
11
-0.089803
21
0.047242
31
0.0
0
LINE
8
0
6
CONTINUOUS
10
-0.105781
20
0.048078
30
0.0
11
-0.106298
21
0.030614
31
0.0
0
LINE
8
0
6
CONTINUOUS
10
-0.090337
20
0.012121
30
0.0
11
-0.090300
21
0.030362
31
0.0
0
LINE
8
0
6
CONTINUOUS
10
-0.106298
20
0.030614
30
0.0
11
-0.106336
21
0.012067
31
0.0
0
LINE
8
0
6
CONTINUOUS
10
-0.090162
20
-0.007846
30
0.0
11
-0.090337
21
0.012121
31
0.0
0
LINE
8
0
6
CONTINUOUS
10
-0.106336
20
0.012067
30
0.0
11
-0.106161
21
-0.008032
31
0.0
0
LINE
8
0
6
CONTINUOUS
10
-0.089558
20
-0.049544
30
0.0
11
-0.090162
21
-0.007846
31
0.0
0
LINE
8
0
6
CONTINUOUS
10
-0.106161
20
-0.008032
30
0.0
11
-0.105555
21
-0.049843
31
0.0
0
LINE
8
0
6
CONTINUOUS
10
-0.088577
20
-0.092316
30
0.0
11
-0.089558
21
-0.049544
31
0.0
0
LINE
8
0
6
CONTINUOUS
10
-0.105555
20
-0.049843
30
0.0
11
-0.104571
21
-0.092734
31
0.0
0
LINE
8
0
6
CONTINUOUS
10
-0.087322
20
-0.135207
30
0.0
11
-0.088577
21
-0.092316
31
0.0
0
LINE
8
0
6
CONTINUOUS
10
-0.104571
20
-0.092734
30
0.0
11
-0.103315
21
-0.135712
31
0.0
0
LINE
8
0
6
CONTINUOUS
10
-0.085899
20
-0.177238
30
0.0
11
-0.087322
21
-0.135207
31
0.0
0
LINE
8
0
6
CONTINUOUS
10
-0.103315
20
-0.135712
30
0.0
11
-0.101889
21
-0.177805
31
0.0
0
LINE
8
0
6
CONTINUOUS
10
-0.084409
20
-0.217435
30
0.0
11
-0.085899
21
-0.177238
31
0.0
0
LINE
8
0
6
CONTINUOUS
10
-0.101889
20
-0.177805
30
0.0
11
-0.100398
21
-0.218042
31
0.0
0
LINE
8
0
6
CONTINUOUS
10
-0.082958
20
-0.254824
30
0.0
11
-0.084409
21
-0.217435
31
0.0
0
LINE
8
0
6
CONTINUOUS
10
-0.100398
20
-0.218042
30
0.0
11
-0.098946
21
-0.255446
31
0.0
0
LINE
8
0
6
CONTINUOUS
10
-0.081647
20
-0.288433
30
0.0
11
-0.082958
21
-0.254824
31
0.0
0
LINE
8
0
6
CONTINUOUS
10
-0.098946
20
-0.255446
30
0.0
11
-0.097636
21
-0.289040
31
0.0
0
LINE
8
0
6
CONTINUOUS
10
-0.081035
20
-0.305033
30
0.0
11
-0.081647
21
-0.288433
31
0.0
0
LINE
8
0
6
CONTINUOUS
10
-0.097636
20
-0.289040
30
0.0
11
-0.097046
21
-0.305033
31
0.0
0
LINE
8
0
6
CONTINUOUS
10
-0.041579
20
0.174792
30
0.0
11
-0.036843
21
0.182025
31
0.0
0
LINE
8
0
6
CONTINUOUS
10
-0.035837
20
0.183759
30
0.0
11
-0.035790
21
0.183840
31
0.0
0
LINE
8
0
6
CONTINUOUS
10
-0.036843
20
0.182025
30
0.0
11
-0.035837
21
0.183759
31
0.0
0
LINE
8
0
6
CONTINUOUS
10
0.028524
20
0.275896
30
0.0
11
0.037363
21
0.286306
31
0.0
0
LINE
8
0
6
CONTINUOUS
10
0.021678
20
0.284933
30
0.0
11
0.019431
21
0.288143
31
0.0
0
LINE
8
0
6
CONTINUOUS
10
0.027142
20
0.277114
30
0.0
11
0.026960
21
0.277374
31
0.0
0
LINE
8
0
6
CONTINUOUS
10
0.028387
20
0.271172
30
0.0
11
0.028614
21
0.271487
31
0.0
0
LINE
8
0
6
CONTINUOUS
10
0.029540
20
0.302165
30
0.0
11
0.018453
21
0.290305
31
0.0
0
LINE
8
0
6
CONTINUOUS
10
-0.043108
20
0.188018
30
0.0
11
-0.042428
21
0.187624
31
0.0
0
LINE
8
0
6
CONTINUOUS
10
-0.042428
20
0.187624
30
0.0
11
-0.039582
21
0.185976
31
0.0
0
LINE
8
0
6
CONTINUOUS
10
-0.039582
20
0.185976
30
0.0
11
-0.037638
21
0.184859
31
0.0
0
LINE
8
0
6
CONTINUOUS
10
-0.037440
20
0.184747
30
0.0
11
-0.036176
21
0.184028
31
0.0
0
LINE
8
0
6
CONTINUOUS
10
-0.034955
20
0.183355
30
0.0
11
-0.034516
21
0.183965
31
0.0
0
LINE
8
0
6
CONTINUOUS
10
-0.035233
20
0.183498
30
0.0
11
-0.034955
21
0.183355
31
0.0
0
LINE
8
0
6
CONTINUOUS
10
-0.036176
20
0.184028
30
0.0
11
-0.035233
21
0.183498
31
0.0
0
LINE
8
0
6
CONTINUOUS
10
0.017800
20
0.290182
30
0.0
11
0.016659
21
0.290585
31
0.0
0
LINE
8
0
6
CONTINUOUS
10
0.016659
20
0.290585
30
0.0
11
0.015874
21
0.289576
31
0.0
0
LINE
8
0
6
CONTINUOUS
10
0.028614
20
0.271487
30
0.0
11
0.029342
21
0.272497
31
0.0
0
LINE
8
0
6
CONTINUOUS
10
0.028851
20
0.274645
30
0.0
11
0.028737
21
0.274815
31
0.0
0
LINE
8
0
6
CONTINUOUS
10
0.028940
20
0.274255
30
0.0
11
0.028851
21
0.274645
31
0.0
0
LINE
8
0
6
CONTINUOUS
10
0.015874
20
0.289576
30
0.0
11
0.015613
21
0.289242
31
0.0
0
LINE
8
0
6
CONTINUOUS
10
0.028224
20
0.275542
30
0.0
11
0.028524
21
0.275896
31
0.0
0
LINE
8
0
6
CONTINUOUS
10
0.018453
20
0.290305
30
0.0
11
0.018140
21
0.289970
31
0.0
0
LINE
8
0
6
CONTINUOUS
10
-0.047995
20
0.190853
30
0.0
11
-0.043108
21
0.188018
31
0.0
0
LINE
8
0
6
CONTINUOUS
10
-0.037638
20
0.184859
30
0.0
11
-0.037440
21
0.184747
31
0.0
0
LINE
8
0
6
CONTINUOUS
10
-0.034516
20
0.183965
30
0.0
11
0.028387
21
0.271172
31
0.0
0
LINE
8
0
6
CONTINUOUS
10
0.015613
20
0.289242
30
0.0
11
-0.048724
21
0.206593
31
0.0
0
LINE
8
0
6
CONTINUOUS
10
0.018053
20
0.290093
30
0.0
11
0.017800
21
0.290182
31
0.0
0
LINE
8
0
6
CONTINUOUS
10
0.018247
20
0.289824
30
0.0
11
0.018053
21
0.290093
31
0.0
0
LINE
8
0
6
CONTINUOUS
10
0.018720
20
0.289153
30
0.0
11
0.018247
21
0.289824
31
0.0
0
LINE
8
0
6
CONTINUOUS
10
0.019431
20
0.288143
30
0.0
11
0.018720
21
0.289153
31
0.0
0
LINE
8
0
6
CONTINUOUS
10
0.027861
20
0.276081
30
0.0
11
0.027142
21
0.277114
31
0.0
0
LINE
8
0
6
CONTINUOUS
10
0.027932
20
0.275978
30
0.0
11
0.027861
21
0.276081
31
0.0
0
LINE
8
0
6
CONTINUOUS
10
0.028737
20
0.274815
30
0.0
11
0.028384
21
0.275327
31
0.0
0
LINE
8
0
6
CONTINUOUS
10
0.029342
20
0.272497
30
0.0
11
0.028940
21
0.274255
31
0.0
0
LINE
8
0
6
CONTINUOUS
10
0.028384
20
0.275327
30
0.0
11
0.027932
21
0.275978
31
0.0
0
LINE
8
0
6
CONTINUOUS
10
0.120617
20
0.332288
30
0.0
11
0.120142
21
0.333290
31
0.0
0
LINE
8
0
6
CONTINUOUS
10
0.119704
20
0.331531
30
0.0
11
0.120617
21
0.332288
31
0.0
0
LINE
8
0
6
CONTINUOUS
10
0.117062
20
0.329766
30
0.0
11
0.119704
21
0.331531
31
0.0
0
LINE
8
0
6
CONTINUOUS
10
0.100050
20
0.317603
30
0.0
11
0.106949
21
0.322465
31
0.0
0
LINE
8
0
6
CONTINUOUS
10
0.092354
20
0.312193
30
0.0
11
0.100050
21
0.317603
31
0.0
0
LINE
8
0
6
CONTINUOUS
10
0.084246
20
0.306505
30
0.0
11
0.092354
21
0.312193
31
0.0
0
LINE
8
0
6
CONTINUOUS
10
0.055647
20
0.286611
30
0.0
11
0.061369
21
0.290658
31
0.0
0
LINE
8
0
6
CONTINUOUS
10
0.051278
20
0.283592
30
0.0
11
0.055647
21
0.286611
31
0.0
0
LINE
8
0
6
CONTINUOUS
10
0.048466
20
0.281742
30
0.0
11
0.051278
21
0.283592
31
0.0
0
LINE
8
0
6
CONTINUOUS
10
0.046833
20
0.281915
30
0.0
11
0.047612
21
0.281127
31
0.0
0
LINE
8
0
6
CONTINUOUS
10
0.047612
20
0.281127
30
0.0
11
0.048466
21
0.281742
31
0.0
0
LINE
8
0
6
CONTINUOUS
10
0.119642
20
0.343168
30
0.0
11
0.115523
21
0.348601
31
0.0
0
LINE
8
0
6
CONTINUOUS
10
0.037363
20
0.286306
30
0.0
11
0.037718
21
0.285756
31
0.0
0
LINE
8
0
6
CONTINUOUS
10
0.115523
20
0.348601
30
0.0
11
0.113274
21
0.351031
31
0.0
0
LINE
8
0
6
CONTINUOUS
10
0.110877
20
0.353351
30
0.0
11
0.108336
21
0.355524
31
0.0
0
LINE
8
0
6
CONTINUOUS
10
0.106169
20
0.356927
30
0.0
11
0.106044
21
0.356943
31
0.0
0
LINE
8
0
6
CONTINUOUS
10
0.106044
20
0.356943
30
0.0
11
0.105161
21
0.357020
31
0.0
0
LINE
8
0
6
CONTINUOUS
10
0.105161
20
0.357020
30
0.0
11
0.104744
21
0.357033
31
0.0
0
LINE
8
0
6
CONTINUOUS
10
0.029411
20
0.303239
30
0.0
11
0.029383
21
0.303116
31
0.0
0
LINE
8
0
6
CONTINUOUS
10
0.029640
20
0.304096
30
0.0
11
0.029411
21
0.303239
31
0.0
0
LINE
8
0
6
CONTINUOUS
10
0.029770
20
0.304492
30
0.0
11
0.029640
21
0.304096
31
0.0
0
LINE
8
0
6
CONTINUOUS
10
0.113274
20
0.351031
30
0.0
11
0.110877
21
0.353351
31
0.0
0
LINE
8
0
6
CONTINUOUS
10
0.041964
20
0.288322
30
0.0
11
0.046865
21
0.291709
31
0.0
0
LINE
8
0
6
CONTINUOUS
10
0.069815
20
0.307702
30
0.0
11
0.078932
21
0.314085
31
0.0
0
LINE
8
0
6
CONTINUOUS
10
0.104447
20
0.332022
30
0.0
11
0.110916
21
0.336595
31
0.0
0
LINE
8
0
6
CONTINUOUS
10
0.046865
20
0.291709
30
0.0
11
0.053369
21
0.296226
31
0.0
0
LINE
8
0
6
CONTINUOUS
10
0.110916
20
0.336595
30
0.0
11
0.115775
21
0.340048
31
0.0
0
LINE
8
0
6
CONTINUOUS
10
0.078932
20
0.314085
30
0.0
11
0.088044
21
0.320477
31
0.0
0
LINE
8
0
6
CONTINUOUS
10
0.037859
20
0.285556
30
0.0
11
0.038910
21
0.286236
31
0.0
0
LINE
8
0
6
CONTINUOUS
10
0.037718
20
0.285756
30
0.0
11
0.037859
21
0.285556
31
0.0
0
LINE
8
0
6
CONTINUOUS
10
0.053369
20
0.296226
30
0.0
11
0.061148
21
0.301648
31
0.0
0
LINE
8
0
6
CONTINUOUS
10
0.088044
20
0.320477
30
0.0
11
0.096694
21
0.326558
31
0.0
0
LINE
8
0
6
CONTINUOUS
10
0.115775
20
0.340048
30
0.0
11
0.118780
21
0.342209
31
0.0
0
LINE
8
0
6
CONTINUOUS
10
0.038910
20
0.286236
30
0.0
11
0.041964
21
0.288322
31
0.0
0
LINE
8
0
6
CONTINUOUS
10
0.118780
20
0.342209
30
0.0
11
0.119783
21
0.342967
31
0.0
0
LINE
8
0
6
CONTINUOUS
10
0.119783
20
0.342967
30
0.0
11
0.119642
21
0.343168
31
0.0
0
LINE
8
0
6
CONTINUOUS
10
0.096694
20
0.326558
30
0.0
11
0.104447
21
0.332022
31
0.0
0
LINE
8
0
6
CONTINUOUS
10
0.061148
20
0.301648
30
0.0
11
0.069815
21
0.307702
31
0.0
0
LINE
8
0
6
CONTINUOUS
10
0.120547
20
0.341877
30
0.0
11
0.119980
21
0.342685
31
0.0
0
LINE
8
0
6
CONTINUOUS
10
0.038056
20
0.285274
30
0.0
11
0.038623
21
0.284465
31
0.0
0
LINE
8
0
6
CONTINUOUS
10
0.047658
20
0.281827
30
0.0
11
0.050421
21
0.283715
31
0.0
0
LINE
8
0
6
CONTINUOUS
10
0.046706
20
0.281211
30
0.0
11
0.047658
21
0.281827
31
0.0
0
LINE
8
0
6
CONTINUOUS
10
0.044372
20
0.281295
30
0.0
11
0.046706
21
0.281211
31
0.0
0
LINE
8
0
6
CONTINUOUS
10
0.050421
20
0.283715
30
0.0
11
0.054856
21
0.286780
31
0.0
0
LINE
8
0
6
CONTINUOUS
10
0.121344
20
0.339927
30
0.0
11
0.120547
21
0.341877
31
0.0
0
LINE
8
0
6
CONTINUOUS
10
0.121750
20
0.337432
30
0.0
11
0.121344
21
0.339927
31
0.0
0
LINE
8
0
6
CONTINUOUS
10
0.121565
20
0.335391
30
0.0
11
0.121750
21
0.337432
31
0.0
0
LINE
8
0
6
CONTINUOUS
10
0.038623
20
0.284465
30
0.0
11
0.040184
21
0.283051
31
0.0
0
LINE
8
0
6
CONTINUOUS
10
0.040184
20
0.283051
30
0.0
11
0.042390
21
0.281817
31
0.0
0
LINE
8
0
6
CONTINUOUS
10
0.042390
20
0.281817
30
0.0
11
0.044372
21
0.281295
31
0.0
0
LINE
8
0
6
CONTINUOUS
10
0.037985
20
0.285376
30
0.0
11
0.038056
21
0.285274
31
0.0
0
LINE
8
0
6
CONTINUOUS
10
0.119980
20
0.342685
30
0.0
11
0.119909
21
0.342788
31
0.0
0
LINE
8
0
6
CONTINUOUS
10
0.104744
20
0.357033
30
0.0
11
0.104555
21
0.356921
31
0.0
0
LINE
8
0
6
CONTINUOUS
10
0.029939
20
0.304631
30
0.0
11
0.029770
21
0.304492
31
0.0
0
LINE
8
0
6
CONTINUOUS
10
0.052292
20
0.324470
30
0.0
11
0.044755
21
0.318201
31
0.0
0
LINE
8
0
6
CONTINUOUS
10
0.104555
20
0.356921
30
0.0
11
0.094968
21
0.352072
31
0.0
0
LINE
8
0
6
CONTINUOUS
10
0.037398
20
0.311627
30
0.0
11
0.029939
21
0.304631
31
0.0
0
LINE
8
0
6
CONTINUOUS
10
0.107144
20
0.356380
30
0.0
11
0.106169
21
0.356927
31
0.0
0
LINE
8
0
6
CONTINUOUS
10
0.029383
20
0.303116
30
0.0
11
0.029540
21
0.302165
31
0.0
0
LINE
8
0
6
CONTINUOUS
10
0.086802
20
0.347664
30
0.0
11
0.078414
21
0.342760
31
0.0
0
LINE
8
0
6
CONTINUOUS
10
0.078414
20
0.342760
30
0.0
11
0.070048
21
0.337462
31
0.0
0
LINE
8
0
6
CONTINUOUS
10
0.094968
20
0.352072
30
0.0
11
0.086802
21
0.347664
31
0.0
0
LINE
8
0
6
CONTINUOUS
10
0.108336
20
0.355524
30
0.0
11
0.107144
21
0.356380
31
0.0
0
LINE
8
0
6
CONTINUOUS
10
0.068312
20
0.295496
30
0.0
11
0.076046
21
0.300899
31
0.0
0
LINE
8
0
6
CONTINUOUS
10
0.038224
20
0.285812
30
0.0
11
0.038350
21
0.285632
31
0.0
0
LINE
8
0
6
CONTINUOUS
10
0.119543
20
0.342531
30
0.0
11
0.119417
21
0.342711
31
0.0
0
LINE
8
0
6
CONTINUOUS
10
0.044755
20
0.318201
30
0.0
11
0.037398
21
0.311627
31
0.0
0
LINE
8
0
6
CONTINUOUS
10
0.060007
20
0.330426
30
0.0
11
0.052292
21
0.324470
31
0.0
0
LINE
8
0
6
CONTINUOUS
10
0.076046
20
0.300899
30
0.0
11
0.084246
21
0.306505
31
0.0
0
LINE
8
0
6
CONTINUOUS
10
0.112704
20
0.326534
30
0.0
11
0.117062
21
0.329766
31
0.0
0
LINE
8
0
6
CONTINUOUS
10
0.061369
20
0.290658
30
0.0
11
0.068312
21
0.295496
31
0.0
0
LINE
8
0
6
CONTINUOUS
10
0.106949
20
0.322465
30
0.0
11
0.110304
21
0.324837
31
0.0
0
LINE
8
0
6
CONTINUOUS
10
0.112661
20
0.326503
30
0.0
11
0.112704
21
0.326534
31
0.0
0
LINE
8
0
6
CONTINUOUS
10
0.067783
20
0.295775
30
0.0
11
0.075626
21
0.301254
31
0.0
0
LINE
8
0
6
CONTINUOUS
10
0.099952
20
0.318318
30
0.0
11
0.106968
21
0.323263
31
0.0
0
LINE
8
0
6
CONTINUOUS
10
0.119940
20
0.332482
30
0.0
11
0.120847
21
0.333169
31
0.0
0
LINE
8
0
6
CONTINUOUS
10
0.120847
20
0.333169
30
0.0
11
0.121565
21
0.335391
31
0.0
0
LINE
8
0
6
CONTINUOUS
10
0.060742
20
0.290868
30
0.0
11
0.067783
21
0.295775
31
0.0
0
LINE
8
0
6
CONTINUOUS
10
0.117219
20
0.330527
30
0.0
11
0.119940
21
0.332482
31
0.0
0
LINE
8
0
6
CONTINUOUS
10
0.092124
20
0.312815
30
0.0
11
0.099952
21
0.318318
31
0.0
0
LINE
8
0
6
CONTINUOUS
10
0.054856
20
0.286780
30
0.0
11
0.060742
21
0.290868
31
0.0
0
LINE
8
0
6
CONTINUOUS
10
0.083877
20
0.307031
30
0.0
11
0.092124
21
0.312815
31
0.0
0
LINE
8
0
6
CONTINUOUS
10
0.112822
20
0.327402
30
0.0
11
0.117219
21
0.330527
31
0.0
0
LINE
8
0
6
CONTINUOUS
10
0.075626
20
0.301254
30
0.0
11
0.083877
21
0.307031
31
0.0
0
LINE
8
0
6
CONTINUOUS
10
0.106968
20
0.323263
30
0.0
11
0.112822
21
0.327402
31
0.0
0
LINE
8
0
6
CONTINUOUS
10
0.067193
20
0.335490
30
0.0
11
0.066131
21
0.334748
31
0.0
0
LINE
8
0
6
CONTINUOUS
10
0.068147
20
0.336154
30
0.0
11
0.067193
21
0.335490
31
0.0
0
LINE
8
0
6
CONTINUOUS
10
0.068944
20
0.336708
30
0.0
11
0.068147
21
0.336154
31
0.0
0
LINE
8
0
6
CONTINUOUS
10
0.069545
20
0.337123
30
0.0
11
0.068944
21
0.336708
31
0.0
0
LINE
8
0
6
CONTINUOUS
10
0.069919
20
0.337379
30
0.0
11
0.069545
21
0.337123
31
0.0
0
LINE
8
0
6
CONTINUOUS
10
0.070048
20
0.337462
30
0.0
11
0.069919
21
0.337379
31
0.0
0
LINE
8
0
6
CONTINUOUS
10
0.060130
20
0.330519
30
0.0
11
0.060007
21
0.330426
31
0.0
0
LINE
8
0
6
CONTINUOUS
10
0.060498
20
0.330783
30
0.0
11
0.060130
21
0.330519
31
0.0
0
LINE
8
0
6
CONTINUOUS
10
0.061094
20
0.331207
30
0.0
11
0.060498
21
0.330783
31
0.0
0
LINE
8
0
6
CONTINUOUS
10
0.061887
20
0.331767
30
0.0
11
0.061094
21
0.331207
31
0.0
0
LINE
8
0
6
CONTINUOUS
10
0.062837
20
0.332437
30
0.0
11
0.061887
21
0.331767
31
0.0
0
LINE
8
0
6
CONTINUOUS
10
0.063897
20
0.333182
30
0.0
11
0.062837
21
0.332437
31
0.0
0
LINE
8
0
6
CONTINUOUS
10
0.065014
20
0.333965
30
0.0
11
0.063897
21
0.333182
31
0.0
0
LINE
8
0
6
CONTINUOUS
10
0.066131
20
0.334748
30
0.0
11
0.065014
21
0.333965
31
0.0
0
LINE
8
0
6
CONTINUOUS
10
0.110202
20
0.323175
30
0.0
11
0.111106
21
0.323897
31
0.0
0
LINE
8
0
6
CONTINUOUS
10
0.113052
20
0.325449
30
0.0
11
0.113274
21
0.325627
31
0.0
0
LINE
8
0
6
CONTINUOUS
10
0.057537
20
0.286464
30
0.0
11
0.058486
21
0.287044
31
0.0
0
LINE
8
0
6
CONTINUOUS
10
0.100724
20
0.315445
30
0.0
11
0.101816
21
0.316345
31
0.0
0
LINE
8
0
6
CONTINUOUS
10
0.105164
20
0.319102
30
0.0
11
0.106438
21
0.320152
31
0.0
0
LINE
8
0
6
CONTINUOUS
10
0.091661
20
0.308537
30
0.0
11
0.092352
21
0.309057
31
0.0
0
LINE
8
0
6
CONTINUOUS
10
0.095388
20
0.311337
30
0.0
11
0.096630
21
0.312270
31
0.0
0
LINE
8
0
6
CONTINUOUS
10
0.072872
20
0.295705
30
0.0
11
0.073113
21
0.295862
31
0.0
0
LINE
8
0
6
CONTINUOUS
10
0.076435
20
0.298031
30
0.0
11
0.077820
21
0.298934
31
0.0
0
LINE
8
0
6
CONTINUOUS
10
0.088811
20
0.306415
30
0.0
11
0.089159
21
0.306674
31
0.0
0
LINE
8
0
6
CONTINUOUS
10
0.085821
20
0.304271
30
0.0
11
0.086294
21
0.304603
31
0.0
0
LINE
8
0
6
CONTINUOUS
10
0.085348
20
0.303940
30
0.0
11
0.085821
21
0.304271
31
0.0
0
LINE
8
0
6
CONTINUOUS
10
0.082047
20
0.301705
30
0.0
11
0.082823
21
0.302218
31
0.0
0
LINE
8
0
6
CONTINUOUS
10
0.120617
20
0.332288
30
0.0
11
0.119704
21
0.331531
31
0.0
0
LINE
8
0
6
CONTINUOUS
10
0.119551
20
0.330872
30
0.0
11
0.120617
21
0.332288
31
0.0
0
LINE
8
0
6
CONTINUOUS
10
0.119704
20
0.331531
30
0.0
11
0.117062
21
0.329766
31
0.0
0
LINE
8
0
6
CONTINUOUS
10
0.106949
20
0.322465
30
0.0
11
0.100050
21
0.317603
31
0.0
0
LINE
8
0
6
CONTINUOUS
10
0.100050
20
0.317603
30
0.0
11
0.092354
21
0.312193
31
0.0
0
LINE
8
0
6
CONTINUOUS
10
0.092354
20
0.312193
30
0.0
11
0.084246
21
0.306505
31
0.0
0
LINE
8
0
6
CONTINUOUS
10
0.061369
20
0.290658
30
0.0
11
0.055647
21
0.286611
31
0.0
0
LINE
8
0
6
CONTINUOUS
10
0.055647
20
0.286611
30
0.0
11
0.051278
21
0.283592
31
0.0
0
LINE
8
0
6
CONTINUOUS
10
0.051278
20
0.283592
30
0.0
11
0.048466
21
0.281742
31
0.0
0
LINE
8
0
6
CONTINUOUS
10
0.048466
20
0.281742
30
0.0
11
0.047612
21
0.281127
31
0.0
0
LINE
8
0
6
CONTINUOUS
10
0.047612
20
0.281127
30
0.0
11
0.049307
21
0.281645
31
0.0
0
LINE
8
0
6
CONTINUOUS
10
0.112704
20
0.326534
30
0.0
11
0.106949
21
0.322465
31
0.0
0
LINE
8
0
6
CONTINUOUS
10
0.084246
20
0.306505
30
0.0
11
0.076046
21
0.300899
31
0.0
0
LINE
8
0
6
CONTINUOUS
10
0.076046
20
0.300899
30
0.0
11
0.068312
21
0.295496
31
0.0
0
LINE
8
0
6
CONTINUOUS
10
0.068312
20
0.295496
30
0.0
11
0.061369
21
0.290658
31
0.0
0
LINE
8
0
6
CONTINUOUS
10
0.117062
20
0.329766
30
0.0
11
0.112704
21
0.326534
31
0.0
0
LINE
8
0
6
CONTINUOUS
10
0.116003
20
0.327866
30
0.0
11
0.119551
21
0.330872
31
0.0
0
LINE
8
0
6
CONTINUOUS
10
0.049307
20
0.281645
30
0.0
11
0.053336
21
0.283951
31
0.0
0
LINE
8
0
6
CONTINUOUS
10
0.111759
20
0.324733
30
0.0
11
0.111073
21
0.324138
31
0.0
0
LINE
8
0
6
CONTINUOUS
10
0.069210
20
0.294934
30
0.0
11
0.069146
21
0.294885
31
0.0
0
LINE
8
0
6
CONTINUOUS
10
0.076815
20
0.300167
30
0.0
11
0.077362
21
0.300429
31
0.0
0
LINE
8
0
6
CONTINUOUS
10
0.083422
20
0.304835
30
0.0
11
0.082335
21
0.304083
31
0.0
0
LINE
8
0
6
CONTINUOUS
10
0.107611
20
0.321774
30
0.0
11
0.107116
21
0.321330
31
0.0
0
LINE
8
0
6
CONTINUOUS
10
0.108642
20
0.322575
30
0.0
11
0.109010
21
0.322790
31
0.0
0
LINE
8
0
6
CONTINUOUS
10
0.054922
20
0.284898
30
0.0
11
0.053777
21
0.284241
31
0.0
0
LINE
8
0
6
CONTINUOUS
10
0.056785
20
0.286166
30
0.0
11
0.055646
21
0.285501
31
0.0
0
LINE
8
0
6
CONTINUOUS
10
0.060019
20
0.288416
30
0.0
11
0.058876
21
0.287744
31
0.0
0
LINE
8
0
6
CONTINUOUS
10
0.064613
20
0.291623
30
0.0
11
0.064993
21
0.291795
31
0.0
0
LINE
8
0
6
CONTINUOUS
10
0.064613
20
0.291623
30
0.0
11
0.063478
21
0.290940
31
0.0
0
LINE
8
0
6
CONTINUOUS
10
0.089612
20
0.309187
30
0.0
11
0.088974
21
0.308630
31
0.0
0
LINE
8
0
6
CONTINUOUS
10
0.090683
20
0.309931
30
0.0
11
0.091117
21
0.310118
31
0.0
0
LINE
8
0
6
CONTINUOUS
10
0.096302
20
0.313854
30
0.0
11
0.095670
21
0.313290
31
0.0
0
LINE
8
0
6
CONTINUOUS
10
0.102461
20
0.318164
30
0.0
11
0.101847
21
0.317609
31
0.0
0
LINE
8
0
6
CONTINUOUS
10
0.114995
20
0.327104
30
0.0
11
0.114260
21
0.326493
31
0.0
0
LINE
8
0
6
CONTINUOUS
10
0.114995
20
0.327104
30
0.0
11
0.115124
21
0.327191
31
0.0
0
LINE
8
0
6
CONTINUOUS
10
0.075585
20
0.297595
30
0.0
11
0.076387
21
0.298099
31
0.0
0
LINE
8
0
6
CONTINUOUS
10
0.089939
20
0.307406
30
0.0
11
0.089100
21
0.306760
31
0.0
0
LINE
8
0
6
CONTINUOUS
10
0.074573
20
0.297516
30
0.0
11
0.075389
21
0.297948
31
0.0
0
LINE
8
0
6
CONTINUOUS
10
0.086388
20
0.305830
30
0.0
11
0.085818
21
0.305302
31
0.0
0
LINE
8
0
6
CONTINUOUS
10
0.086388
20
0.305830
30
0.0
11
0.085818
21
0.305302
31
0.0
0
LINE
8
0
6
CONTINUOUS
10
0.093129
20
0.310521
30
0.0
11
0.092564
21
0.309987
31
0.0
0
LINE
8
0
6
CONTINUOUS
10
0.099859
20
0.315330
30
0.0
11
0.098646
21
0.314376
31
0.0
0
LINE
8
0
6
CONTINUOUS
10
0.102657
20
0.317206
30
0.0
11
0.101751
21
0.316438
31
0.0
0
LINE
8
0
6
CONTINUOUS
10
0.057099
20
0.286333
30
0.0
11
0.057474
21
0.286553
31
0.0
0
LINE
8
0
6
CONTINUOUS
10
0.060357
20
0.288579
30
0.0
11
0.060558
21
0.288689
31
0.0
0
LINE
8
0
6
CONTINUOUS
10
0.064993
20
0.291795
30
0.0
11
0.065160
21
0.291884
31
0.0
0
LINE
8
0
6
CONTINUOUS
10
0.066538
20
0.292448
30
0.0
11
0.067226
21
0.292836
31
0.0
0
LINE
8
0
6
CONTINUOUS
10
0.066538
20
0.292448
30
0.0
11
0.065431
21
0.291737
31
0.0
0
LINE
8
0
6
CONTINUOUS
10
0.071668
20
0.296046
30
0.0
11
0.072357
21
0.296433
31
0.0
0
LINE
8
0
6
CONTINUOUS
10
0.085053
20
0.305422
30
0.0
11
0.085631
21
0.305751
31
0.0
0
LINE
8
0
6
CONTINUOUS
10
0.085053
20
0.305422
30
0.0
11
0.085631
21
0.305751
31
0.0
0
LINE
8
0
6
CONTINUOUS
10
0.107126
20
0.320939
30
0.0
11
0.106340
21
0.320292
31
0.0
0
LINE
8
0
6
CONTINUOUS
10
0.110014
20
0.323047
30
0.0
11
0.109040
21
0.322272
31
0.0
0
ENDSEC
0
EOF
