999
unknown String-ID: 20550
0
SECTION
2
HEADER
9
$ACADVER
1
AC1009
9
$DWGCODEPAGE
3
unknown String-ID: 20561
0
ENDSEC
0
SECTION
2
TABLES
0
TABLE
2
LAYER
70
1
0
LAYER
2
0
70
0
62
7
6
CONTINUOUS
0
ENDTAB
0
ENDSEC
0
SECTION
2
ENTITIES
0
LINE
8
0
6
CONTINUOUS
10
0.036495
20
0.306113
30
0.0
11
0.036509
21
0.305228
31
0.0
0
LINE
8
0
6
CONTINUOUS
10
0.035153
20
0.306543
30
0.0
11
0.036495
21
0.306113
31
0.0
0
LINE
8
0
6
CONTINUOUS
10
0.033825
20
0.306089
30
0.0
11
0.035153
21
0.306543
31
0.0
0
LINE
8
0
6
CONTINUOUS
10
0.033823
20
0.306838
30
0.0
11
0.033825
21
0.306089
31
0.0
0
LINE
8
0
6
CONTINUOUS
10
0.035181
20
0.304774
30
0.0
11
0.036509
21
0.305228
31
0.0
0
LINE
8
0
6
CONTINUOUS
10
0.033839
20
0.305205
30
0.0
11
0.035181
21
0.304774
31
0.0
0
LINE
8
0
6
CONTINUOUS
10
0.033825
20
0.306089
30
0.0
11
0.033839
21
0.305205
31
0.0
0
LINE
8
0
6
CONTINUOUS
10
0.035153
20
0.306543
30
0.0
11
0.033825
21
0.306089
31
0.0
0
LINE
8
0
6
CONTINUOUS
10
0.036495
20
0.306113
30
0.0
11
0.035153
21
0.306543
31
0.0
0
LINE
8
0
6
CONTINUOUS
10
0.036509
20
0.305228
30
0.0
11
0.036495
21
0.306113
31
0.0
0
LINE
8
0
6
CONTINUOUS
10
0.043298
20
0.305500
30
0.0
11
0.043310
21
0.304741
31
0.0
0
LINE
8
0
6
CONTINUOUS
10
0.042147
20
0.305869
30
0.0
11
0.043298
21
0.305500
31
0.0
0
LINE
8
0
6
CONTINUOUS
10
0.041008
20
0.305480
30
0.0
11
0.042147
21
0.305869
31
0.0
0
LINE
8
0
6
CONTINUOUS
10
0.041005
20
0.306254
30
0.0
11
0.041008
21
0.305480
31
0.0
0
LINE
8
0
6
CONTINUOUS
10
0.042171
20
0.304352
30
0.0
11
0.043310
21
0.304741
31
0.0
0
LINE
8
0
6
CONTINUOUS
10
0.041020
20
0.304721
30
0.0
11
0.042171
21
0.304352
31
0.0
0
LINE
8
0
6
CONTINUOUS
10
0.041008
20
0.305480
30
0.0
11
0.041020
21
0.304721
31
0.0
0
LINE
8
0
6
CONTINUOUS
10
0.042147
20
0.305869
30
0.0
11
0.041008
21
0.305480
31
0.0
0
LINE
8
0
6
CONTINUOUS
10
0.043298
20
0.305500
30
0.0
11
0.042147
21
0.305869
31
0.0
0
LINE
8
0
6
CONTINUOUS
10
0.043310
20
0.304741
30
0.0
11
0.043298
21
0.305500
31
0.0
0
LINE
8
0
6
CONTINUOUS
10
0.050194
20
0.304322
30
0.0
11
0.050206
21
0.303563
31
0.0
0
LINE
8
0
6
CONTINUOUS
10
0.049043
20
0.304692
30
0.0
11
0.050194
21
0.304322
31
0.0
0
LINE
8
0
6
CONTINUOUS
10
0.047904
20
0.304302
30
0.0
11
0.049043
21
0.304692
31
0.0
0
LINE
8
0
6
CONTINUOUS
10
0.047901
20
0.305059
30
0.0
11
0.047904
21
0.304302
31
0.0
0
LINE
8
0
6
CONTINUOUS
10
0.049067
20
0.303174
30
0.0
11
0.050206
21
0.303563
31
0.0
0
LINE
8
0
6
CONTINUOUS
10
0.047916
20
0.303543
30
0.0
11
0.049067
21
0.303174
31
0.0
0
LINE
8
0
6
CONTINUOUS
10
0.047904
20
0.304302
30
0.0
11
0.047916
21
0.303543
31
0.0
0
LINE
8
0
6
CONTINUOUS
10
0.049043
20
0.304692
30
0.0
11
0.047904
21
0.304302
31
0.0
0
LINE
8
0
6
CONTINUOUS
10
0.050194
20
0.304322
30
0.0
11
0.049043
21
0.304692
31
0.0
0
LINE
8
0
6
CONTINUOUS
10
0.050206
20
0.303563
30
0.0
11
0.050194
21
0.304322
31
0.0
0
LINE
8
0
6
CONTINUOUS
10
0.009716
20
0.303628
30
0.0
11
0.011167
21
0.304783
31
0.0
0
LINE
8
0
6
CONTINUOUS
10
0.009722
20
0.304465
30
0.0
11
0.009716
21
0.303628
31
0.0
0
LINE
8
0
6
CONTINUOUS
10
0.014638
20
0.303352
30
0.0
11
0.014645
21
0.304190
31
0.0
0
LINE
8
0
6
CONTINUOUS
10
0.013628
20
0.304645
30
0.0
11
0.014638
21
0.303352
31
0.0
0
LINE
8
0
6
CONTINUOUS
10
0.011167
20
0.304783
30
0.0
11
0.013628
21
0.304645
31
0.0
0
LINE
8
0
6
CONTINUOUS
10
0.013187
20
0.302197
30
0.0
11
0.014638
21
0.303352
31
0.0
0
LINE
8
0
6
CONTINUOUS
10
0.010726
20
0.302335
30
0.0
11
0.013187
21
0.302197
31
0.0
0
LINE
8
0
6
CONTINUOUS
10
0.009716
20
0.303628
30
0.0
11
0.010726
21
0.302335
31
0.0
0
LINE
8
0
6
CONTINUOUS
10
0.011167
20
0.304783
30
0.0
11
0.009716
21
0.303628
31
0.0
0
LINE
8
0
6
CONTINUOUS
10
0.013628
20
0.304645
30
0.0
11
0.011167
21
0.304783
31
0.0
0
LINE
8
0
6
CONTINUOUS
10
0.014638
20
0.303352
30
0.0
11
0.013628
21
0.304645
31
0.0
0
LINE
8
0
6
CONTINUOUS
10
0.034263
20
0.310809
30
0.0
11
0.034277
21
0.309925
31
0.0
0
LINE
8
0
6
CONTINUOUS
10
0.032921
20
0.311240
30
0.0
11
0.034263
21
0.310809
31
0.0
0
LINE
8
0
6
CONTINUOUS
10
0.031593
20
0.310786
30
0.0
11
0.032921
21
0.311240
31
0.0
0
LINE
8
0
6
CONTINUOUS
10
0.031591
20
0.311568
30
0.0
11
0.031593
21
0.310786
31
0.0
0
LINE
8
0
6
CONTINUOUS
10
0.032949
20
0.309471
30
0.0
11
0.034277
21
0.309925
31
0.0
0
LINE
8
0
6
CONTINUOUS
10
0.031607
20
0.309901
30
0.0
11
0.032949
21
0.309471
31
0.0
0
LINE
8
0
6
CONTINUOUS
10
0.031593
20
0.310786
30
0.0
11
0.031607
21
0.309901
31
0.0
0
LINE
8
0
6
CONTINUOUS
10
0.032921
20
0.311240
30
0.0
11
0.031593
21
0.310786
31
0.0
0
LINE
8
0
6
CONTINUOUS
10
0.034263
20
0.310809
30
0.0
11
0.032921
21
0.311240
31
0.0
0
LINE
8
0
6
CONTINUOUS
10
0.034277
20
0.309925
30
0.0
11
0.034263
21
0.310809
31
0.0
0
LINE
8
0
6
CONTINUOUS
10
0.041923
20
0.310337
30
0.0
11
0.041936
21
0.309578
31
0.0
0
LINE
8
0
6
CONTINUOUS
10
0.040772
20
0.310706
30
0.0
11
0.041923
21
0.310337
31
0.0
0
LINE
8
0
6
CONTINUOUS
10
0.039633
20
0.310317
30
0.0
11
0.040772
21
0.310706
31
0.0
0
LINE
8
0
6
CONTINUOUS
10
0.039631
20
0.311101
30
0.0
11
0.039633
21
0.310317
31
0.0
0
LINE
8
0
6
CONTINUOUS
10
0.040796
20
0.309188
30
0.0
11
0.041936
21
0.309578
31
0.0
0
LINE
8
0
6
CONTINUOUS
10
0.039645
20
0.309558
30
0.0
11
0.040796
21
0.309188
31
0.0
0
LINE
8
0
6
CONTINUOUS
10
0.039633
20
0.310317
30
0.0
11
0.039645
21
0.309558
31
0.0
0
LINE
8
0
6
CONTINUOUS
10
0.040772
20
0.310706
30
0.0
11
0.039633
21
0.310317
31
0.0
0
LINE
8
0
6
CONTINUOUS
10
0.041923
20
0.310337
30
0.0
11
0.040772
21
0.310706
31
0.0
0
LINE
8
0
6
CONTINUOUS
10
0.041936
20
0.309578
30
0.0
11
0.041923
21
0.310337
31
0.0
0
LINE
8
0
6
CONTINUOUS
10
0.038141
20
0.314701
30
0.0
11
0.038153
21
0.313942
31
0.0
0
LINE
8
0
6
CONTINUOUS
10
0.036990
20
0.315070
30
0.0
11
0.038141
21
0.314701
31
0.0
0
LINE
8
0
6
CONTINUOUS
10
0.035850
20
0.314681
30
0.0
11
0.036990
21
0.315070
31
0.0
0
LINE
8
0
6
CONTINUOUS
10
0.035848
20
0.315478
30
0.0
11
0.035850
21
0.314681
31
0.0
0
LINE
8
0
6
CONTINUOUS
10
0.037014
20
0.313553
30
0.0
11
0.038153
21
0.313942
31
0.0
0
LINE
8
0
6
CONTINUOUS
10
0.035863
20
0.313922
30
0.0
11
0.037014
21
0.313553
31
0.0
0
LINE
8
0
6
CONTINUOUS
10
0.035850
20
0.314681
30
0.0
11
0.035863
21
0.313922
31
0.0
0
LINE
8
0
6
CONTINUOUS
10
0.036990
20
0.315070
30
0.0
11
0.035850
21
0.314681
31
0.0
0
LINE
8
0
6
CONTINUOUS
10
0.038141
20
0.314701
30
0.0
11
0.036990
21
0.315070
31
0.0
0
LINE
8
0
6
CONTINUOUS
10
0.038153
20
0.313942
30
0.0
11
0.038141
21
0.314701
31
0.0
0
LINE
8
0
6
CONTINUOUS
10
0.036897
20
0.321875
30
0.0
11
0.037130
21
0.321129
31
0.0
0
LINE
8
0
6
CONTINUOUS
10
0.035653
20
0.322129
30
0.0
11
0.036897
21
0.321875
31
0.0
0
LINE
8
0
6
CONTINUOUS
10
0.034642
20
0.321636
30
0.0
11
0.035653
21
0.322129
31
0.0
0
LINE
8
0
6
CONTINUOUS
10
0.034641
20
0.322429
30
0.0
11
0.034642
21
0.321636
31
0.0
0
LINE
8
0
6
CONTINUOUS
10
0.036119
20
0.320636
30
0.0
11
0.037130
21
0.321129
31
0.0
0
LINE
8
0
6
CONTINUOUS
10
0.034875
20
0.320890
30
0.0
11
0.036119
21
0.320636
31
0.0
0
LINE
8
0
6
CONTINUOUS
10
0.034642
20
0.321636
30
0.0
11
0.034875
21
0.320890
31
0.0
0
LINE
8
0
6
CONTINUOUS
10
0.035653
20
0.322129
30
0.0
11
0.034642
21
0.321636
31
0.0
0
LINE
8
0
6
CONTINUOUS
10
0.036897
20
0.321875
30
0.0
11
0.035653
21
0.322129
31
0.0
0
LINE
8
0
6
CONTINUOUS
10
0.037130
20
0.321129
30
0.0
11
0.036897
21
0.321875
31
0.0
0
LINE
8
0
6
CONTINUOUS
10
0.042832
20
0.318282
30
0.0
11
0.043064
21
0.317536
31
0.0
0
LINE
8
0
6
CONTINUOUS
10
0.041588
20
0.318536
30
0.0
11
0.042832
21
0.318282
31
0.0
0
LINE
8
0
6
CONTINUOUS
10
0.040577
20
0.318043
30
0.0
11
0.041588
21
0.318536
31
0.0
0
LINE
8
0
6
CONTINUOUS
10
0.040576
20
0.318823
30
0.0
11
0.040577
21
0.318043
31
0.0
0
LINE
8
0
6
CONTINUOUS
10
0.042053
20
0.317043
30
0.0
11
0.043064
21
0.317536
31
0.0
0
LINE
8
0
6
CONTINUOUS
10
0.040810
20
0.317296
30
0.0
11
0.042053
21
0.317043
31
0.0
0
LINE
8
0
6
CONTINUOUS
10
0.040577
20
0.318043
30
0.0
11
0.040810
21
0.317296
31
0.0
0
LINE
8
0
6
CONTINUOUS
10
0.041588
20
0.318536
30
0.0
11
0.040577
21
0.318043
31
0.0
0
LINE
8
0
6
CONTINUOUS
10
0.042832
20
0.318282
30
0.0
11
0.041588
21
0.318536
31
0.0
0
LINE
8
0
6
CONTINUOUS
10
0.043064
20
0.317536
30
0.0
11
0.042832
21
0.318282
31
0.0
0
LINE
8
0
6
CONTINUOUS
10
0.047146
20
0.314056
30
0.0
11
0.047379
21
0.313309
31
0.0
0
LINE
8
0
6
CONTINUOUS
10
0.045902
20
0.314309
30
0.0
11
0.047146
21
0.314056
31
0.0
0
LINE
8
0
6
CONTINUOUS
10
0.044891
20
0.313816
30
0.0
11
0.045902
21
0.314309
31
0.0
0
LINE
8
0
6
CONTINUOUS
10
0.044890
20
0.314585
30
0.0
11
0.044891
21
0.313816
31
0.0
0
LINE
8
0
6
CONTINUOUS
10
0.046368
20
0.312817
30
0.0
11
0.047379
21
0.313309
31
0.0
0
LINE
8
0
6
CONTINUOUS
10
0.045124
20
0.313070
30
0.0
11
0.046368
21
0.312817
31
0.0
0
LINE
8
0
6
CONTINUOUS
10
0.044891
20
0.313816
30
0.0
11
0.045124
21
0.313070
31
0.0
0
LINE
8
0
6
CONTINUOUS
10
0.045902
20
0.314309
30
0.0
11
0.044891
21
0.313816
31
0.0
0
LINE
8
0
6
CONTINUOUS
10
0.047146
20
0.314056
30
0.0
11
0.045902
21
0.314309
31
0.0
0
LINE
8
0
6
CONTINUOUS
10
0.047379
20
0.313309
30
0.0
11
0.047146
21
0.314056
31
0.0
0
LINE
8
0
6
CONTINUOUS
10
0.049662
20
0.309313
30
0.0
11
0.049895
21
0.308567
31
0.0
0
LINE
8
0
6
CONTINUOUS
10
0.048418
20
0.309567
30
0.0
11
0.049662
21
0.309313
31
0.0
0
LINE
8
0
6
CONTINUOUS
10
0.047407
20
0.309074
30
0.0
11
0.048418
21
0.309567
31
0.0
0
LINE
8
0
6
CONTINUOUS
10
0.047406
20
0.309831
30
0.0
11
0.047407
21
0.309074
31
0.0
0
LINE
8
0
6
CONTINUOUS
10
0.048884
20
0.308074
30
0.0
11
0.049895
21
0.308567
31
0.0
0
LINE
8
0
6
CONTINUOUS
10
0.047640
20
0.308328
30
0.0
11
0.048884
21
0.308074
31
0.0
0
LINE
8
0
6
CONTINUOUS
10
0.047407
20
0.309074
30
0.0
11
0.047640
21
0.308328
31
0.0
0
LINE
8
0
6
CONTINUOUS
10
0.048418
20
0.309567
30
0.0
11
0.047407
21
0.309074
31
0.0
0
LINE
8
0
6
CONTINUOUS
10
0.049662
20
0.309313
30
0.0
11
0.048418
21
0.309567
31
0.0
0
LINE
8
0
6
CONTINUOUS
10
0.049895
20
0.308567
30
0.0
11
0.049662
21
0.309313
31
0.0
0
LINE
8
0
6
CONTINUOUS
10
0.017133
20
0.295901
30
0.0
11
0.018586
21
0.296279
31
0.0
0
LINE
8
0
6
CONTINUOUS
10
0.018586
20
0.296279
30
0.0
11
0.019875
21
0.295748
31
0.0
0
LINE
8
0
6
CONTINUOUS
10
0.016969
20
0.294992
30
0.0
11
0.017133
21
0.295901
31
0.0
0
LINE
8
0
6
CONTINUOUS
10
0.016958
20
0.295825
30
0.0
11
0.016969
21
0.294992
31
0.0
0
LINE
8
0
6
CONTINUOUS
10
0.016969
20
0.294992
30
0.0
11
0.018258
21
0.294461
31
0.0
0
LINE
8
0
6
CONTINUOUS
10
0.017133
20
0.295901
30
0.0
11
0.016969
21
0.294992
31
0.0
0
LINE
8
0
6
CONTINUOUS
10
0.018586
20
0.296279
30
0.0
11
0.017133
21
0.295901
31
0.0
0
LINE
8
0
6
CONTINUOUS
10
0.019875
20
0.295748
30
0.0
11
0.018586
21
0.296279
31
0.0
0
LINE
8
0
6
CONTINUOUS
10
0.019711
20
0.294839
30
0.0
11
0.019875
21
0.295748
31
0.0
0
LINE
8
0
6
CONTINUOUS
10
0.018258
20
0.294461
30
0.0
11
0.019711
21
0.294839
31
0.0
0
LINE
8
0
6
CONTINUOUS
10
0.015499
20
0.284292
30
0.0
11
0.016706
21
0.284606
31
0.0
0
LINE
8
0
6
CONTINUOUS
10
0.016706
20
0.284606
30
0.0
11
0.017777
21
0.284164
31
0.0
0
LINE
8
0
6
CONTINUOUS
10
0.015363
20
0.283537
30
0.0
11
0.015499
21
0.284292
31
0.0
0
LINE
8
0
6
CONTINUOUS
10
0.015353
20
0.284397
30
0.0
11
0.015363
21
0.283537
31
0.0
0
LINE
8
0
6
CONTINUOUS
10
0.015363
20
0.283537
30
0.0
11
0.016434
21
0.283095
31
0.0
0
LINE
8
0
6
CONTINUOUS
10
0.015499
20
0.284292
30
0.0
11
0.015363
21
0.283537
31
0.0
0
LINE
8
0
6
CONTINUOUS
10
0.016706
20
0.284606
30
0.0
11
0.015499
21
0.284292
31
0.0
0
LINE
8
0
6
CONTINUOUS
10
0.017777
20
0.284164
30
0.0
11
0.016706
21
0.284606
31
0.0
0
LINE
8
0
6
CONTINUOUS
10
0.017641
20
0.283409
30
0.0
11
0.017777
21
0.284164
31
0.0
0
LINE
8
0
6
CONTINUOUS
10
0.016434
20
0.283095
30
0.0
11
0.017641
21
0.283409
31
0.0
0
LINE
8
0
6
CONTINUOUS
10
0.015960
20
0.288008
30
0.0
11
0.017167
21
0.288322
31
0.0
0
LINE
8
0
6
CONTINUOUS
10
0.018239
20
0.287881
30
0.0
11
0.018222
21
0.289261
31
0.0
0
LINE
8
0
6
CONTINUOUS
10
0.017167
20
0.288322
30
0.0
11
0.018239
21
0.287881
31
0.0
0
LINE
8
0
6
CONTINUOUS
10
0.015824
20
0.287253
30
0.0
11
0.015960
21
0.288008
31
0.0
0
LINE
8
0
6
CONTINUOUS
10
0.015814
20
0.288103
30
0.0
11
0.015824
21
0.287253
31
0.0
0
LINE
8
0
6
CONTINUOUS
10
0.015824
20
0.287253
30
0.0
11
0.016895
21
0.286811
31
0.0
0
LINE
8
0
6
CONTINUOUS
10
0.015960
20
0.288008
30
0.0
11
0.015824
21
0.287253
31
0.0
0
LINE
8
0
6
CONTINUOUS
10
0.017167
20
0.288322
30
0.0
11
0.015960
21
0.288008
31
0.0
0
LINE
8
0
6
CONTINUOUS
10
0.018239
20
0.287881
30
0.0
11
0.017167
21
0.288322
31
0.0
0
LINE
8
0
6
CONTINUOUS
10
0.018103
20
0.287125
30
0.0
11
0.018239
21
0.287881
31
0.0
0
LINE
8
0
6
CONTINUOUS
10
0.016895
20
0.286811
30
0.0
11
0.018103
21
0.287125
31
0.0
0
LINE
8
0
6
CONTINUOUS
10
0.014990
20
0.291788
30
0.0
11
0.016397
21
0.292154
31
0.0
0
LINE
8
0
6
CONTINUOUS
10
0.016397
20
0.292154
30
0.0
11
0.017645
21
0.291639
31
0.0
0
LINE
8
0
6
CONTINUOUS
10
0.014831
20
0.290907
30
0.0
11
0.014990
21
0.291788
31
0.0
0
LINE
8
0
6
CONTINUOUS
10
0.014820
20
0.291767
30
0.0
11
0.014831
21
0.290907
31
0.0
0
LINE
8
0
6
CONTINUOUS
10
0.014831
20
0.290907
30
0.0
11
0.016080
21
0.290393
31
0.0
0
LINE
8
0
6
CONTINUOUS
10
0.014990
20
0.291788
30
0.0
11
0.014831
21
0.290907
31
0.0
0
LINE
8
0
6
CONTINUOUS
10
0.016397
20
0.292154
30
0.0
11
0.014990
21
0.291788
31
0.0
0
LINE
8
0
6
CONTINUOUS
10
0.017645
20
0.291639
30
0.0
11
0.016397
21
0.292154
31
0.0
0
LINE
8
0
6
CONTINUOUS
10
0.017487
20
0.290759
30
0.0
11
0.017645
21
0.291639
31
0.0
0
LINE
8
0
6
CONTINUOUS
10
0.016080
20
0.290393
30
0.0
11
0.017487
21
0.290759
31
0.0
0
LINE
8
0
6
CONTINUOUS
10
0.023913
20
0.285638
30
0.0
11
0.025121
21
0.285952
31
0.0
0
LINE
8
0
6
CONTINUOUS
10
0.026192
20
0.285511
30
0.0
11
0.026175
21
0.286912
31
0.0
0
LINE
8
0
6
CONTINUOUS
10
0.025121
20
0.285952
30
0.0
11
0.026192
21
0.285511
31
0.0
0
LINE
8
0
6
CONTINUOUS
10
0.023777
20
0.284883
30
0.0
11
0.023913
21
0.285638
31
0.0
0
LINE
8
0
6
CONTINUOUS
10
0.023768
20
0.285715
30
0.0
11
0.023777
21
0.284883
31
0.0
0
LINE
8
0
6
CONTINUOUS
10
0.023777
20
0.284883
30
0.0
11
0.024849
21
0.284442
31
0.0
0
LINE
8
0
6
CONTINUOUS
10
0.023913
20
0.285638
30
0.0
11
0.023777
21
0.284883
31
0.0
0
LINE
8
0
6
CONTINUOUS
10
0.025121
20
0.285952
30
0.0
11
0.023913
21
0.285638
31
0.0
0
LINE
8
0
6
CONTINUOUS
10
0.026192
20
0.285511
30
0.0
11
0.025151
21
0.285940
31
0.0
0
LINE
8
0
6
CONTINUOUS
10
0.026056
20
0.284756
30
0.0
11
0.026192
21
0.285511
31
0.0
0
LINE
8
0
6
CONTINUOUS
10
0.024849
20
0.284442
30
0.0
11
0.026056
21
0.284756
31
0.0
0
LINE
8
0
6
CONTINUOUS
10
0.024040
20
0.289510
30
0.0
11
0.025248
21
0.289824
31
0.0
0
LINE
8
0
6
CONTINUOUS
10
0.025248
20
0.289824
30
0.0
11
0.026319
21
0.289382
31
0.0
0
LINE
8
0
6
CONTINUOUS
10
0.023904
20
0.288754
30
0.0
11
0.024040
21
0.289510
31
0.0
0
LINE
8
0
6
CONTINUOUS
10
0.023895
20
0.289590
30
0.0
11
0.023904
21
0.288754
31
0.0
0
LINE
8
0
6
CONTINUOUS
10
0.023904
20
0.288754
30
0.0
11
0.024976
21
0.288313
31
0.0
0
LINE
8
0
6
CONTINUOUS
10
0.024040
20
0.289510
30
0.0
11
0.023904
21
0.288754
31
0.0
0
LINE
8
0
6
CONTINUOUS
10
0.025248
20
0.289824
30
0.0
11
0.024040
21
0.289510
31
0.0
0
LINE
8
0
6
CONTINUOUS
10
0.026319
20
0.289382
30
0.0
11
0.025248
21
0.289824
31
0.0
0
LINE
8
0
6
CONTINUOUS
10
0.026183
20
0.288627
30
0.0
11
0.026319
21
0.289382
31
0.0
0
LINE
8
0
6
CONTINUOUS
10
0.024976
20
0.288313
30
0.0
11
0.026183
21
0.288627
31
0.0
0
LINE
8
0
6
CONTINUOUS
10
0.022896
20
0.293583
30
0.0
11
0.024303
21
0.293949
31
0.0
0
LINE
8
0
6
CONTINUOUS
10
0.024303
20
0.293949
30
0.0
11
0.025551
21
0.293434
31
0.0
0
LINE
8
0
6
CONTINUOUS
10
0.022737
20
0.292702
30
0.0
11
0.022896
21
0.293583
31
0.0
0
LINE
8
0
6
CONTINUOUS
10
0.022727
20
0.293518
30
0.0
11
0.022737
21
0.292702
31
0.0
0
LINE
8
0
6
CONTINUOUS
10
0.022737
20
0.292702
30
0.0
11
0.023986
21
0.292187
31
0.0
0
LINE
8
0
6
CONTINUOUS
10
0.022896
20
0.293583
30
0.0
11
0.022737
21
0.292702
31
0.0
0
LINE
8
0
6
CONTINUOUS
10
0.024303
20
0.293949
30
0.0
11
0.022896
21
0.293583
31
0.0
0
LINE
8
0
6
CONTINUOUS
10
0.025551
20
0.293434
30
0.0
11
0.024303
21
0.293949
31
0.0
0
LINE
8
0
6
CONTINUOUS
10
0.025393
20
0.292553
30
0.0
11
0.025551
21
0.293434
31
0.0
0
LINE
8
0
6
CONTINUOUS
10
0.023986
20
0.292187
30
0.0
11
0.025393
21
0.292553
31
0.0
0
LINE
8
0
6
CONTINUOUS
10
0.023719
20
0.298857
30
0.0
11
0.025172
21
0.299235
31
0.0
0
LINE
8
0
6
CONTINUOUS
10
0.025172
20
0.299235
30
0.0
11
0.026461
21
0.298703
31
0.0
0
LINE
8
0
6
CONTINUOUS
10
0.023556
20
0.297948
30
0.0
11
0.023719
21
0.298857
31
0.0
0
LINE
8
0
6
CONTINUOUS
10
0.023545
20
0.298759
30
0.0
11
0.023556
21
0.297948
31
0.0
0
LINE
8
0
6
CONTINUOUS
10
0.023556
20
0.297948
30
0.0
11
0.024845
21
0.297416
31
0.0
0
LINE
8
0
6
CONTINUOUS
10
0.023719
20
0.298857
30
0.0
11
0.023556
21
0.297948
31
0.0
0
LINE
8
0
6
CONTINUOUS
10
0.025172
20
0.299235
30
0.0
11
0.023719
21
0.298857
31
0.0
0
LINE
8
0
6
CONTINUOUS
10
0.026461
20
0.298703
30
0.0
11
0.025172
21
0.299235
31
0.0
0
LINE
8
0
6
CONTINUOUS
10
0.026298
20
0.297794
30
0.0
11
0.026461
21
0.298703
31
0.0
0
LINE
8
0
6
CONTINUOUS
10
0.024845
20
0.297416
30
0.0
11
0.026298
21
0.297794
31
0.0
0
LINE
8
0
6
CONTINUOUS
10
0.026847
20
0.303276
30
0.0
11
0.028299
21
0.303654
31
0.0
0
LINE
8
0
6
CONTINUOUS
10
0.028299
20
0.303654
30
0.0
11
0.029589
21
0.303123
31
0.0
0
LINE
8
0
6
CONTINUOUS
10
0.026683
20
0.302367
30
0.0
11
0.026847
21
0.303276
31
0.0
0
LINE
8
0
6
CONTINUOUS
10
0.026672
20
0.303160
30
0.0
11
0.026683
21
0.302367
31
0.0
0
LINE
8
0
6
CONTINUOUS
10
0.026683
20
0.302367
30
0.0
11
0.027972
21
0.301836
31
0.0
0
LINE
8
0
6
CONTINUOUS
10
0.026847
20
0.303276
30
0.0
11
0.026683
21
0.302367
31
0.0
0
LINE
8
0
6
CONTINUOUS
10
0.028299
20
0.303654
30
0.0
11
0.026847
21
0.303276
31
0.0
0
LINE
8
0
6
CONTINUOUS
10
0.029589
20
0.303123
30
0.0
11
0.028299
21
0.303654
31
0.0
0
LINE
8
0
6
CONTINUOUS
10
0.029425
20
0.302214
30
0.0
11
0.029589
21
0.303123
31
0.0
0
LINE
8
0
6
CONTINUOUS
10
0.027972
20
0.301836
30
0.0
11
0.029425
21
0.302214
31
0.0
0
LINE
8
0
6
CONTINUOUS
10
0.029322
20
0.296841
30
0.0
11
0.030729
21
0.297207
31
0.0
0
LINE
8
0
6
CONTINUOUS
10
0.030729
20
0.297207
30
0.0
11
0.031978
21
0.296692
31
0.0
0
LINE
8
0
6
CONTINUOUS
10
0.029163
20
0.295960
30
0.0
11
0.029322
21
0.296841
31
0.0
0
LINE
8
0
6
CONTINUOUS
10
0.029153
20
0.296746
30
0.0
11
0.029163
21
0.295960
31
0.0
0
LINE
8
0
6
CONTINUOUS
10
0.029163
20
0.295960
30
0.0
11
0.030412
21
0.295445
31
0.0
0
LINE
8
0
6
CONTINUOUS
10
0.029322
20
0.296841
30
0.0
11
0.029163
21
0.295960
31
0.0
0
LINE
8
0
6
CONTINUOUS
10
0.030729
20
0.297207
30
0.0
11
0.029322
21
0.296841
31
0.0
0
LINE
8
0
6
CONTINUOUS
10
0.031978
20
0.296692
30
0.0
11
0.030729
21
0.297207
31
0.0
0
LINE
8
0
6
CONTINUOUS
10
0.031819
20
0.295811
30
0.0
11
0.031978
21
0.296692
31
0.0
0
LINE
8
0
6
CONTINUOUS
10
0.030412
20
0.295445
30
0.0
11
0.031819
21
0.295811
31
0.0
0
LINE
8
0
6
CONTINUOUS
10
0.032984
20
0.301120
30
0.0
11
0.034391
21
0.301486
31
0.0
0
LINE
8
0
6
CONTINUOUS
10
0.034391
20
0.301486
30
0.0
11
0.035640
21
0.300971
31
0.0
0
LINE
8
0
6
CONTINUOUS
10
0.032826
20
0.300239
30
0.0
11
0.032984
21
0.301120
31
0.0
0
LINE
8
0
6
CONTINUOUS
10
0.032816
20
0.300998
30
0.0
11
0.032826
21
0.300239
31
0.0
0
LINE
8
0
6
CONTINUOUS
10
0.032826
20
0.300239
30
0.0
11
0.034074
21
0.299725
31
0.0
0
LINE
8
0
6
CONTINUOUS
10
0.032984
20
0.301120
30
0.0
11
0.032826
21
0.300239
31
0.0
0
LINE
8
0
6
CONTINUOUS
10
0.034391
20
0.301486
30
0.0
11
0.032984
21
0.301120
31
0.0
0
LINE
8
0
6
CONTINUOUS
10
0.035640
20
0.300971
30
0.0
11
0.034391
21
0.301486
31
0.0
0
LINE
8
0
6
CONTINUOUS
10
0.035481
20
0.300091
30
0.0
11
0.035640
21
0.300971
31
0.0
0
LINE
8
0
6
CONTINUOUS
10
0.034074
20
0.299725
30
0.0
11
0.035481
21
0.300091
31
0.0
0
LINE
8
0
6
CONTINUOUS
10
0.031130
20
0.292363
30
0.0
11
0.032337
21
0.292677
31
0.0
0
LINE
8
0
6
CONTINUOUS
10
0.032337
20
0.292677
30
0.0
11
0.033408
21
0.292236
31
0.0
0
LINE
8
0
6
CONTINUOUS
10
0.030994
20
0.291608
30
0.0
11
0.031130
21
0.292363
31
0.0
0
LINE
8
0
6
CONTINUOUS
10
0.030984
20
0.292414
30
0.0
11
0.030994
21
0.291608
31
0.0
0
LINE
8
0
6
CONTINUOUS
10
0.030994
20
0.291608
30
0.0
11
0.032065
21
0.291167
31
0.0
0
LINE
8
0
6
CONTINUOUS
10
0.031130
20
0.292363
30
0.0
11
0.030994
21
0.291608
31
0.0
0
LINE
8
0
6
CONTINUOUS
10
0.032337
20
0.292677
30
0.0
11
0.031130
21
0.292363
31
0.0
0
LINE
8
0
6
CONTINUOUS
10
0.033408
20
0.292236
30
0.0
11
0.032337
21
0.292677
31
0.0
0
LINE
8
0
6
CONTINUOUS
10
0.033272
20
0.291481
30
0.0
11
0.033408
21
0.292236
31
0.0
0
LINE
8
0
6
CONTINUOUS
10
0.032065
20
0.291167
30
0.0
11
0.033272
21
0.291481
31
0.0
0
LINE
8
0
6
CONTINUOUS
10
0.036649
20
0.296133
30
0.0
11
0.037856
21
0.296447
31
0.0
0
LINE
8
0
6
CONTINUOUS
10
0.037856
20
0.296447
30
0.0
11
0.038927
21
0.296006
31
0.0
0
LINE
8
0
6
CONTINUOUS
10
0.036513
20
0.295378
30
0.0
11
0.036649
21
0.296133
31
0.0
0
LINE
8
0
6
CONTINUOUS
10
0.036503
20
0.296170
30
0.0
11
0.036513
21
0.295378
31
0.0
0
LINE
8
0
6
CONTINUOUS
10
0.036513
20
0.295378
30
0.0
11
0.037584
21
0.294936
31
0.0
0
LINE
8
0
6
CONTINUOUS
10
0.036649
20
0.296133
30
0.0
11
0.036513
21
0.295378
31
0.0
0
LINE
8
0
6
CONTINUOUS
10
0.037856
20
0.296447
30
0.0
11
0.036649
21
0.296133
31
0.0
0
LINE
8
0
6
CONTINUOUS
10
0.038927
20
0.296006
30
0.0
11
0.037856
21
0.296447
31
0.0
0
LINE
8
0
6
CONTINUOUS
10
0.038791
20
0.295250
30
0.0
11
0.038927
21
0.296006
31
0.0
0
LINE
8
0
6
CONTINUOUS
10
0.037584
20
0.294936
30
0.0
11
0.038791
21
0.295250
31
0.0
0
LINE
8
0
6
CONTINUOUS
10
0.040087
20
0.300626
30
0.0
11
0.041294
21
0.300940
31
0.0
0
LINE
8
0
6
CONTINUOUS
10
0.041294
20
0.300940
30
0.0
11
0.042365
21
0.300499
31
0.0
0
LINE
8
0
6
CONTINUOUS
10
0.039951
20
0.299871
30
0.0
11
0.040087
21
0.300626
31
0.0
0
LINE
8
0
6
CONTINUOUS
10
0.039942
20
0.300652
30
0.0
11
0.039951
21
0.299871
31
0.0
0
LINE
8
0
6
CONTINUOUS
10
0.039951
20
0.299871
30
0.0
11
0.041022
21
0.299430
31
0.0
0
LINE
8
0
6
CONTINUOUS
10
0.040087
20
0.300626
30
0.0
11
0.039951
21
0.299871
31
0.0
0
LINE
8
0
6
CONTINUOUS
10
0.041294
20
0.300940
30
0.0
11
0.040087
21
0.300626
31
0.0
0
LINE
8
0
6
CONTINUOUS
10
0.042365
20
0.300499
30
0.0
11
0.041294
21
0.300940
31
0.0
0
LINE
8
0
6
CONTINUOUS
10
0.042229
20
0.299744
30
0.0
11
0.042365
21
0.300499
31
0.0
0
LINE
8
0
6
CONTINUOUS
10
0.041022
20
0.299430
30
0.0
11
0.042229
21
0.299744
31
0.0
0
LINE
8
0
6
CONTINUOUS
10
0.048789
20
0.299468
30
0.0
11
0.048875
21
0.298711
31
0.0
0
LINE
8
0
6
CONTINUOUS
10
0.046504
20
0.299376
30
0.0
11
0.047604
21
0.299801
31
0.0
0
LINE
8
0
6
CONTINUOUS
10
0.046495
20
0.300127
30
0.0
11
0.046504
21
0.299376
31
0.0
0
LINE
8
0
6
CONTINUOUS
10
0.047604
20
0.299801
30
0.0
11
0.048789
21
0.299468
31
0.0
0
LINE
8
0
6
CONTINUOUS
10
0.046589
20
0.298619
30
0.0
11
0.047775
21
0.298286
31
0.0
0
LINE
8
0
6
CONTINUOUS
10
0.046504
20
0.299376
30
0.0
11
0.046589
21
0.298619
31
0.0
0
LINE
8
0
6
CONTINUOUS
10
0.047604
20
0.299801
30
0.0
11
0.046504
21
0.299376
31
0.0
0
LINE
8
0
6
CONTINUOUS
10
0.048789
20
0.299468
30
0.0
11
0.047604
21
0.299801
31
0.0
0
LINE
8
0
6
CONTINUOUS
10
0.048875
20
0.298711
30
0.0
11
0.048789
21
0.299468
31
0.0
0
LINE
8
0
6
CONTINUOUS
10
0.047775
20
0.298286
30
0.0
11
0.048875
21
0.298711
31
0.0
0
LINE
8
0
6
CONTINUOUS
10
0.045334
20
0.294940
30
0.0
11
0.045420
21
0.294183
31
0.0
0
LINE
8
0
6
CONTINUOUS
10
0.043049
20
0.294847
30
0.0
11
0.044149
21
0.295272
31
0.0
0
LINE
8
0
6
CONTINUOUS
10
0.043041
20
0.295600
30
0.0
11
0.043049
21
0.294847
31
0.0
0
LINE
8
0
6
CONTINUOUS
10
0.044149
20
0.295272
30
0.0
11
0.045334
21
0.294940
31
0.0
0
LINE
8
0
6
CONTINUOUS
10
0.043134
20
0.294090
30
0.0
11
0.044320
21
0.293758
31
0.0
0
LINE
8
0
6
CONTINUOUS
10
0.043049
20
0.294847
30
0.0
11
0.043134
21
0.294090
31
0.0
0
LINE
8
0
6
CONTINUOUS
10
0.044149
20
0.295272
30
0.0
11
0.043049
21
0.294847
31
0.0
0
LINE
8
0
6
CONTINUOUS
10
0.045334
20
0.294940
30
0.0
11
0.044149
21
0.295272
31
0.0
0
LINE
8
0
6
CONTINUOUS
10
0.045420
20
0.294183
30
0.0
11
0.045334
21
0.294940
31
0.0
0
LINE
8
0
6
CONTINUOUS
10
0.044320
20
0.293758
30
0.0
11
0.045420
21
0.294183
31
0.0
0
LINE
8
0
6
CONTINUOUS
10
0.040333
20
0.290201
30
0.0
11
0.040323
21
0.291143
31
0.0
0
LINE
8
0
6
CONTINUOUS
10
0.040248
20
0.290958
30
0.0
11
0.040333
21
0.290201
31
0.0
0
LINE
8
0
6
CONTINUOUS
10
0.037962
20
0.290865
30
0.0
11
0.039062
21
0.291290
31
0.0
0
LINE
8
0
6
CONTINUOUS
10
0.037954
20
0.291620
30
0.0
11
0.037962
21
0.290865
31
0.0
0
LINE
8
0
6
CONTINUOUS
10
0.039062
20
0.291290
30
0.0
11
0.040248
21
0.290958
31
0.0
0
LINE
8
0
6
CONTINUOUS
10
0.038048
20
0.290108
30
0.0
11
0.039233
21
0.289776
31
0.0
0
LINE
8
0
6
CONTINUOUS
10
0.037962
20
0.290865
30
0.0
11
0.038048
21
0.290108
31
0.0
0
LINE
8
0
6
CONTINUOUS
10
0.039062
20
0.291290
30
0.0
11
0.037962
21
0.290865
31
0.0
0
LINE
8
0
6
CONTINUOUS
10
0.040248
20
0.290958
30
0.0
11
0.039062
21
0.291290
31
0.0
0
LINE
8
0
6
CONTINUOUS
10
0.040333
20
0.290201
30
0.0
11
0.040248
21
0.290958
31
0.0
0
LINE
8
0
6
CONTINUOUS
10
0.039233
20
0.289776
30
0.0
11
0.040333
21
0.290201
31
0.0
0
LINE
8
0
6
CONTINUOUS
10
0.033852
20
0.287083
30
0.0
11
0.033837
21
0.288480
31
0.0
0
LINE
8
0
6
CONTINUOUS
10
0.033767
20
0.287840
30
0.0
11
0.033852
21
0.287083
31
0.0
0
LINE
8
0
6
CONTINUOUS
10
0.031481
20
0.287747
30
0.0
11
0.032581
21
0.288172
31
0.0
0
LINE
8
0
6
CONTINUOUS
10
0.031473
20
0.288511
30
0.0
11
0.031481
21
0.287747
31
0.0
0
LINE
8
0
6
CONTINUOUS
10
0.032581
20
0.288172
30
0.0
11
0.033767
21
0.287840
31
0.0
0
LINE
8
0
6
CONTINUOUS
10
0.031567
20
0.286990
30
0.0
11
0.032752
21
0.286658
31
0.0
0
LINE
8
0
6
CONTINUOUS
10
0.031481
20
0.287747
30
0.0
11
0.031567
21
0.286990
31
0.0
0
LINE
8
0
6
CONTINUOUS
10
0.032581
20
0.288172
30
0.0
11
0.031481
21
0.287747
31
0.0
0
LINE
8
0
6
CONTINUOUS
10
0.033767
20
0.287840
30
0.0
11
0.032581
21
0.288172
31
0.0
0
LINE
8
0
6
CONTINUOUS
10
0.033852
20
0.287083
30
0.0
11
0.033767
21
0.287840
31
0.0
0
LINE
8
0
6
CONTINUOUS
10
0.032752
20
0.286658
30
0.0
11
0.033852
21
0.287083
31
0.0
0
LINE
8
0
6
CONTINUOUS
10
0.001952
20
0.301946
30
0.0
11
0.001951
21
0.302860
31
0.0
0
LINE
8
0
6
CONTINUOUS
10
0.001951
20
0.302860
30
0.0
11
0.003329
21
0.303321
31
0.0
0
LINE
8
0
6
CONTINUOUS
10
0.004708
20
0.302870
30
0.0
11
0.004702
21
0.303658
31
0.0
0
LINE
8
0
6
CONTINUOUS
10
0.003329
20
0.303321
30
0.0
11
0.004708
21
0.302870
31
0.0
0
LINE
8
0
6
CONTINUOUS
10
0.001951
20
0.302860
30
0.0
11
0.001952
21
0.301946
31
0.0
0
LINE
8
0
6
CONTINUOUS
10
0.003329
20
0.303321
30
0.0
11
0.001951
21
0.302860
31
0.0
0
LINE
8
0
6
CONTINUOUS
10
0.004708
20
0.302870
30
0.0
11
0.003329
21
0.303321
31
0.0
0
LINE
8
0
6
CONTINUOUS
10
0.004708
20
0.301956
30
0.0
11
0.004708
21
0.302870
31
0.0
0
LINE
8
0
6
CONTINUOUS
10
0.003330
20
0.301495
30
0.0
11
0.004708
21
0.301956
31
0.0
0
LINE
8
0
6
CONTINUOUS
10
0.001952
20
0.301946
30
0.0
11
0.003330
21
0.301495
31
0.0
0
LINE
8
0
6
CONTINUOUS
10
0.020685
20
0.306931
30
0.0
11
0.020677
21
0.307808
31
0.0
0
LINE
8
0
6
CONTINUOUS
10
0.019744
20
0.307665
30
0.0
11
0.020685
21
0.306931
31
0.0
0
LINE
8
0
6
CONTINUOUS
10
0.018162
20
0.307560
30
0.0
11
0.019744
21
0.307665
31
0.0
0
LINE
8
0
6
CONTINUOUS
10
0.017521
20
0.306721
30
0.0
11
0.018162
21
0.307560
31
0.0
0
LINE
8
0
6
CONTINUOUS
10
0.017514
20
0.307524
30
0.0
11
0.017521
21
0.306721
31
0.0
0
LINE
8
0
6
CONTINUOUS
10
0.020685
20
0.306931
30
0.0
11
0.019744
21
0.307665
31
0.0
0
LINE
8
0
6
CONTINUOUS
10
0.020044
20
0.306093
30
0.0
11
0.020685
21
0.306931
31
0.0
0
LINE
8
0
6
CONTINUOUS
10
0.018462
20
0.305988
30
0.0
11
0.020044
21
0.306093
31
0.0
0
LINE
8
0
6
CONTINUOUS
10
0.017521
20
0.306721
30
0.0
11
0.018462
21
0.305988
31
0.0
0
LINE
8
0
6
CONTINUOUS
10
0.018162
20
0.307560
30
0.0
11
0.017521
21
0.306721
31
0.0
0
LINE
8
0
6
CONTINUOUS
10
0.019744
20
0.307665
30
0.0
11
0.018162
21
0.307560
31
0.0
0
LINE
8
0
6
CONTINUOUS
10
0.003512
20
0.306546
30
0.0
11
0.003833
21
0.307441
31
0.0
0
LINE
8
0
6
CONTINUOUS
10
0.003499
20
0.307406
30
0.0
11
0.003512
21
0.306546
31
0.0
0
LINE
8
0
6
CONTINUOUS
10
0.003833
20
0.307441
30
0.0
11
0.005344
21
0.307734
31
0.0
0
LINE
8
0
6
CONTINUOUS
10
0.006533
20
0.307131
30
0.0
11
0.006521
21
0.307944
31
0.0
0
LINE
8
0
6
CONTINUOUS
10
0.005344
20
0.307734
30
0.0
11
0.006533
21
0.307131
31
0.0
0
LINE
8
0
6
CONTINUOUS
10
0.005344
20
0.307734
30
0.0
11
0.003833
21
0.307441
31
0.0
0
LINE
8
0
6
CONTINUOUS
10
0.006533
20
0.307131
30
0.0
11
0.005344
21
0.307734
31
0.0
0
LINE
8
0
6
CONTINUOUS
10
0.006212
20
0.306235
30
0.0
11
0.006533
21
0.307131
31
0.0
0
LINE
8
0
6
CONTINUOUS
10
0.004701
20
0.305943
30
0.0
11
0.006212
21
0.306235
31
0.0
0
LINE
8
0
6
CONTINUOUS
10
0.003512
20
0.306546
30
0.0
11
0.004701
21
0.305943
31
0.0
0
LINE
8
0
6
CONTINUOUS
10
0.003833
20
0.307441
30
0.0
11
0.003512
21
0.306546
31
0.0
0
LINE
8
0
6
CONTINUOUS
10
0.022526
20
0.302356
30
0.0
11
0.022528
21
0.303235
31
0.0
0
LINE
8
0
6
CONTINUOUS
10
0.021876
20
0.303188
30
0.0
11
0.022526
21
0.302356
31
0.0
0
LINE
8
0
6
CONTINUOUS
10
0.020293
20
0.303276
30
0.0
11
0.021876
21
0.303188
31
0.0
0
LINE
8
0
6
CONTINUOUS
10
0.019359
20
0.302533
30
0.0
11
0.020293
21
0.303276
31
0.0
0
LINE
8
0
6
CONTINUOUS
10
0.019362
20
0.303327
30
0.0
11
0.019359
21
0.302533
31
0.0
0
LINE
8
0
6
CONTINUOUS
10
0.021592
20
0.301613
30
0.0
11
0.022526
21
0.302356
31
0.0
0
LINE
8
0
6
CONTINUOUS
10
0.020009
20
0.301702
30
0.0
11
0.021592
21
0.301613
31
0.0
0
LINE
8
0
6
CONTINUOUS
10
0.019359
20
0.302533
30
0.0
11
0.020009
21
0.301702
31
0.0
0
LINE
8
0
6
CONTINUOUS
10
0.020293
20
0.303276
30
0.0
11
0.019359
21
0.302533
31
0.0
0
LINE
8
0
6
CONTINUOUS
10
0.021876
20
0.303188
30
0.0
11
0.020293
21
0.303276
31
0.0
0
LINE
8
0
6
CONTINUOUS
10
0.022526
20
0.302356
30
0.0
11
0.021876
21
0.303188
31
0.0
0
LINE
8
0
6
CONTINUOUS
10
0.009751
20
0.298692
30
0.0
11
0.009754
21
0.299521
31
0.0
0
LINE
8
0
6
CONTINUOUS
10
0.009417
20
0.299584
30
0.0
11
0.009751
21
0.298692
31
0.0
0
LINE
8
0
6
CONTINUOUS
10
0.007902
20
0.299859
30
0.0
11
0.009417
21
0.299584
31
0.0
0
LINE
8
0
6
CONTINUOUS
10
0.006722
20
0.299243
30
0.0
11
0.007902
21
0.299859
31
0.0
0
LINE
8
0
6
CONTINUOUS
10
0.006725
20
0.300083
30
0.0
11
0.006722
21
0.299243
31
0.0
0
LINE
8
0
6
CONTINUOUS
10
0.007056
20
0.298351
30
0.0
11
0.008571
21
0.298075
31
0.0
0
LINE
8
0
6
CONTINUOUS
10
0.006722
20
0.299243
30
0.0
11
0.007056
21
0.298351
31
0.0
0
LINE
8
0
6
CONTINUOUS
10
0.007902
20
0.299859
30
0.0
11
0.006722
21
0.299243
31
0.0
0
LINE
8
0
6
CONTINUOUS
10
0.009417
20
0.299584
30
0.0
11
0.007902
21
0.299859
31
0.0
0
LINE
8
0
6
CONTINUOUS
10
0.009751
20
0.298692
30
0.0
11
0.009417
21
0.299584
31
0.0
0
LINE
8
0
6
CONTINUOUS
10
0.008571
20
0.298075
30
0.0
11
0.009751
21
0.298692
31
0.0
0
LINE
8
0
6
CONTINUOUS
10
0.017596
20
0.298816
30
0.0
11
0.017599
21
0.299679
31
0.0
0
LINE
8
0
6
CONTINUOUS
10
0.016946
20
0.299648
30
0.0
11
0.017596
21
0.298816
31
0.0
0
LINE
8
0
6
CONTINUOUS
10
0.015363
20
0.299737
30
0.0
11
0.016946
21
0.299648
31
0.0
0
LINE
8
0
6
CONTINUOUS
10
0.014430
20
0.298993
30
0.0
11
0.015363
21
0.299737
31
0.0
0
LINE
8
0
6
CONTINUOUS
10
0.014432
20
0.299811
30
0.0
11
0.014430
21
0.298993
31
0.0
0
LINE
8
0
6
CONTINUOUS
10
0.016663
20
0.298073
30
0.0
11
0.017596
21
0.298816
31
0.0
0
LINE
8
0
6
CONTINUOUS
10
0.015080
20
0.298162
30
0.0
11
0.016663
21
0.298073
31
0.0
0
LINE
8
0
6
CONTINUOUS
10
0.014430
20
0.298993
30
0.0
11
0.015080
21
0.298162
31
0.0
0
LINE
8
0
6
CONTINUOUS
10
0.015363
20
0.299737
30
0.0
11
0.014430
21
0.298993
31
0.0
0
LINE
8
0
6
CONTINUOUS
10
0.016946
20
0.299648
30
0.0
11
0.015363
21
0.299737
31
0.0
0
LINE
8
0
6
CONTINUOUS
10
0.017596
20
0.298816
30
0.0
11
0.016946
21
0.299648
31
0.0
0
LINE
8
0
6
CONTINUOUS
10
0.013725
20
0.308707
30
0.0
11
0.013728
21
0.309543
31
0.0
0
LINE
8
0
6
CONTINUOUS
10
0.013076
20
0.309538
30
0.0
11
0.013725
21
0.308707
31
0.0
0
LINE
8
0
6
CONTINUOUS
10
0.011492
20
0.309627
30
0.0
11
0.013076
21
0.309538
31
0.0
0
LINE
8
0
6
CONTINUOUS
10
0.010559
20
0.308884
30
0.0
11
0.011492
21
0.309627
31
0.0
0
LINE
8
0
6
CONTINUOUS
10
0.010562
20
0.309729
30
0.0
11
0.010559
21
0.308884
31
0.0
0
LINE
8
0
6
CONTINUOUS
10
0.012792
20
0.307964
30
0.0
11
0.013725
21
0.308707
31
0.0
0
LINE
8
0
6
CONTINUOUS
10
0.011209
20
0.308052
30
0.0
11
0.012792
21
0.307964
31
0.0
0
LINE
8
0
6
CONTINUOUS
10
0.010559
20
0.308884
30
0.0
11
0.011209
21
0.308052
31
0.0
0
LINE
8
0
6
CONTINUOUS
10
0.011492
20
0.309627
30
0.0
11
0.010559
21
0.308884
31
0.0
0
LINE
8
0
6
CONTINUOUS
10
0.013076
20
0.309538
30
0.0
11
0.011492
21
0.309627
31
0.0
0
LINE
8
0
6
CONTINUOUS
10
0.013725
20
0.308707
30
0.0
11
0.013076
21
0.309538
31
0.0
0
LINE
8
0
6
CONTINUOUS
10
-0.005234
20
0.304368
30
0.0
11
-0.005235
21
0.305282
31
0.0
0
LINE
8
0
6
CONTINUOUS
10
-0.005235
20
0.305282
30
0.0
11
-0.003856
21
0.305743
31
0.0
0
LINE
8
0
6
CONTINUOUS
10
-0.002478
20
0.305292
30
0.0
11
-0.002484
21
0.306085
31
0.0
0
LINE
8
0
6
CONTINUOUS
10
-0.003856
20
0.305743
30
0.0
11
-0.002478
21
0.305292
31
0.0
0
LINE
8
0
6
CONTINUOUS
10
-0.005235
20
0.305282
30
0.0
11
-0.005234
21
0.304368
31
0.0
0
LINE
8
0
6
CONTINUOUS
10
-0.003856
20
0.305743
30
0.0
11
-0.005235
21
0.305282
31
0.0
0
LINE
8
0
6
CONTINUOUS
10
-0.002478
20
0.305292
30
0.0
11
-0.003856
21
0.305743
31
0.0
0
LINE
8
0
6
CONTINUOUS
10
-0.002477
20
0.304378
30
0.0
11
-0.002478
21
0.305292
31
0.0
0
LINE
8
0
6
CONTINUOUS
10
-0.003855
20
0.303917
30
0.0
11
-0.002477
21
0.304378
31
0.0
0
LINE
8
0
6
CONTINUOUS
10
-0.005234
20
0.304368
30
0.0
11
-0.003855
21
0.303917
31
0.0
0
LINE
8
0
6
CONTINUOUS
10
-0.012126
20
0.304922
30
0.0
11
-0.012127
21
0.305807
31
0.0
0
LINE
8
0
6
CONTINUOUS
10
-0.012127
20
0.305807
30
0.0
11
-0.010792
21
0.306254
31
0.0
0
LINE
8
0
6
CONTINUOUS
10
-0.009457
20
0.305817
30
0.0
11
-0.009463
21
0.306566
31
0.0
0
LINE
8
0
6
CONTINUOUS
10
-0.010792
20
0.306254
30
0.0
11
-0.009457
21
0.305817
31
0.0
0
LINE
8
0
6
CONTINUOUS
10
-0.012127
20
0.305807
30
0.0
11
-0.012126
21
0.304922
31
0.0
0
LINE
8
0
6
CONTINUOUS
10
-0.010792
20
0.306254
30
0.0
11
-0.012127
21
0.305807
31
0.0
0
LINE
8
0
6
CONTINUOUS
10
-0.009457
20
0.305817
30
0.0
11
-0.010792
21
0.306254
31
0.0
0
LINE
8
0
6
CONTINUOUS
10
-0.009456
20
0.304932
30
0.0
11
-0.009457
21
0.305817
31
0.0
0
LINE
8
0
6
CONTINUOUS
10
-0.010791
20
0.304485
30
0.0
11
-0.009456
21
0.304932
31
0.0
0
LINE
8
0
6
CONTINUOUS
10
-0.012126
20
0.304922
30
0.0
11
-0.010791
21
0.304485
31
0.0
0
LINE
8
0
6
CONTINUOUS
10
-0.019039
20
0.303780
30
0.0
11
-0.019040
21
0.304539
31
0.0
0
LINE
8
0
6
CONTINUOUS
10
-0.019040
20
0.304539
30
0.0
11
-0.017895
21
0.304922
31
0.0
0
LINE
8
0
6
CONTINUOUS
10
-0.016749
20
0.304547
30
0.0
11
-0.016755
21
0.305314
31
0.0
0
LINE
8
0
6
CONTINUOUS
10
-0.017895
20
0.304922
30
0.0
11
-0.016749
21
0.304547
31
0.0
0
LINE
8
0
6
CONTINUOUS
10
-0.019040
20
0.304539
30
0.0
11
-0.019039
21
0.303780
31
0.0
0
LINE
8
0
6
CONTINUOUS
10
-0.017895
20
0.304922
30
0.0
11
-0.019040
21
0.304539
31
0.0
0
LINE
8
0
6
CONTINUOUS
10
-0.016749
20
0.304547
30
0.0
11
-0.017895
21
0.304922
31
0.0
0
LINE
8
0
6
CONTINUOUS
10
-0.016749
20
0.303788
30
0.0
11
-0.016749
21
0.304547
31
0.0
0
LINE
8
0
6
CONTINUOUS
10
-0.017894
20
0.303404
30
0.0
11
-0.016749
21
0.303788
31
0.0
0
LINE
8
0
6
CONTINUOUS
10
-0.019039
20
0.303780
30
0.0
11
-0.017894
21
0.303404
31
0.0
0
LINE
8
0
6
CONTINUOUS
10
-0.026058
20
0.303178
30
0.0
11
-0.026058
21
0.303937
31
0.0
0
LINE
8
0
6
CONTINUOUS
10
-0.026058
20
0.303937
30
0.0
11
-0.026058
21
0.303178
31
0.0
0
LINE
8
0
6
CONTINUOUS
10
-0.026058
20
0.303178
30
0.0
11
-0.024912
21
0.302802
31
0.0
0
LINE
8
0
6
CONTINUOUS
10
-0.025884
20
0.303232
30
0.0
11
-0.025884
21
0.303991
31
0.0
0
LINE
8
0
6
CONTINUOUS
10
-0.025884
20
0.303991
30
0.0
11
-0.024739
21
0.304374
31
0.0
0
LINE
8
0
6
CONTINUOUS
10
-0.023594
20
0.303999
30
0.0
11
-0.023599
21
0.304756
31
0.0
0
LINE
8
0
6
CONTINUOUS
10
-0.024739
20
0.304374
30
0.0
11
-0.023594
21
0.303999
31
0.0
0
LINE
8
0
6
CONTINUOUS
10
-0.025884
20
0.303991
30
0.0
11
-0.025884
21
0.303232
31
0.0
0
LINE
8
0
6
CONTINUOUS
10
-0.024739
20
0.304374
30
0.0
11
-0.025884
21
0.303991
31
0.0
0
LINE
8
0
6
CONTINUOUS
10
-0.023594
20
0.303999
30
0.0
11
-0.024739
21
0.304374
31
0.0
0
LINE
8
0
6
CONTINUOUS
10
-0.023593
20
0.303240
30
0.0
11
-0.023594
21
0.303999
31
0.0
0
LINE
8
0
6
CONTINUOUS
10
-0.024738
20
0.302856
30
0.0
11
-0.023593
21
0.303240
31
0.0
0
LINE
8
0
6
CONTINUOUS
10
-0.025884
20
0.303232
30
0.0
11
-0.024738
21
0.302856
31
0.0
0
LINE
8
0
6
CONTINUOUS
10
-0.019039
20
0.303780
30
0.0
11
-0.019040
21
0.304539
31
0.0
0
LINE
8
0
6
CONTINUOUS
10
-0.019040
20
0.304539
30
0.0
11
-0.017895
21
0.304922
31
0.0
0
LINE
8
0
6
CONTINUOUS
10
-0.016749
20
0.304547
30
0.0
11
-0.016755
21
0.305314
31
0.0
0
LINE
8
0
6
CONTINUOUS
10
-0.017895
20
0.304922
30
0.0
11
-0.016749
21
0.304547
31
0.0
0
LINE
8
0
6
CONTINUOUS
10
-0.019040
20
0.304539
30
0.0
11
-0.019039
21
0.303780
31
0.0
0
LINE
8
0
6
CONTINUOUS
10
-0.017895
20
0.304922
30
0.0
11
-0.019040
21
0.304539
31
0.0
0
LINE
8
0
6
CONTINUOUS
10
-0.016749
20
0.304547
30
0.0
11
-0.017895
21
0.304922
31
0.0
0
LINE
8
0
6
CONTINUOUS
10
-0.016749
20
0.303788
30
0.0
11
-0.016749
21
0.304547
31
0.0
0
LINE
8
0
6
CONTINUOUS
10
-0.017894
20
0.303404
30
0.0
11
-0.016749
21
0.303788
31
0.0
0
LINE
8
0
6
CONTINUOUS
10
-0.019039
20
0.303780
30
0.0
11
-0.017894
21
0.303404
31
0.0
0
LINE
8
0
6
CONTINUOUS
10
-0.012126
20
0.304922
30
0.0
11
-0.012127
21
0.305807
31
0.0
0
LINE
8
0
6
CONTINUOUS
10
-0.012127
20
0.305807
30
0.0
11
-0.010792
21
0.306254
31
0.0
0
LINE
8
0
6
CONTINUOUS
10
-0.009457
20
0.305817
30
0.0
11
-0.009463
21
0.306566
31
0.0
0
LINE
8
0
6
CONTINUOUS
10
-0.010792
20
0.306254
30
0.0
11
-0.009457
21
0.305817
31
0.0
0
LINE
8
0
6
CONTINUOUS
10
-0.012127
20
0.305807
30
0.0
11
-0.012126
21
0.304922
31
0.0
0
LINE
8
0
6
CONTINUOUS
10
-0.010792
20
0.306254
30
0.0
11
-0.012127
21
0.305807
31
0.0
0
LINE
8
0
6
CONTINUOUS
10
-0.009457
20
0.305817
30
0.0
11
-0.010792
21
0.306254
31
0.0
0
LINE
8
0
6
CONTINUOUS
10
-0.009456
20
0.304932
30
0.0
11
-0.009457
21
0.305817
31
0.0
0
LINE
8
0
6
CONTINUOUS
10
-0.010791
20
0.304485
30
0.0
11
-0.009456
21
0.304932
31
0.0
0
LINE
8
0
6
CONTINUOUS
10
-0.012126
20
0.304922
30
0.0
11
-0.010791
21
0.304485
31
0.0
0
LINE
8
0
6
CONTINUOUS
10
-0.005234
20
0.304368
30
0.0
11
-0.005235
21
0.305282
31
0.0
0
LINE
8
0
6
CONTINUOUS
10
-0.005235
20
0.305282
30
0.0
11
-0.003856
21
0.305743
31
0.0
0
LINE
8
0
6
CONTINUOUS
10
-0.002478
20
0.305292
30
0.0
11
-0.002484
21
0.306085
31
0.0
0
LINE
8
0
6
CONTINUOUS
10
-0.003856
20
0.305743
30
0.0
11
-0.002478
21
0.305292
31
0.0
0
LINE
8
0
6
CONTINUOUS
10
-0.005235
20
0.305282
30
0.0
11
-0.005234
21
0.304368
31
0.0
0
LINE
8
0
6
CONTINUOUS
10
-0.003856
20
0.305743
30
0.0
11
-0.005235
21
0.305282
31
0.0
0
LINE
8
0
6
CONTINUOUS
10
-0.002478
20
0.305292
30
0.0
11
-0.003856
21
0.305743
31
0.0
0
LINE
8
0
6
CONTINUOUS
10
-0.002477
20
0.304378
30
0.0
11
-0.002478
21
0.305292
31
0.0
0
LINE
8
0
6
CONTINUOUS
10
-0.003855
20
0.303917
30
0.0
11
-0.002477
21
0.304378
31
0.0
0
LINE
8
0
6
CONTINUOUS
10
-0.005234
20
0.304368
30
0.0
11
-0.003855
21
0.303917
31
0.0
0
LINE
8
0
6
CONTINUOUS
10
-0.002053
20
0.308854
30
0.0
11
-0.002054
21
0.309768
31
0.0
0
LINE
8
0
6
CONTINUOUS
10
-0.002054
20
0.309768
30
0.0
11
-0.000676
21
0.310229
31
0.0
0
LINE
8
0
6
CONTINUOUS
10
0.000703
20
0.309777
30
0.0
11
0.000697
21
0.310592
31
0.0
0
LINE
8
0
6
CONTINUOUS
10
-0.000676
20
0.310229
30
0.0
11
0.000703
21
0.309777
31
0.0
0
LINE
8
0
6
CONTINUOUS
10
-0.002054
20
0.309768
30
0.0
11
-0.002053
21
0.308854
31
0.0
0
LINE
8
0
6
CONTINUOUS
10
-0.000676
20
0.310229
30
0.0
11
-0.002054
21
0.309768
31
0.0
0
LINE
8
0
6
CONTINUOUS
10
0.000703
20
0.309777
30
0.0
11
-0.000676
21
0.310229
31
0.0
0
LINE
8
0
6
CONTINUOUS
10
0.000704
20
0.308864
30
0.0
11
0.000703
21
0.309777
31
0.0
0
LINE
8
0
6
CONTINUOUS
10
-0.000675
20
0.308402
30
0.0
11
0.000704
21
0.308864
31
0.0
0
LINE
8
0
6
CONTINUOUS
10
-0.002053
20
0.308854
30
0.0
11
-0.000675
21
0.308402
31
0.0
0
LINE
8
0
6
CONTINUOUS
10
-0.009723
20
0.309634
30
0.0
11
-0.009724
21
0.310519
31
0.0
0
LINE
8
0
6
CONTINUOUS
10
-0.009724
20
0.310519
30
0.0
11
-0.008389
21
0.310966
31
0.0
0
LINE
8
0
6
CONTINUOUS
10
-0.007054
20
0.310529
30
0.0
11
-0.007060
21
0.311311
31
0.0
0
LINE
8
0
6
CONTINUOUS
10
-0.008389
20
0.310966
30
0.0
11
-0.007054
21
0.310529
31
0.0
0
LINE
8
0
6
CONTINUOUS
10
-0.009724
20
0.310519
30
0.0
11
-0.009723
21
0.309634
31
0.0
0
LINE
8
0
6
CONTINUOUS
10
-0.008389
20
0.310966
30
0.0
11
-0.009724
21
0.310519
31
0.0
0
LINE
8
0
6
CONTINUOUS
10
-0.007054
20
0.310529
30
0.0
11
-0.008389
21
0.310966
31
0.0
0
LINE
8
0
6
CONTINUOUS
10
-0.007053
20
0.309644
30
0.0
11
-0.007054
21
0.310529
31
0.0
0
LINE
8
0
6
CONTINUOUS
10
-0.008388
20
0.309197
30
0.0
11
-0.007053
21
0.309644
31
0.0
0
LINE
8
0
6
CONTINUOUS
10
-0.009723
20
0.309634
30
0.0
11
-0.008388
21
0.309197
31
0.0
0
LINE
8
0
6
CONTINUOUS
10
-0.004678
20
0.313522
30
0.0
11
-0.004679
21
0.314406
31
0.0
0
LINE
8
0
6
CONTINUOUS
10
-0.004679
20
0.314406
30
0.0
11
-0.003344
21
0.314854
31
0.0
0
LINE
8
0
6
CONTINUOUS
10
-0.002009
20
0.314416
30
0.0
11
-0.002015
21
0.315220
31
0.0
0
LINE
8
0
6
CONTINUOUS
10
-0.003344
20
0.314854
30
0.0
11
-0.002009
21
0.314416
31
0.0
0
LINE
8
0
6
CONTINUOUS
10
-0.004679
20
0.314406
30
0.0
11
-0.004678
21
0.313522
31
0.0
0
LINE
8
0
6
CONTINUOUS
10
-0.003344
20
0.314854
30
0.0
11
-0.004679
21
0.314406
31
0.0
0
LINE
8
0
6
CONTINUOUS
10
-0.002009
20
0.314416
30
0.0
11
-0.003344
21
0.314854
31
0.0
0
LINE
8
0
6
CONTINUOUS
10
-0.002008
20
0.313531
30
0.0
11
-0.002009
21
0.314416
31
0.0
0
LINE
8
0
6
CONTINUOUS
10
-0.003343
20
0.313084
30
0.0
11
-0.002008
21
0.313531
31
0.0
0
LINE
8
0
6
CONTINUOUS
10
-0.004678
20
0.313522
30
0.0
11
-0.003343
21
0.313084
31
0.0
0
LINE
8
0
6
CONTINUOUS
10
-0.017881
20
0.308640
30
0.0
11
-0.017881
21
0.309399
31
0.0
0
LINE
8
0
6
CONTINUOUS
10
-0.017881
20
0.309399
30
0.0
11
-0.016736
21
0.309783
31
0.0
0
LINE
8
0
6
CONTINUOUS
10
-0.015591
20
0.309407
30
0.0
11
-0.015596
21
0.310192
31
0.0
0
LINE
8
0
6
CONTINUOUS
10
-0.016736
20
0.309783
30
0.0
11
-0.015591
21
0.309407
31
0.0
0
LINE
8
0
6
CONTINUOUS
10
-0.017881
20
0.309399
30
0.0
11
-0.017881
21
0.308640
31
0.0
0
LINE
8
0
6
CONTINUOUS
10
-0.016736
20
0.309783
30
0.0
11
-0.017881
21
0.309399
31
0.0
0
LINE
8
0
6
CONTINUOUS
10
-0.015591
20
0.309407
30
0.0
11
-0.016736
21
0.309783
31
0.0
0
LINE
8
0
6
CONTINUOUS
10
-0.015590
20
0.308648
30
0.0
11
-0.015591
21
0.309407
31
0.0
0
LINE
8
0
6
CONTINUOUS
10
-0.016735
20
0.308265
30
0.0
11
-0.015590
21
0.308648
31
0.0
0
LINE
8
0
6
CONTINUOUS
10
-0.017881
20
0.308640
30
0.0
11
-0.016735
21
0.308265
31
0.0
0
LINE
8
0
6
CONTINUOUS
10
-0.014576
20
0.313188
30
0.0
11
-0.014577
21
0.313947
31
0.0
0
LINE
8
0
6
CONTINUOUS
10
-0.014577
20
0.313947
30
0.0
11
-0.013432
21
0.314330
31
0.0
0
LINE
8
0
6
CONTINUOUS
10
-0.012286
20
0.313955
30
0.0
11
-0.012292
21
0.314753
31
0.0
0
LINE
8
0
6
CONTINUOUS
10
-0.013432
20
0.314330
30
0.0
11
-0.012286
21
0.313955
31
0.0
0
LINE
8
0
6
CONTINUOUS
10
-0.014577
20
0.313947
30
0.0
11
-0.014576
21
0.313188
31
0.0
0
LINE
8
0
6
CONTINUOUS
10
-0.013432
20
0.314330
30
0.0
11
-0.014577
21
0.313947
31
0.0
0
LINE
8
0
6
CONTINUOUS
10
-0.012286
20
0.313955
30
0.0
11
-0.013432
21
0.314330
31
0.0
0
LINE
8
0
6
CONTINUOUS
10
-0.012285
20
0.313196
30
0.0
11
-0.012286
21
0.313955
31
0.0
0
LINE
8
0
6
CONTINUOUS
10
-0.013430
20
0.312812
30
0.0
11
-0.012285
21
0.313196
31
0.0
0
LINE
8
0
6
CONTINUOUS
10
-0.014576
20
0.313188
30
0.0
11
-0.013430
21
0.312812
31
0.0
0
LINE
8
0
6
CONTINUOUS
10
-0.009009
20
0.316963
30
0.0
11
-0.009009
21
0.317722
31
0.0
0
LINE
8
0
6
CONTINUOUS
10
-0.009009
20
0.317722
30
0.0
11
-0.007864
21
0.318105
31
0.0
0
LINE
8
0
6
CONTINUOUS
10
-0.006719
20
0.317730
30
0.0
11
-0.006725
21
0.318542
31
0.0
0
LINE
8
0
6
CONTINUOUS
10
-0.007864
20
0.318105
30
0.0
11
-0.006719
21
0.317730
31
0.0
0
LINE
8
0
6
CONTINUOUS
10
-0.009009
20
0.317722
30
0.0
11
-0.009009
21
0.316963
31
0.0
0
LINE
8
0
6
CONTINUOUS
10
-0.007864
20
0.318105
30
0.0
11
-0.009009
21
0.317722
31
0.0
0
LINE
8
0
6
CONTINUOUS
10
-0.006719
20
0.317730
30
0.0
11
-0.007864
21
0.318105
31
0.0
0
LINE
8
0
6
CONTINUOUS
10
-0.006718
20
0.316971
30
0.0
11
-0.006719
21
0.317730
31
0.0
0
LINE
8
0
6
CONTINUOUS
10
-0.007863
20
0.316587
30
0.0
11
-0.006718
21
0.316971
31
0.0
0
LINE
8
0
6
CONTINUOUS
10
-0.009009
20
0.316963
30
0.0
11
-0.007863
21
0.316587
31
0.0
0
LINE
8
0
6
CONTINUOUS
10
-0.012845
20
0.320909
30
0.0
11
-0.012625
21
0.321659
31
0.0
0
LINE
8
0
6
CONTINUOUS
10
-0.012853
20
0.321774
30
0.0
11
-0.012845
21
0.320909
31
0.0
0
LINE
8
0
6
CONTINUOUS
10
-0.012625
20
0.321659
30
0.0
11
-0.011386
21
0.321928
31
0.0
0
LINE
8
0
6
CONTINUOUS
10
-0.010367
20
0.321447
30
0.0
11
-0.010374
21
0.322251
31
0.0
0
LINE
8
0
6
CONTINUOUS
10
-0.011386
20
0.321928
30
0.0
11
-0.010367
21
0.321447
31
0.0
0
LINE
8
0
6
CONTINUOUS
10
-0.012625
20
0.321659
30
0.0
11
-0.012845
21
0.320909
31
0.0
0
LINE
8
0
6
CONTINUOUS
10
-0.011386
20
0.321928
30
0.0
11
-0.012625
21
0.321659
31
0.0
0
LINE
8
0
6
CONTINUOUS
10
-0.010367
20
0.321447
30
0.0
11
-0.011386
21
0.321928
31
0.0
0
LINE
8
0
6
CONTINUOUS
10
-0.010587
20
0.320698
30
0.0
11
-0.010367
21
0.321447
31
0.0
0
LINE
8
0
6
CONTINUOUS
10
-0.011826
20
0.320429
30
0.0
11
-0.010587
21
0.320698
31
0.0
0
LINE
8
0
6
CONTINUOUS
10
-0.012845
20
0.320909
30
0.0
11
-0.011826
21
0.320429
31
0.0
0
LINE
8
0
6
CONTINUOUS
10
-0.018732
20
0.317279
30
0.0
11
-0.018512
21
0.318029
31
0.0
0
LINE
8
0
6
CONTINUOUS
10
-0.018740
20
0.318164
30
0.0
11
-0.018732
21
0.317279
31
0.0
0
LINE
8
0
6
CONTINUOUS
10
-0.018512
20
0.318029
30
0.0
11
-0.017273
21
0.318297
31
0.0
0
LINE
8
0
6
CONTINUOUS
10
-0.016253
20
0.317817
30
0.0
11
-0.016260
21
0.318598
31
0.0
0
LINE
8
0
6
CONTINUOUS
10
-0.017273
20
0.318297
30
0.0
11
-0.016253
21
0.317817
31
0.0
0
LINE
8
0
6
CONTINUOUS
10
-0.018512
20
0.318029
30
0.0
11
-0.018732
21
0.317279
31
0.0
0
LINE
8
0
6
CONTINUOUS
10
-0.017273
20
0.318297
30
0.0
11
-0.018512
21
0.318029
31
0.0
0
LINE
8
0
6
CONTINUOUS
10
-0.016253
20
0.317817
30
0.0
11
-0.017273
21
0.318297
31
0.0
0
LINE
8
0
6
CONTINUOUS
10
-0.016474
20
0.317068
30
0.0
11
-0.016253
21
0.317817
31
0.0
0
LINE
8
0
6
CONTINUOUS
10
-0.017713
20
0.316799
30
0.0
11
-0.016474
21
0.317068
31
0.0
0
LINE
8
0
6
CONTINUOUS
10
-0.018732
20
0.317279
30
0.0
11
-0.017713
21
0.316799
31
0.0
0
LINE
8
0
6
CONTINUOUS
10
-0.023075
20
0.312955
30
0.0
11
-0.022855
21
0.313704
31
0.0
0
LINE
8
0
6
CONTINUOUS
10
-0.023083
20
0.313854
30
0.0
11
-0.023075
21
0.312955
31
0.0
0
LINE
8
0
6
CONTINUOUS
10
-0.022855
20
0.313704
30
0.0
11
-0.021616
21
0.313973
31
0.0
0
LINE
8
0
6
CONTINUOUS
10
-0.020596
20
0.313493
30
0.0
11
-0.020603
21
0.314261
31
0.0
0
LINE
8
0
6
CONTINUOUS
10
-0.021616
20
0.313973
30
0.0
11
-0.020596
21
0.313493
31
0.0
0
LINE
8
0
6
CONTINUOUS
10
-0.022855
20
0.313704
30
0.0
11
-0.023075
21
0.312955
31
0.0
0
LINE
8
0
6
CONTINUOUS
10
-0.021616
20
0.313973
30
0.0
11
-0.022855
21
0.313704
31
0.0
0
LINE
8
0
6
CONTINUOUS
10
-0.020596
20
0.313493
30
0.0
11
-0.021616
21
0.313973
31
0.0
0
LINE
8
0
6
CONTINUOUS
10
-0.020816
20
0.312744
30
0.0
11
-0.020596
21
0.313493
31
0.0
0
LINE
8
0
6
CONTINUOUS
10
-0.022056
20
0.312475
30
0.0
11
-0.020816
21
0.312744
31
0.0
0
LINE
8
0
6
CONTINUOUS
10
-0.023075
20
0.312955
30
0.0
11
-0.022056
21
0.312475
31
0.0
0
LINE
8
0
6
CONTINUOUS
10
-0.025631
20
0.308276
30
0.0
11
-0.025411
21
0.309025
31
0.0
0
LINE
8
0
6
CONTINUOUS
10
-0.025639
20
0.309187
30
0.0
11
-0.025631
21
0.308276
31
0.0
0
LINE
8
0
6
CONTINUOUS
10
-0.025411
20
0.309025
30
0.0
11
-0.024171
21
0.309294
31
0.0
0
LINE
8
0
6
CONTINUOUS
10
-0.023152
20
0.308814
30
0.0
11
-0.023158
21
0.309570
31
0.0
0
LINE
8
0
6
CONTINUOUS
10
-0.024171
20
0.309294
30
0.0
11
-0.023152
21
0.308814
31
0.0
0
LINE
8
0
6
CONTINUOUS
10
-0.025411
20
0.309025
30
0.0
11
-0.025631
21
0.308276
31
0.0
0
LINE
8
0
6
CONTINUOUS
10
-0.024171
20
0.309294
30
0.0
11
-0.025411
21
0.309025
31
0.0
0
LINE
8
0
6
CONTINUOUS
10
-0.023152
20
0.308814
30
0.0
11
-0.024171
21
0.309294
31
0.0
0
LINE
8
0
6
CONTINUOUS
10
-0.023372
20
0.308064
30
0.0
11
-0.023152
21
0.308814
31
0.0
0
LINE
8
0
6
CONTINUOUS
10
-0.024611
20
0.307795
30
0.0
11
-0.023372
21
0.308064
31
0.0
0
LINE
8
0
6
CONTINUOUS
10
-0.025631
20
0.308276
30
0.0
11
-0.024611
21
0.307795
31
0.0
0
LINE
8
0
6
CONTINUOUS
10
0.010115
20
0.295600
30
0.0
11
0.011574
21
0.295240
31
0.0
0
LINE
8
0
6
CONTINUOUS
10
0.008835
20
0.295053
30
0.0
11
0.010115
21
0.295600
31
0.0
0
LINE
8
0
6
CONTINUOUS
10
0.008837
20
0.295870
30
0.0
11
0.008835
21
0.295053
31
0.0
0
LINE
8
0
6
CONTINUOUS
10
0.011753
20
0.294333
30
0.0
11
0.011756
21
0.295175
31
0.0
0
LINE
8
0
6
CONTINUOUS
10
0.011574
20
0.295240
30
0.0
11
0.011753
21
0.294333
31
0.0
0
LINE
8
0
6
CONTINUOUS
10
0.009014
20
0.294146
30
0.0
11
0.010473
21
0.293786
31
0.0
0
LINE
8
0
6
CONTINUOUS
10
0.008835
20
0.295053
30
0.0
11
0.009014
21
0.294146
31
0.0
0
LINE
8
0
6
CONTINUOUS
10
0.010115
20
0.295600
30
0.0
11
0.008835
21
0.295053
31
0.0
0
LINE
8
0
6
CONTINUOUS
10
0.011574
20
0.295240
30
0.0
11
0.010115
21
0.295600
31
0.0
0
LINE
8
0
6
CONTINUOUS
10
0.011753
20
0.294333
30
0.0
11
0.011574
21
0.295240
31
0.0
0
LINE
8
0
6
CONTINUOUS
10
0.010473
20
0.293786
30
0.0
11
0.011753
21
0.294333
31
0.0
0
LINE
8
0
6
CONTINUOUS
10
0.007694
20
0.284552
30
0.0
11
0.008907
21
0.284253
31
0.0
0
LINE
8
0
6
CONTINUOUS
10
0.006631
20
0.284097
30
0.0
11
0.007694
21
0.284552
31
0.0
0
LINE
8
0
6
CONTINUOUS
10
0.006632
20
0.284898
30
0.0
11
0.006631
21
0.284097
31
0.0
0
LINE
8
0
6
CONTINUOUS
10
0.009056
20
0.283499
30
0.0
11
0.009057
21
0.284359
31
0.0
0
LINE
8
0
6
CONTINUOUS
10
0.008907
20
0.284253
30
0.0
11
0.009056
21
0.283499
31
0.0
0
LINE
8
0
6
CONTINUOUS
10
0.006780
20
0.283343
30
0.0
11
0.007992
21
0.283044
31
0.0
0
LINE
8
0
6
CONTINUOUS
10
0.006631
20
0.284097
30
0.0
11
0.006780
21
0.283343
31
0.0
0
LINE
8
0
6
CONTINUOUS
10
0.007694
20
0.284552
30
0.0
11
0.006631
21
0.284097
31
0.0
0
LINE
8
0
6
CONTINUOUS
10
0.008907
20
0.284253
30
0.0
11
0.007694
21
0.284552
31
0.0
0
LINE
8
0
6
CONTINUOUS
10
0.009056
20
0.283499
30
0.0
11
0.008907
21
0.284253
31
0.0
0
LINE
8
0
6
CONTINUOUS
10
0.007992
20
0.283044
30
0.0
11
0.009056
21
0.283499
31
0.0
0
LINE
8
0
6
CONTINUOUS
10
0.008504
20
0.288265
30
0.0
11
0.009717
21
0.287966
31
0.0
0
LINE
8
0
6
CONTINUOUS
10
0.007441
20
0.287811
30
0.0
11
0.008504
21
0.288265
31
0.0
0
LINE
8
0
6
CONTINUOUS
10
0.007442
20
0.288621
30
0.0
11
0.007441
21
0.287811
31
0.0
0
LINE
8
0
6
CONTINUOUS
10
0.009865
20
0.287213
30
0.0
11
0.009867
21
0.288063
31
0.0
0
LINE
8
0
6
CONTINUOUS
10
0.009717
20
0.287966
30
0.0
11
0.009865
21
0.287213
31
0.0
0
LINE
8
0
6
CONTINUOUS
10
0.007589
20
0.287057
30
0.0
11
0.008802
21
0.286758
31
0.0
0
LINE
8
0
6
CONTINUOUS
10
0.007441
20
0.287811
30
0.0
11
0.007589
21
0.287057
31
0.0
0
LINE
8
0
6
CONTINUOUS
10
0.008504
20
0.288265
30
0.0
11
0.007441
21
0.287811
31
0.0
0
LINE
8
0
6
CONTINUOUS
10
0.009717
20
0.287966
30
0.0
11
0.008504
21
0.288265
31
0.0
0
LINE
8
0
6
CONTINUOUS
10
0.009865
20
0.287213
30
0.0
11
0.009717
21
0.287966
31
0.0
0
LINE
8
0
6
CONTINUOUS
10
0.008802
20
0.286758
30
0.0
11
0.009865
21
0.287213
31
0.0
0
LINE
8
0
6
CONTINUOUS
10
0.007871
20
0.292103
30
0.0
11
0.009284
21
0.291755
31
0.0
0
LINE
8
0
6
CONTINUOUS
10
0.006631
20
0.291573
30
0.0
11
0.007871
21
0.292103
31
0.0
0
LINE
8
0
6
CONTINUOUS
10
0.006633
20
0.292381
30
0.0
11
0.006631
21
0.291573
31
0.0
0
LINE
8
0
6
CONTINUOUS
10
0.009457
20
0.290876
30
0.0
11
0.009460
21
0.291735
31
0.0
0
LINE
8
0
6
CONTINUOUS
10
0.009284
20
0.291755
30
0.0
11
0.009457
21
0.290876
31
0.0
0
LINE
8
0
6
CONTINUOUS
10
0.006804
20
0.290695
30
0.0
11
0.008218
21
0.290346
31
0.0
0
LINE
8
0
6
CONTINUOUS
10
0.006631
20
0.291573
30
0.0
11
0.006804
21
0.290695
31
0.0
0
LINE
8
0
6
CONTINUOUS
10
0.007871
20
0.292103
30
0.0
11
0.006631
21
0.291573
31
0.0
0
LINE
8
0
6
CONTINUOUS
10
0.009284
20
0.291755
30
0.0
11
0.007871
21
0.292103
31
0.0
0
LINE
8
0
6
CONTINUOUS
10
0.009457
20
0.290876
30
0.0
11
0.009284
21
0.291755
31
0.0
0
LINE
8
0
6
CONTINUOUS
10
0.008218
20
0.290346
30
0.0
11
0.009457
21
0.290876
31
0.0
0
LINE
8
0
6
CONTINUOUS
10
-0.000742
20
0.285798
30
0.0
11
0.000470
21
0.285499
31
0.0
0
LINE
8
0
6
CONTINUOUS
10
-0.001806
20
0.285343
30
0.0
11
-0.000742
21
0.285798
31
0.0
0
LINE
8
0
6
CONTINUOUS
10
-0.001804
20
0.286166
30
0.0
11
-0.001806
21
0.285343
31
0.0
0
LINE
8
0
6
CONTINUOUS
10
0.000619
20
0.284745
30
0.0
11
0.000620
21
0.285583
31
0.0
0
LINE
8
0
6
CONTINUOUS
10
0.000470
20
0.285499
30
0.0
11
0.000619
21
0.284745
31
0.0
0
LINE
8
0
6
CONTINUOUS
10
-0.001657
20
0.284589
30
0.0
11
-0.000445
21
0.284290
31
0.0
0
LINE
8
0
6
CONTINUOUS
10
-0.001806
20
0.285343
30
0.0
11
-0.001657
21
0.284589
31
0.0
0
LINE
8
0
6
CONTINUOUS
10
-0.000742
20
0.285798
30
0.0
11
-0.001806
21
0.285343
31
0.0
0
LINE
8
0
6
CONTINUOUS
10
0.000470
20
0.285499
30
0.0
11
-0.000742
21
0.285798
31
0.0
0
LINE
8
0
6
CONTINUOUS
10
0.000619
20
0.284745
30
0.0
11
0.000470
21
0.285499
31
0.0
0
LINE
8
0
6
CONTINUOUS
10
-0.000445
20
0.284290
30
0.0
11
0.000619
21
0.284745
31
0.0
0
LINE
8
0
6
CONTINUOUS
10
0.000068
20
0.289526
30
0.0
11
0.001280
21
0.289228
31
0.0
0
LINE
8
0
6
CONTINUOUS
10
-0.000996
20
0.289072
30
0.0
11
0.000068
21
0.289526
31
0.0
0
LINE
8
0
6
CONTINUOUS
10
-0.000995
20
0.289898
30
0.0
11
-0.000996
21
0.289072
31
0.0
0
LINE
8
0
6
CONTINUOUS
10
0.001429
20
0.288474
30
0.0
11
0.001430
21
0.289309
31
0.0
0
LINE
8
0
6
CONTINUOUS
10
0.001280
20
0.289228
30
0.0
11
0.001429
21
0.288474
31
0.0
0
LINE
8
0
6
CONTINUOUS
10
-0.000847
20
0.288318
30
0.0
11
0.000365
21
0.288019
31
0.0
0
LINE
8
0
6
CONTINUOUS
10
-0.000996
20
0.289072
30
0.0
11
-0.000847
21
0.288318
31
0.0
0
LINE
8
0
6
CONTINUOUS
10
0.000068
20
0.289526
30
0.0
11
-0.000963
21
0.289086
31
0.0
0
LINE
8
0
6
CONTINUOUS
10
0.001280
20
0.289228
30
0.0
11
0.000068
21
0.289526
31
0.0
0
LINE
8
0
6
CONTINUOUS
10
0.001429
20
0.288474
30
0.0
11
0.001280
21
0.289228
31
0.0
0
LINE
8
0
6
CONTINUOUS
10
0.000365
20
0.288019
30
0.0
11
0.001429
21
0.288474
31
0.0
0
LINE
8
0
6
CONTINUOUS
10
-0.000065
20
0.293806
30
0.0
11
0.001348
21
0.293457
31
0.0
0
LINE
8
0
6
CONTINUOUS
10
-0.001305
20
0.293276
30
0.0
11
-0.000065
21
0.293806
31
0.0
0
LINE
8
0
6
CONTINUOUS
10
-0.001302
20
0.294120
30
0.0
11
-0.001305
21
0.293276
31
0.0
0
LINE
8
0
6
CONTINUOUS
10
0.001522
20
0.292579
30
0.0
11
0.001524
21
0.293394
31
0.0
0
LINE
8
0
6
CONTINUOUS
10
0.001348
20
0.293457
30
0.0
11
0.001522
21
0.292579
31
0.0
0
LINE
8
0
6
CONTINUOUS
10
-0.001131
20
0.292397
30
0.0
11
0.000282
21
0.292049
31
0.0
0
LINE
8
0
6
CONTINUOUS
10
-0.001305
20
0.293276
30
0.0
11
-0.001131
21
0.292397
31
0.0
0
LINE
8
0
6
CONTINUOUS
10
-0.000065
20
0.293806
30
0.0
11
-0.001305
21
0.293276
31
0.0
0
LINE
8
0
6
CONTINUOUS
10
0.001348
20
0.293457
30
0.0
11
-0.000065
21
0.293806
31
0.0
0
LINE
8
0
6
CONTINUOUS
10
0.001522
20
0.292579
30
0.0
11
0.001348
21
0.293457
31
0.0
0
LINE
8
0
6
CONTINUOUS
10
0.000282
20
0.292049
30
0.0
11
0.001522
21
0.292579
31
0.0
0
LINE
8
0
6
CONTINUOUS
10
0.002347
20
0.297299
30
0.0
11
0.003806
21
0.296939
31
0.0
0
LINE
8
0
6
CONTINUOUS
10
0.001066
20
0.296752
30
0.0
11
0.002347
21
0.297299
31
0.0
0
LINE
8
0
6
CONTINUOUS
10
0.001069
20
0.297595
30
0.0
11
0.001066
21
0.296752
31
0.0
0
LINE
8
0
6
CONTINUOUS
10
0.003985
20
0.296032
30
0.0
11
0.003987
21
0.296856
31
0.0
0
LINE
8
0
6
CONTINUOUS
10
0.003806
20
0.296939
30
0.0
11
0.003985
21
0.296032
31
0.0
0
LINE
8
0
6
CONTINUOUS
10
0.001245
20
0.295845
30
0.0
11
0.002705
21
0.295485
31
0.0
0
LINE
8
0
6
CONTINUOUS
10
0.001066
20
0.296752
30
0.0
11
0.001245
21
0.295845
31
0.0
0
LINE
8
0
6
CONTINUOUS
10
0.002347
20
0.297299
30
0.0
11
0.001066
21
0.296752
31
0.0
0
LINE
8
0
6
CONTINUOUS
10
0.003806
20
0.296939
30
0.0
11
0.002347
21
0.297299
31
0.0
0
LINE
8
0
6
CONTINUOUS
10
0.003985
20
0.296032
30
0.0
11
0.003806
21
0.296939
31
0.0
0
LINE
8
0
6
CONTINUOUS
10
0.002705
20
0.295485
30
0.0
11
0.003985
21
0.296032
31
0.0
0
LINE
8
0
6
CONTINUOUS
10
-0.002699
20
0.301125
30
0.0
11
-0.001240
21
0.300766
31
0.0
0
LINE
8
0
6
CONTINUOUS
10
-0.003979
20
0.300578
30
0.0
11
-0.002699
21
0.301125
31
0.0
0
LINE
8
0
6
CONTINUOUS
10
-0.003976
20
0.301450
30
0.0
11
-0.003979
21
0.300578
31
0.0
0
LINE
8
0
6
CONTINUOUS
10
-0.001061
20
0.299858
30
0.0
11
-0.001058
21
0.300659
31
0.0
0
LINE
8
0
6
CONTINUOUS
10
-0.001240
20
0.300766
30
0.0
11
-0.001061
21
0.299858
31
0.0
0
LINE
8
0
6
CONTINUOUS
10
-0.003800
20
0.299671
30
0.0
11
-0.002341
21
0.299311
31
0.0
0
LINE
8
0
6
CONTINUOUS
10
-0.003979
20
0.300578
30
0.0
11
-0.003800
21
0.299671
31
0.0
0
LINE
8
0
6
CONTINUOUS
10
-0.002699
20
0.301125
30
0.0
11
-0.003979
21
0.300578
31
0.0
0
LINE
8
0
6
CONTINUOUS
10
-0.001240
20
0.300766
30
0.0
11
-0.002699
21
0.301125
31
0.0
0
LINE
8
0
6
CONTINUOUS
10
-0.001061
20
0.299858
30
0.0
11
-0.001240
21
0.300766
31
0.0
0
LINE
8
0
6
CONTINUOUS
10
-0.002341
20
0.299311
30
0.0
11
-0.001061
21
0.299858
31
0.0
0
LINE
8
0
6
CONTINUOUS
10
-0.006382
20
0.297161
30
0.0
11
-0.004968
21
0.296812
31
0.0
0
LINE
8
0
6
CONTINUOUS
10
-0.007622
20
0.296631
30
0.0
11
-0.006382
21
0.297161
31
0.0
0
LINE
8
0
6
CONTINUOUS
10
-0.007619
20
0.297516
30
0.0
11
-0.007622
21
0.296631
31
0.0
0
LINE
8
0
6
CONTINUOUS
10
-0.004795
20
0.295934
30
0.0
11
-0.004793
21
0.296717
31
0.0
0
LINE
8
0
6
CONTINUOUS
10
-0.004968
20
0.296812
30
0.0
11
-0.004795
21
0.295934
31
0.0
0
LINE
8
0
6
CONTINUOUS
10
-0.007448
20
0.295752
30
0.0
11
-0.006035
21
0.295404
31
0.0
0
LINE
8
0
6
CONTINUOUS
10
-0.007622
20
0.296631
30
0.0
11
-0.007448
21
0.295752
31
0.0
0
LINE
8
0
6
CONTINUOUS
10
-0.006382
20
0.297161
30
0.0
11
-0.007622
21
0.296631
31
0.0
0
LINE
8
0
6
CONTINUOUS
10
-0.004968
20
0.296812
30
0.0
11
-0.006382
21
0.297161
31
0.0
0
LINE
8
0
6
CONTINUOUS
10
-0.004795
20
0.295934
30
0.0
11
-0.004968
21
0.296812
31
0.0
0
LINE
8
0
6
CONTINUOUS
10
-0.006035
20
0.295404
30
0.0
11
-0.004795
21
0.295934
31
0.0
0
LINE
8
0
6
CONTINUOUS
10
-0.010283
20
0.301410
30
0.0
11
-0.008870
21
0.301061
31
0.0
0
LINE
8
0
6
CONTINUOUS
10
-0.011523
20
0.300880
30
0.0
11
-0.010283
21
0.301410
31
0.0
0
LINE
8
0
6
CONTINUOUS
10
-0.011520
20
0.301782
30
0.0
11
-0.011523
21
0.300880
31
0.0
0
LINE
8
0
6
CONTINUOUS
10
-0.008696
20
0.300183
30
0.0
11
-0.008694
21
0.300941
31
0.0
0
LINE
8
0
6
CONTINUOUS
10
-0.008870
20
0.301061
30
0.0
11
-0.008696
21
0.300183
31
0.0
0
LINE
8
0
6
CONTINUOUS
10
-0.011349
20
0.300001
30
0.0
11
-0.009936
21
0.299653
31
0.0
0
LINE
8
0
6
CONTINUOUS
10
-0.011523
20
0.300880
30
0.0
11
-0.011349
21
0.300001
31
0.0
0
LINE
8
0
6
CONTINUOUS
10
-0.010283
20
0.301410
30
0.0
11
-0.011523
21
0.300880
31
0.0
0
LINE
8
0
6
CONTINUOUS
10
-0.008870
20
0.301061
30
0.0
11
-0.010283
21
0.301410
31
0.0
0
LINE
8
0
6
CONTINUOUS
10
-0.008696
20
0.300183
30
0.0
11
-0.008870
21
0.301061
31
0.0
0
LINE
8
0
6
CONTINUOUS
10
-0.009936
20
0.299653
30
0.0
11
-0.008696
21
0.300183
31
0.0
0
LINE
8
0
6
CONTINUOUS
10
-0.007065
20
0.292048
30
0.0
11
-0.005853
21
0.291749
31
0.0
0
LINE
8
0
6
CONTINUOUS
10
-0.008129
20
0.291593
30
0.0
11
-0.007065
21
0.292048
31
0.0
0
LINE
8
0
6
CONTINUOUS
10
-0.008127
20
0.292448
30
0.0
11
-0.008129
21
0.291593
31
0.0
0
LINE
8
0
6
CONTINUOUS
10
-0.005704
20
0.290995
30
0.0
11
-0.005703
21
0.291810
31
0.0
0
LINE
8
0
6
CONTINUOUS
10
-0.005853
20
0.291749
30
0.0
11
-0.005704
21
0.290995
31
0.0
0
LINE
8
0
6
CONTINUOUS
10
-0.007980
20
0.290840
30
0.0
11
-0.006768
21
0.290541
31
0.0
0
LINE
8
0
6
CONTINUOUS
10
-0.008129
20
0.291593
30
0.0
11
-0.007980
21
0.290840
31
0.0
0
LINE
8
0
6
CONTINUOUS
10
-0.007065
20
0.292048
30
0.0
11
-0.008129
21
0.291593
31
0.0
0
LINE
8
0
6
CONTINUOUS
10
-0.005853
20
0.291749
30
0.0
11
-0.007065
21
0.292048
31
0.0
0
LINE
8
0
6
CONTINUOUS
10
-0.005704
20
0.290995
30
0.0
11
-0.005853
21
0.291749
31
0.0
0
LINE
8
0
6
CONTINUOUS
10
-0.006768
20
0.290541
30
0.0
11
-0.005704
21
0.290995
31
0.0
0
LINE
8
0
6
CONTINUOUS
10
-0.012809
20
0.295632
30
0.0
11
-0.011596
21
0.295333
31
0.0
0
LINE
8
0
6
CONTINUOUS
10
-0.013872
20
0.295177
30
0.0
11
-0.012809
21
0.295632
31
0.0
0
LINE
8
0
6
CONTINUOUS
10
-0.013871
20
0.296046
30
0.0
11
-0.013872
21
0.295177
31
0.0
0
LINE
8
0
6
CONTINUOUS
10
-0.011447
20
0.294579
30
0.0
11
-0.011446
21
0.295372
31
0.0
0
LINE
8
0
6
CONTINUOUS
10
-0.011596
20
0.295333
30
0.0
11
-0.011447
21
0.294579
31
0.0
0
LINE
8
0
6
CONTINUOUS
10
-0.013723
20
0.294424
30
0.0
11
-0.012511
21
0.294125
31
0.0
0
LINE
8
0
6
CONTINUOUS
10
-0.013872
20
0.295177
30
0.0
11
-0.013723
21
0.294424
31
0.0
0
LINE
8
0
6
CONTINUOUS
10
-0.012809
20
0.295632
30
0.0
11
-0.013872
21
0.295177
31
0.0
0
LINE
8
0
6
CONTINUOUS
10
-0.011596
20
0.295333
30
0.0
11
-0.012809
21
0.295632
31
0.0
0
LINE
8
0
6
CONTINUOUS
10
-0.011447
20
0.294579
30
0.0
11
-0.011596
21
0.295333
31
0.0
0
LINE
8
0
6
CONTINUOUS
10
-0.012511
20
0.294125
30
0.0
11
-0.011447
21
0.294579
31
0.0
0
LINE
8
0
6
CONTINUOUS
10
-0.016759
20
0.300107
30
0.0
11
-0.015547
21
0.299808
31
0.0
0
LINE
8
0
6
CONTINUOUS
10
-0.017823
20
0.299653
30
0.0
11
-0.016759
21
0.300107
31
0.0
0
LINE
8
0
6
CONTINUOUS
10
-0.017821
20
0.300533
30
0.0
11
-0.017823
21
0.299653
31
0.0
0
LINE
8
0
6
CONTINUOUS
10
-0.015398
20
0.299055
30
0.0
11
-0.015397
21
0.299836
31
0.0
0
LINE
8
0
6
CONTINUOUS
10
-0.015547
20
0.299808
30
0.0
11
-0.015398
21
0.299055
31
0.0
0
LINE
8
0
6
CONTINUOUS
10
-0.017674
20
0.298899
30
0.0
11
-0.016462
21
0.298600
31
0.0
0
LINE
8
0
6
CONTINUOUS
10
-0.017823
20
0.299653
30
0.0
11
-0.017674
21
0.298899
31
0.0
0
LINE
8
0
6
CONTINUOUS
10
-0.016759
20
0.300107
30
0.0
11
-0.017823
21
0.299653
31
0.0
0
LINE
8
0
6
CONTINUOUS
10
-0.015547
20
0.299808
30
0.0
11
-0.016759
21
0.300107
31
0.0
0
LINE
8
0
6
CONTINUOUS
10
-0.015398
20
0.299055
30
0.0
11
-0.015547
21
0.299808
31
0.0
0
LINE
8
0
6
CONTINUOUS
10
-0.016462
20
0.298600
30
0.0
11
-0.015398
21
0.299055
31
0.0
0
LINE
8
0
6
CONTINUOUS
10
-0.024513
20
0.298526
30
0.0
11
-0.024440
21
0.299285
31
0.0
0
LINE
8
0
6
CONTINUOUS
10
-0.024512
20
0.299442
30
0.0
11
-0.024513
21
0.298526
31
0.0
0
LINE
8
0
6
CONTINUOUS
10
-0.022153
20
0.299220
30
0.0
11
-0.022152
21
0.299975
31
0.0
0
LINE
8
0
6
CONTINUOUS
10
-0.023260
20
0.299631
30
0.0
11
-0.022153
21
0.299220
31
0.0
0
LINE
8
0
6
CONTINUOUS
10
-0.024440
20
0.299285
30
0.0
11
-0.023260
21
0.299631
31
0.0
0
LINE
8
0
6
CONTINUOUS
10
-0.024513
20
0.298526
30
0.0
11
-0.023405
21
0.298115
31
0.0
0
LINE
8
0
6
CONTINUOUS
10
-0.024440
20
0.299285
30
0.0
11
-0.024513
21
0.298526
31
0.0
0
LINE
8
0
6
CONTINUOUS
10
-0.023260
20
0.299631
30
0.0
11
-0.024440
21
0.299285
31
0.0
0
LINE
8
0
6
CONTINUOUS
10
-0.022153
20
0.299220
30
0.0
11
-0.023260
21
0.299631
31
0.0
0
LINE
8
0
6
CONTINUOUS
10
-0.022225
20
0.298462
30
0.0
11
-0.022153
21
0.299220
31
0.0
0
LINE
8
0
6
CONTINUOUS
10
-0.023405
20
0.298115
30
0.0
11
-0.022225
21
0.298462
31
0.0
0
LINE
8
0
6
CONTINUOUS
10
-0.021102
20
0.293998
30
0.0
11
-0.021029
21
0.294756
31
0.0
0
LINE
8
0
6
CONTINUOUS
10
-0.021101
20
0.294934
30
0.0
11
-0.021102
21
0.293998
31
0.0
0
LINE
8
0
6
CONTINUOUS
10
-0.018742
20
0.294691
30
0.0
11
-0.018741
21
0.295446
31
0.0
0
LINE
8
0
6
CONTINUOUS
10
-0.019849
20
0.295103
30
0.0
11
-0.018742
21
0.294691
31
0.0
0
LINE
8
0
6
CONTINUOUS
10
-0.021029
20
0.294756
30
0.0
11
-0.019849
21
0.295103
31
0.0
0
LINE
8
0
6
CONTINUOUS
10
-0.021102
20
0.293998
30
0.0
11
-0.019994
21
0.293586
31
0.0
0
LINE
8
0
6
CONTINUOUS
10
-0.021029
20
0.294756
30
0.0
11
-0.021102
21
0.293998
31
0.0
0
LINE
8
0
6
CONTINUOUS
10
-0.019849
20
0.295103
30
0.0
11
-0.021029
21
0.294756
31
0.0
0
LINE
8
0
6
CONTINUOUS
10
-0.018742
20
0.294691
30
0.0
11
-0.019849
21
0.295103
31
0.0
0
LINE
8
0
6
CONTINUOUS
10
-0.018814
20
0.293933
30
0.0
11
-0.018742
21
0.294691
31
0.0
0
LINE
8
0
6
CONTINUOUS
10
-0.019994
20
0.293586
30
0.0
11
-0.018814
21
0.293933
31
0.0
0
LINE
8
0
6
CONTINUOUS
10
-0.015947
20
0.290015
30
0.0
11
-0.015875
21
0.290773
31
0.0
0
LINE
8
0
6
CONTINUOUS
10
-0.015947
20
0.290940
30
0.0
11
-0.015947
21
0.290015
31
0.0
0
LINE
8
0
6
CONTINUOUS
10
-0.013587
20
0.290709
30
0.0
11
-0.013587
21
0.291459
31
0.0
0
LINE
8
0
6
CONTINUOUS
10
-0.014695
20
0.291120
30
0.0
11
-0.013587
21
0.290709
31
0.0
0
LINE
8
0
6
CONTINUOUS
10
-0.015875
20
0.290773
30
0.0
11
-0.014695
21
0.291120
31
0.0
0
LINE
8
0
6
CONTINUOUS
10
-0.015947
20
0.290015
30
0.0
11
-0.014840
21
0.289604
31
0.0
0
LINE
8
0
6
CONTINUOUS
10
-0.015875
20
0.290773
30
0.0
11
-0.015947
21
0.290015
31
0.0
0
LINE
8
0
6
CONTINUOUS
10
-0.014695
20
0.291120
30
0.0
11
-0.015875
21
0.290773
31
0.0
0
LINE
8
0
6
CONTINUOUS
10
-0.013587
20
0.290709
30
0.0
11
-0.014695
21
0.291120
31
0.0
0
LINE
8
0
6
CONTINUOUS
10
-0.013660
20
0.289951
30
0.0
11
-0.013587
21
0.290709
31
0.0
0
LINE
8
0
6
CONTINUOUS
10
-0.014840
20
0.289604
30
0.0
11
-0.013660
21
0.289951
31
0.0
0
LINE
8
0
6
CONTINUOUS
10
-0.009492
20
0.286831
30
0.0
11
-0.009419
21
0.287590
31
0.0
0
LINE
8
0
6
CONTINUOUS
10
-0.009492
20
0.287744
30
0.0
11
-0.009492
21
0.286831
31
0.0
0
LINE
8
0
6
CONTINUOUS
10
-0.007132
20
0.287525
30
0.0
11
-0.007132
21
0.288279
31
0.0
0
LINE
8
0
6
CONTINUOUS
10
-0.008240
20
0.287936
30
0.0
11
-0.007132
21
0.287525
31
0.0
0
LINE
8
0
6
CONTINUOUS
10
-0.009419
20
0.287590
30
0.0
11
-0.008240
21
0.287936
31
0.0
0
LINE
8
0
6
CONTINUOUS
10
-0.009492
20
0.286831
30
0.0
11
-0.008385
21
0.286420
31
0.0
0
LINE
8
0
6
CONTINUOUS
10
-0.009419
20
0.287590
30
0.0
11
-0.009492
21
0.286831
31
0.0
0
LINE
8
0
6
CONTINUOUS
10
-0.008240
20
0.287936
30
0.0
11
-0.009419
21
0.287590
31
0.0
0
LINE
8
0
6
CONTINUOUS
10
-0.007132
20
0.287525
30
0.0
11
-0.008240
21
0.287936
31
0.0
0
LINE
8
0
6
CONTINUOUS
10
-0.007205
20
0.286767
30
0.0
11
-0.007132
21
0.287525
31
0.0
0
LINE
8
0
6
CONTINUOUS
10
-0.008385
20
0.286420
30
0.0
11
-0.007205
21
0.286767
31
0.0
0
LINE
8
0
6
CONTINUOUS
10
0.004843
20
0.313049
30
0.0
11
0.006411
21
0.313211
31
0.0
0
LINE
8
0
6
CONTINUOUS
10
0.007432
20
0.312514
30
0.0
11
0.007419
21
0.313340
31
0.0
0
LINE
8
0
6
CONTINUOUS
10
0.006411
20
0.313211
30
0.0
11
0.007432
21
0.312514
31
0.0
0
LINE
8
0
6
CONTINUOUS
10
0.004296
20
0.312189
30
0.0
11
0.004843
21
0.313049
31
0.0
0
LINE
8
0
6
CONTINUOUS
10
0.004283
20
0.313034
30
0.0
11
0.004296
21
0.312189
31
0.0
0
LINE
8
0
6
CONTINUOUS
10
0.006411
20
0.313211
30
0.0
11
0.004843
21
0.313049
31
0.0
0
LINE
8
0
6
CONTINUOUS
10
0.007432
20
0.312514
30
0.0
11
0.006411
21
0.313211
31
0.0
0
LINE
8
0
6
CONTINUOUS
10
0.006885
20
0.311654
30
0.0
11
0.007432
21
0.312514
31
0.0
0
LINE
8
0
6
CONTINUOUS
10
0.005317
20
0.311492
30
0.0
11
0.006885
21
0.311654
31
0.0
0
LINE
8
0
6
CONTINUOUS
10
0.004296
20
0.312189
30
0.0
11
0.005317
21
0.311492
31
0.0
0
LINE
8
0
6
CONTINUOUS
10
0.004843
20
0.313049
30
0.0
11
0.004296
21
0.312189
31
0.0
0
LINE
8
0
6
CONTINUOUS
10
-0.005444
20
0.324579
30
0.0
11
-0.004141
21
0.324714
31
0.0
0
LINE
8
0
6
CONTINUOUS
10
-0.003293
20
0.324135
30
0.0
11
-0.003304
21
0.324943
31
0.0
0
LINE
8
0
6
CONTINUOUS
10
-0.004141
20
0.324714
30
0.0
11
-0.003293
21
0.324135
31
0.0
0
LINE
8
0
6
CONTINUOUS
10
-0.005898
20
0.323865
30
0.0
11
-0.005444
21
0.324579
31
0.0
0
LINE
8
0
6
CONTINUOUS
10
-0.005910
20
0.324733
30
0.0
11
-0.005898
21
0.323865
31
0.0
0
LINE
8
0
6
CONTINUOUS
10
-0.004141
20
0.324714
30
0.0
11
-0.005444
21
0.324579
31
0.0
0
LINE
8
0
6
CONTINUOUS
10
-0.003293
20
0.324135
30
0.0
11
-0.004141
21
0.324714
31
0.0
0
LINE
8
0
6
CONTINUOUS
10
-0.003747
20
0.323420
30
0.0
11
-0.003293
21
0.324135
31
0.0
0
LINE
8
0
6
CONTINUOUS
10
-0.005050
20
0.323286
30
0.0
11
-0.003747
21
0.323420
31
0.0
0
LINE
8
0
6
CONTINUOUS
10
-0.005898
20
0.323865
30
0.0
11
-0.005050
21
0.323286
31
0.0
0
LINE
8
0
6
CONTINUOUS
10
-0.005444
20
0.324579
30
0.0
11
-0.005898
21
0.323865
31
0.0
0
LINE
8
0
6
CONTINUOUS
10
-0.001744
20
0.320795
30
0.0
11
-0.000442
21
0.320930
31
0.0
0
LINE
8
0
6
CONTINUOUS
10
0.000407
20
0.320350
30
0.0
11
0.000395
21
0.321172
31
0.0
0
LINE
8
0
6
CONTINUOUS
10
-0.000442
20
0.320930
30
0.0
11
0.000407
21
0.320350
31
0.0
0
LINE
8
0
6
CONTINUOUS
10
-0.002199
20
0.320080
30
0.0
11
-0.001744
21
0.320795
31
0.0
0
LINE
8
0
6
CONTINUOUS
10
-0.002211
20
0.320939
30
0.0
11
-0.002199
21
0.320080
31
0.0
0
LINE
8
0
6
CONTINUOUS
10
-0.000442
20
0.320930
30
0.0
11
-0.001744
21
0.320795
31
0.0
0
LINE
8
0
6
CONTINUOUS
10
0.000407
20
0.320350
30
0.0
11
-0.000442
21
0.320930
31
0.0
0
LINE
8
0
6
CONTINUOUS
10
-0.000048
20
0.319636
30
0.0
11
0.000407
21
0.320350
31
0.0
0
LINE
8
0
6
CONTINUOUS
10
-0.001351
20
0.319501
30
0.0
11
-0.000048
21
0.319636
31
0.0
0
LINE
8
0
6
CONTINUOUS
10
-0.002199
20
0.320080
30
0.0
11
-0.001351
21
0.319501
31
0.0
0
LINE
8
0
6
CONTINUOUS
10
-0.001744
20
0.320795
30
0.0
11
-0.002199
21
0.320080
31
0.0
0
LINE
8
0
6
CONTINUOUS
10
0.002881
20
0.317190
30
0.0
11
0.004400
21
0.317347
31
0.0
0
LINE
8
0
6
CONTINUOUS
10
0.005388
20
0.316672
30
0.0
11
0.005376
21
0.317488
31
0.0
0
LINE
8
0
6
CONTINUOUS
10
0.004400
20
0.317347
30
0.0
11
0.005388
21
0.316672
31
0.0
0
LINE
8
0
6
CONTINUOUS
10
0.002351
20
0.316357
30
0.0
11
0.002881
21
0.317190
31
0.0
0
LINE
8
0
6
CONTINUOUS
10
0.002338
20
0.317206
30
0.0
11
0.002351
21
0.316357
31
0.0
0
LINE
8
0
6
CONTINUOUS
10
0.004400
20
0.317347
30
0.0
11
0.002881
21
0.317190
31
0.0
0
LINE
8
0
6
CONTINUOUS
10
0.005388
20
0.316672
30
0.0
11
0.004400
21
0.317347
31
0.0
0
LINE
8
0
6
CONTINUOUS
10
0.004858
20
0.315839
30
0.0
11
0.005388
21
0.316672
31
0.0
0
LINE
8
0
6
CONTINUOUS
10
0.003340
20
0.315682
30
0.0
11
0.004858
21
0.315839
31
0.0
0
LINE
8
0
6
CONTINUOUS
10
0.002351
20
0.316357
30
0.0
11
0.003340
21
0.315682
31
0.0
0
LINE
8
0
6
CONTINUOUS
10
0.002881
20
0.317190
30
0.0
11
0.002351
21
0.316357
31
0.0
0
LINE
8
0
6
CONTINUOUS
10
0.002838
20
0.326182
30
0.0
11
0.004141
21
0.326317
31
0.0
0
LINE
8
0
6
CONTINUOUS
10
0.004989
20
0.325738
30
0.0
11
0.004978
21
0.326573
31
0.0
0
LINE
8
0
6
CONTINUOUS
10
0.004141
20
0.326317
30
0.0
11
0.004989
21
0.325738
31
0.0
0
LINE
8
0
6
CONTINUOUS
10
0.002384
20
0.325468
30
0.0
11
0.002838
21
0.326182
31
0.0
0
LINE
8
0
6
CONTINUOUS
10
0.002372
20
0.326310
30
0.0
11
0.002384
21
0.325468
31
0.0
0
LINE
8
0
6
CONTINUOUS
10
0.004141
20
0.326317
30
0.0
11
0.002838
21
0.326182
31
0.0
0
LINE
8
0
6
CONTINUOUS
10
0.004989
20
0.325738
30
0.0
11
0.004141
21
0.326317
31
0.0
0
LINE
8
0
6
CONTINUOUS
10
0.004535
20
0.325023
30
0.0
11
0.004989
21
0.325738
31
0.0
0
LINE
8
0
6
CONTINUOUS
10
0.003232
20
0.324888
30
0.0
11
0.004535
21
0.325023
31
0.0
0
LINE
8
0
6
CONTINUOUS
10
0.002384
20
0.325468
30
0.0
11
0.003232
21
0.324888
31
0.0
0
LINE
8
0
6
CONTINUOUS
10
0.002838
20
0.326182
30
0.0
11
0.002384
21
0.325468
31
0.0
0
LINE
8
0
6
CONTINUOUS
10
0.006103
20
0.322157
30
0.0
11
0.007405
21
0.322292
31
0.0
0
LINE
8
0
6
CONTINUOUS
10
0.008254
20
0.321713
30
0.0
11
0.008242
21
0.322550
31
0.0
0
LINE
8
0
6
CONTINUOUS
10
0.007405
20
0.322292
30
0.0
11
0.008254
21
0.321713
31
0.0
0
LINE
8
0
6
CONTINUOUS
10
0.005648
20
0.321443
30
0.0
11
0.006103
21
0.322157
31
0.0
0
LINE
8
0
6
CONTINUOUS
10
0.005637
20
0.322272
30
0.0
11
0.005648
21
0.321443
31
0.0
0
LINE
8
0
6
CONTINUOUS
10
0.007405
20
0.322292
30
0.0
11
0.006103
21
0.322157
31
0.0
0
LINE
8
0
6
CONTINUOUS
10
0.008254
20
0.321713
30
0.0
11
0.007405
21
0.322292
31
0.0
0
LINE
8
0
6
CONTINUOUS
10
0.007799
20
0.320998
30
0.0
11
0.008254
21
0.321713
31
0.0
0
LINE
8
0
6
CONTINUOUS
10
0.006496
20
0.320864
30
0.0
11
0.007799
21
0.320998
31
0.0
0
LINE
8
0
6
CONTINUOUS
10
0.005648
20
0.321443
30
0.0
11
0.006496
21
0.320864
31
0.0
0
LINE
8
0
6
CONTINUOUS
10
0.006103
20
0.322157
30
0.0
11
0.005648
21
0.321443
31
0.0
0
LINE
8
0
6
CONTINUOUS
10
0.011159
20
0.318084
30
0.0
11
0.012678
21
0.318241
31
0.0
0
LINE
8
0
6
CONTINUOUS
10
0.013667
20
0.317566
30
0.0
11
0.013654
21
0.318426
31
0.0
0
LINE
8
0
6
CONTINUOUS
10
0.012678
20
0.318241
30
0.0
11
0.013667
21
0.317566
31
0.0
0
LINE
8
0
6
CONTINUOUS
10
0.010629
20
0.317251
30
0.0
11
0.011159
21
0.318084
31
0.0
0
LINE
8
0
6
CONTINUOUS
10
0.010617
20
0.318078
30
0.0
11
0.010629
21
0.317251
31
0.0
0
LINE
8
0
6
CONTINUOUS
10
0.012678
20
0.318241
30
0.0
11
0.011159
21
0.318084
31
0.0
0
LINE
8
0
6
CONTINUOUS
10
0.013667
20
0.317566
30
0.0
11
0.012678
21
0.318241
31
0.0
0
LINE
8
0
6
CONTINUOUS
10
0.013137
20
0.316733
30
0.0
11
0.013667
21
0.317566
31
0.0
0
LINE
8
0
6
CONTINUOUS
10
0.011618
20
0.316576
30
0.0
11
0.013137
21
0.316733
31
0.0
0
LINE
8
0
6
CONTINUOUS
10
0.010629
20
0.317251
30
0.0
11
0.011618
21
0.316576
31
0.0
0
LINE
8
0
6
CONTINUOUS
10
0.011159
20
0.318084
30
0.0
11
0.010629
21
0.317251
31
0.0
0
LINE
8
0
6
CONTINUOUS
10
0.013127
20
0.313560
30
0.0
11
0.014695
21
0.313722
31
0.0
0
LINE
8
0
6
CONTINUOUS
10
0.015716
20
0.313025
30
0.0
11
0.015703
21
0.313870
31
0.0
0
LINE
8
0
6
CONTINUOUS
10
0.014695
20
0.313722
30
0.0
11
0.015716
21
0.313025
31
0.0
0
LINE
8
0
6
CONTINUOUS
10
0.012580
20
0.312700
30
0.0
11
0.013127
21
0.313560
31
0.0
0
LINE
8
0
6
CONTINUOUS
10
0.012568
20
0.313521
30
0.0
11
0.012580
21
0.312700
31
0.0
0
LINE
8
0
6
CONTINUOUS
10
0.014695
20
0.313722
30
0.0
11
0.013127
21
0.313560
31
0.0
0
LINE
8
0
6
CONTINUOUS
10
0.015716
20
0.313025
30
0.0
11
0.014695
21
0.313722
31
0.0
0
LINE
8
0
6
CONTINUOUS
10
0.015169
20
0.312165
30
0.0
11
0.015716
21
0.313025
31
0.0
0
LINE
8
0
6
CONTINUOUS
10
0.013601
20
0.312003
30
0.0
11
0.015169
21
0.312165
31
0.0
0
LINE
8
0
6
CONTINUOUS
10
0.012580
20
0.312700
30
0.0
11
0.013601
21
0.312003
31
0.0
0
LINE
8
0
6
CONTINUOUS
10
0.013127
20
0.313560
30
0.0
11
0.012580
21
0.312700
31
0.0
0
LINE
8
0
6
CONTINUOUS
10
0.020935
20
0.311893
30
0.0
11
0.022502
21
0.312055
31
0.0
0
LINE
8
0
6
CONTINUOUS
10
0.023523
20
0.311358
30
0.0
11
0.023510
21
0.312244
31
0.0
0
LINE
8
0
6
CONTINUOUS
10
0.022502
20
0.312055
30
0.0
11
0.023523
21
0.311358
31
0.0
0
LINE
8
0
6
CONTINUOUS
10
0.020387
20
0.311033
30
0.0
11
0.020935
21
0.311893
31
0.0
0
LINE
8
0
6
CONTINUOUS
10
0.020375
20
0.311837
30
0.0
11
0.020387
21
0.311033
31
0.0
0
LINE
8
0
6
CONTINUOUS
10
0.022502
20
0.312055
30
0.0
11
0.020935
21
0.311893
31
0.0
0
LINE
8
0
6
CONTINUOUS
10
0.023523
20
0.311358
30
0.0
11
0.022502
21
0.312055
31
0.0
0
LINE
8
0
6
CONTINUOUS
10
0.022976
20
0.310498
30
0.0
11
0.023523
21
0.311358
31
0.0
0
LINE
8
0
6
CONTINUOUS
10
0.021408
20
0.310336
30
0.0
11
0.022976
21
0.310498
31
0.0
0
LINE
8
0
6
CONTINUOUS
10
0.020387
20
0.311033
30
0.0
11
0.021408
21
0.310336
31
0.0
0
LINE
8
0
6
CONTINUOUS
10
0.020935
20
0.311893
30
0.0
11
0.020387
21
0.311033
31
0.0
0
LINE
8
0
6
CONTINUOUS
10
0.019442
20
0.317296
30
0.0
11
0.020960
21
0.317453
31
0.0
0
LINE
8
0
6
CONTINUOUS
10
0.021949
20
0.316778
30
0.0
11
0.021936
21
0.317659
31
0.0
0
LINE
8
0
6
CONTINUOUS
10
0.020960
20
0.317453
30
0.0
11
0.021949
21
0.316778
31
0.0
0
LINE
8
0
6
CONTINUOUS
10
0.018912
20
0.316463
30
0.0
11
0.019442
21
0.317296
31
0.0
0
LINE
8
0
6
CONTINUOUS
10
0.018900
20
0.317248
30
0.0
11
0.018912
21
0.316463
31
0.0
0
LINE
8
0
6
CONTINUOUS
10
0.020960
20
0.317453
30
0.0
11
0.019442
21
0.317296
31
0.0
0
LINE
8
0
6
CONTINUOUS
10
0.021949
20
0.316778
30
0.0
11
0.020960
21
0.317453
31
0.0
0
LINE
8
0
6
CONTINUOUS
10
0.021419
20
0.315945
30
0.0
11
0.021949
21
0.316778
31
0.0
0
LINE
8
0
6
CONTINUOUS
10
0.019901
20
0.315788
30
0.0
11
0.021419
21
0.315945
31
0.0
0
LINE
8
0
6
CONTINUOUS
10
0.018912
20
0.316463
30
0.0
11
0.019901
21
0.315788
31
0.0
0
LINE
8
0
6
CONTINUOUS
10
0.019442
20
0.317296
30
0.0
11
0.018912
21
0.316463
31
0.0
0
LINE
8
0
6
CONTINUOUS
10
0.026778
20
0.314732
30
0.0
11
0.028296
21
0.314889
31
0.0
0
LINE
8
0
6
CONTINUOUS
10
0.029285
20
0.314214
30
0.0
11
0.029271
21
0.315128
31
0.0
0
LINE
8
0
6
CONTINUOUS
10
0.028296
20
0.314889
30
0.0
11
0.029285
21
0.314214
31
0.0
0
LINE
8
0
6
CONTINUOUS
10
0.026248
20
0.313899
30
0.0
11
0.026778
21
0.314732
31
0.0
0
LINE
8
0
6
CONTINUOUS
10
0.026236
20
0.314652
30
0.0
11
0.026248
21
0.313899
31
0.0
0
LINE
8
0
6
CONTINUOUS
10
0.028296
20
0.314889
30
0.0
11
0.026778
21
0.314732
31
0.0
0
LINE
8
0
6
CONTINUOUS
10
0.029285
20
0.314214
30
0.0
11
0.028296
21
0.314889
31
0.0
0
LINE
8
0
6
CONTINUOUS
10
0.028755
20
0.313381
30
0.0
11
0.029285
21
0.314214
31
0.0
0
LINE
8
0
6
CONTINUOUS
10
0.027236
20
0.313224
30
0.0
11
0.028755
21
0.313381
31
0.0
0
LINE
8
0
6
CONTINUOUS
10
0.026248
20
0.313899
30
0.0
11
0.027236
21
0.313224
31
0.0
0
LINE
8
0
6
CONTINUOUS
10
0.026778
20
0.314732
30
0.0
11
0.026248
21
0.313899
31
0.0
0
LINE
8
0
6
CONTINUOUS
10
0.015037
20
0.322316
30
0.0
11
0.016340
21
0.322451
31
0.0
0
LINE
8
0
6
CONTINUOUS
10
0.017188
20
0.321871
30
0.0
11
0.017177
21
0.322724
31
0.0
0
LINE
8
0
6
CONTINUOUS
10
0.016340
20
0.322451
30
0.0
11
0.017188
21
0.321871
31
0.0
0
LINE
8
0
6
CONTINUOUS
10
0.014583
20
0.321601
30
0.0
11
0.015037
21
0.322316
31
0.0
0
LINE
8
0
6
CONTINUOUS
10
0.014572
20
0.322416
30
0.0
11
0.014583
21
0.321601
31
0.0
0
LINE
8
0
6
CONTINUOUS
10
0.016340
20
0.322451
30
0.0
11
0.015037
21
0.322316
31
0.0
0
LINE
8
0
6
CONTINUOUS
10
0.017188
20
0.321871
30
0.0
11
0.016340
21
0.322451
31
0.0
0
LINE
8
0
6
CONTINUOUS
10
0.016734
20
0.321157
30
0.0
11
0.017188
21
0.321871
31
0.0
0
LINE
8
0
6
CONTINUOUS
10
0.015431
20
0.321022
30
0.0
11
0.016734
21
0.321157
31
0.0
0
LINE
8
0
6
CONTINUOUS
10
0.014583
20
0.321601
30
0.0
11
0.015431
21
0.321022
31
0.0
0
LINE
8
0
6
CONTINUOUS
10
0.015037
20
0.322316
30
0.0
11
0.014583
21
0.321601
31
0.0
0
LINE
8
0
6
CONTINUOUS
10
0.023378
20
0.321166
30
0.0
11
0.024680
21
0.321301
31
0.0
0
LINE
8
0
6
CONTINUOUS
10
0.025529
20
0.320721
30
0.0
11
0.025517
21
0.321588
31
0.0
0
LINE
8
0
6
CONTINUOUS
10
0.024680
20
0.321301
30
0.0
11
0.025529
21
0.320721
31
0.0
0
LINE
8
0
6
CONTINUOUS
10
0.022923
20
0.320452
30
0.0
11
0.023378
21
0.321166
31
0.0
0
LINE
8
0
6
CONTINUOUS
10
0.022912
20
0.321252
30
0.0
11
0.022923
21
0.320452
31
0.0
0
LINE
8
0
6
CONTINUOUS
10
0.024680
20
0.321301
30
0.0
11
0.023378
21
0.321166
31
0.0
0
LINE
8
0
6
CONTINUOUS
10
0.025529
20
0.320721
30
0.0
11
0.024680
21
0.321301
31
0.0
0
LINE
8
0
6
CONTINUOUS
10
0.025074
20
0.320007
30
0.0
11
0.025529
21
0.320721
31
0.0
0
LINE
8
0
6
CONTINUOUS
10
0.023771
20
0.319872
30
0.0
11
0.025074
21
0.320007
31
0.0
0
LINE
8
0
6
CONTINUOUS
10
0.022923
20
0.320452
30
0.0
11
0.023771
21
0.319872
31
0.0
0
LINE
8
0
6
CONTINUOUS
10
0.023378
20
0.321166
30
0.0
11
0.022923
21
0.320452
31
0.0
0
LINE
8
0
6
CONTINUOUS
10
0.030628
20
0.318533
30
0.0
11
0.031931
21
0.318668
31
0.0
0
LINE
8
0
6
CONTINUOUS
10
0.032779
20
0.318088
30
0.0
11
0.032767
21
0.318977
31
0.0
0
LINE
8
0
6
CONTINUOUS
10
0.031931
20
0.318668
30
0.0
11
0.032779
21
0.318088
31
0.0
0
LINE
8
0
6
CONTINUOUS
10
0.030174
20
0.317818
30
0.0
11
0.030628
21
0.318533
31
0.0
0
LINE
8
0
6
CONTINUOUS
10
0.030163
20
0.318599
30
0.0
11
0.030174
21
0.317818
31
0.0
0
LINE
8
0
6
CONTINUOUS
10
0.031931
20
0.318668
30
0.0
11
0.030628
21
0.318533
31
0.0
0
LINE
8
0
6
CONTINUOUS
10
0.032779
20
0.318088
30
0.0
11
0.031931
21
0.318668
31
0.0
0
LINE
8
0
6
CONTINUOUS
10
0.032325
20
0.317374
30
0.0
11
0.032779
21
0.318088
31
0.0
0
LINE
8
0
6
CONTINUOUS
10
0.031022
20
0.317239
30
0.0
11
0.032325
21
0.317374
31
0.0
0
LINE
8
0
6
CONTINUOUS
10
0.030174
20
0.317818
30
0.0
11
0.031022
21
0.317239
31
0.0
0
LINE
8
0
6
CONTINUOUS
10
0.030628
20
0.318533
30
0.0
11
0.030174
21
0.317818
31
0.0
0
LINE
8
0
6
CONTINUOUS
10
0.028149
20
0.324633
30
0.0
11
0.029472
21
0.324642
31
0.0
0
LINE
8
0
6
CONTINUOUS
10
0.030139
20
0.323989
30
0.0
11
0.030127
21
0.324872
31
0.0
0
LINE
8
0
6
CONTINUOUS
10
0.029472
20
0.324642
30
0.0
11
0.030139
21
0.323989
31
0.0
0
LINE
8
0
6
CONTINUOUS
10
0.027494
20
0.323972
30
0.0
11
0.028149
21
0.324633
31
0.0
0
LINE
8
0
6
CONTINUOUS
10
0.027483
20
0.324764
30
0.0
11
0.027494
21
0.323972
31
0.0
0
LINE
8
0
6
CONTINUOUS
10
0.029472
20
0.324642
30
0.0
11
0.028149
21
0.324633
31
0.0
0
LINE
8
0
6
CONTINUOUS
10
0.030139
20
0.323989
30
0.0
11
0.029472
21
0.324642
31
0.0
0
LINE
8
0
6
CONTINUOUS
10
0.029483
20
0.323327
30
0.0
11
0.030139
21
0.323989
31
0.0
0
LINE
8
0
6
CONTINUOUS
10
0.028161
20
0.323319
30
0.0
11
0.029483
21
0.323327
31
0.0
0
LINE
8
0
6
CONTINUOUS
10
0.027494
20
0.323972
30
0.0
11
0.028161
21
0.323319
31
0.0
0
LINE
8
0
6
CONTINUOUS
10
0.028149
20
0.324633
30
0.0
11
0.027494
21
0.323972
31
0.0
0
LINE
8
0
6
CONTINUOUS
10
0.019999
20
0.326319
30
0.0
11
0.021321
21
0.326327
31
0.0
0
LINE
8
0
6
CONTINUOUS
10
0.021988
20
0.325674
30
0.0
11
0.021977
21
0.326542
31
0.0
0
LINE
8
0
6
CONTINUOUS
10
0.021321
20
0.326327
30
0.0
11
0.021988
21
0.325674
31
0.0
0
LINE
8
0
6
CONTINUOUS
10
0.019343
20
0.325658
30
0.0
11
0.019999
21
0.326319
31
0.0
0
LINE
8
0
6
CONTINUOUS
10
0.019332
20
0.326475
30
0.0
11
0.019343
21
0.325658
31
0.0
0
LINE
8
0
6
CONTINUOUS
10
0.021321
20
0.326327
30
0.0
11
0.019999
21
0.326319
31
0.0
0
LINE
8
0
6
CONTINUOUS
10
0.021988
20
0.325674
30
0.0
11
0.021321
21
0.326327
31
0.0
0
LINE
8
0
6
CONTINUOUS
10
0.021333
20
0.325013
30
0.0
11
0.021988
21
0.325674
31
0.0
0
LINE
8
0
6
CONTINUOUS
10
0.020010
20
0.325004
30
0.0
11
0.021333
21
0.325013
31
0.0
0
LINE
8
0
6
CONTINUOUS
10
0.019343
20
0.325658
30
0.0
11
0.020010
21
0.325004
31
0.0
0
LINE
8
0
6
CONTINUOUS
10
0.019999
20
0.326319
30
0.0
11
0.019343
21
0.325658
31
0.0
0
LINE
8
0
6
CONTINUOUS
10
0.011524
20
0.326940
30
0.0
11
0.012847
21
0.326949
31
0.0
0
LINE
8
0
6
CONTINUOUS
10
0.013514
20
0.326296
30
0.0
11
0.013503
21
0.327142
31
0.0
0
LINE
8
0
6
CONTINUOUS
10
0.012847
20
0.326949
30
0.0
11
0.013514
21
0.326296
31
0.0
0
LINE
8
0
6
CONTINUOUS
10
0.010869
20
0.326279
30
0.0
11
0.011524
21
0.326940
31
0.0
0
LINE
8
0
6
CONTINUOUS
10
0.010858
20
0.327123
30
0.0
11
0.010869
21
0.326279
31
0.0
0
LINE
8
0
6
CONTINUOUS
10
0.012847
20
0.326949
30
0.0
11
0.011524
21
0.326940
31
0.0
0
LINE
8
0
6
CONTINUOUS
10
0.013514
20
0.326296
30
0.0
11
0.012847
21
0.326949
31
0.0
0
LINE
8
0
6
CONTINUOUS
10
0.012858
20
0.325634
30
0.0
11
0.013514
21
0.326296
31
0.0
0
LINE
8
0
6
CONTINUOUS
10
0.011536
20
0.325626
30
0.0
11
0.012858
21
0.325634
31
0.0
0
LINE
8
0
6
CONTINUOUS
10
0.010869
20
0.326279
30
0.0
11
0.011536
21
0.325626
31
0.0
0
LINE
8
0
6
CONTINUOUS
10
0.011524
20
0.326940
30
0.0
11
0.010869
21
0.326279
31
0.0
0
LINE
8
0
6
CONTINUOUS
10
0.028348
20
0.307965
30
0.0
11
0.028363
21
0.307052
31
0.0
0
LINE
8
0
6
CONTINUOUS
10
0.026962
20
0.308409
30
0.0
11
0.028348
21
0.307965
31
0.0
0
LINE
8
0
6
CONTINUOUS
10
0.025591
20
0.307941
30
0.0
11
0.026962
21
0.308409
31
0.0
0
LINE
8
0
6
CONTINUOUS
10
0.025589
20
0.308744
30
0.0
11
0.025591
21
0.307941
31
0.0
0
LINE
8
0
6
CONTINUOUS
10
0.026992
20
0.306583
30
0.0
11
0.028363
21
0.307052
31
0.0
0
LINE
8
0
6
CONTINUOUS
10
0.025606
20
0.307027
30
0.0
11
0.026992
21
0.306583
31
0.0
0
LINE
8
0
6
CONTINUOUS
10
0.025591
20
0.307941
30
0.0
11
0.025606
21
0.307027
31
0.0
0
LINE
8
0
6
CONTINUOUS
10
0.026962
20
0.308409
30
0.0
11
0.025591
21
0.307941
31
0.0
0
LINE
8
0
6
CONTINUOUS
10
0.028348
20
0.307965
30
0.0
11
0.026962
21
0.308409
31
0.0
0
LINE
8
0
6
CONTINUOUS
10
0.028363
20
0.307052
30
0.0
11
0.028348
21
0.307965
31
0.0
0
LINE
8
0
6
CONTINUOUS
10
0.000494
20
0.184313
30
0.0
11
0.000819
21
0.183617
31
0.0
0
LINE
8
0
6
CONTINUOUS
10
0.020516
20
0.165373
30
0.0
11
0.020516
21
0.169074
31
0.0
0
LINE
8
0
6
CONTINUOUS
10
0.020516
20
0.158503
30
0.0
11
0.020516
21
0.161804
31
0.0
0
LINE
8
0
6
CONTINUOUS
10
0.020516
20
0.161804
30
0.0
11
0.020516
21
0.165373
31
0.0
0
LINE
8
0
6
CONTINUOUS
10
0.020516
20
0.172765
30
0.0
11
0.020516
21
0.176304
31
0.0
0
LINE
8
0
6
CONTINUOUS
10
0.020516
20
0.176304
30
0.0
11
0.020516
21
0.178397
31
0.0
0
LINE
8
0
6
CONTINUOUS
10
-0.039972
20
0.187749
30
0.0
11
-0.040292
21
0.187749
31
0.0
0
LINE
8
0
6
CONTINUOUS
10
-0.002343
20
0.187749
30
0.0
11
-0.008913
21
0.187749
31
0.0
0
LINE
8
0
6
CONTINUOUS
10
-0.030913
20
0.187749
30
0.0
11
-0.039972
21
0.187749
31
0.0
0
LINE
8
0
6
CONTINUOUS
10
-0.039972
20
0.149859
30
0.0
11
-0.040292
21
0.149859
31
0.0
0
LINE
8
0
6
CONTINUOUS
10
0.016954
20
0.149859
30
0.0
11
0.012339
21
0.149186
31
0.0
0
LINE
8
0
6
CONTINUOUS
10
0.007430
20
0.149193
30
0.0
11
0.012339
21
0.149169
31
0.0
0
LINE
8
0
6
CONTINUOUS
10
0.007430
20
0.149193
30
0.0
11
0.003868
21
0.149859
31
0.0
0
LINE
8
0
6
CONTINUOUS
10
0.020516
20
0.150276
30
0.0
11
0.020516
21
0.151404
31
0.0
0
LINE
8
0
6
CONTINUOUS
10
0.020516
20
0.151404
30
0.0
11
0.020516
21
0.153202
31
0.0
0
LINE
8
0
6
CONTINUOUS
10
0.020516
20
0.155599
30
0.0
11
0.020516
21
0.158503
31
0.0
0
LINE
8
0
6
CONTINUOUS
10
0.020516
20
0.153202
30
0.0
11
0.020516
21
0.155599
31
0.0
0
LINE
8
0
6
CONTINUOUS
10
0.020516
20
0.149859
30
0.0
11
0.020516
21
0.150276
31
0.0
0
LINE
8
0
6
CONTINUOUS
10
0.020516
20
0.149859
30
0.0
11
0.020116
21
0.149859
31
0.0
0
LINE
8
0
6
CONTINUOUS
10
0.003868
20
0.149859
30
0.0
11
-0.008913
21
0.149859
31
0.0
0
LINE
8
0
6
CONTINUOUS
10
-0.030913
20
0.149859
30
0.0
11
-0.039972
21
0.149859
31
0.0
0
LINE
8
0
6
CONTINUOUS
10
0.020116
20
0.149859
30
0.0
11
0.016954
21
0.149859
31
0.0
0
LINE
8
0
6
CONTINUOUS
10
-0.040292
20
0.169074
30
0.0
11
-0.040292
21
0.172765
31
0.0
0
LINE
8
0
6
CONTINUOUS
10
-0.040292
20
0.172765
30
0.0
11
-0.040292
21
0.176304
31
0.0
0
LINE
8
0
6
CONTINUOUS
10
-0.040292
20
0.158503
30
0.0
11
-0.040292
21
0.161804
31
0.0
0
LINE
8
0
6
CONTINUOUS
10
-0.040292
20
0.165373
30
0.0
11
-0.040292
21
0.169074
31
0.0
0
LINE
8
0
6
CONTINUOUS
10
-0.040292
20
0.182391
30
0.0
11
-0.040292
21
0.184707
31
0.0
0
LINE
8
0
6
CONTINUOUS
10
-0.040292
20
0.150276
30
0.0
11
-0.040292
21
0.151404
31
0.0
0
LINE
8
0
6
CONTINUOUS
10
-0.040292
20
0.176304
30
0.0
11
-0.040292
21
0.179554
31
0.0
0
LINE
8
0
6
CONTINUOUS
10
-0.040292
20
0.161804
30
0.0
11
-0.040292
21
0.165373
31
0.0
0
LINE
8
0
6
CONTINUOUS
10
-0.040292
20
0.155599
30
0.0
11
-0.040292
21
0.158503
31
0.0
0
LINE
8
0
6
CONTINUOUS
10
-0.040292
20
0.184707
30
0.0
11
-0.040292
21
0.186411
31
0.0
0
LINE
8
0
6
CONTINUOUS
10
-0.040292
20
0.187438
30
0.0
11
-0.040292
21
0.187749
31
0.0
0
LINE
8
0
6
CONTINUOUS
10
-0.040292
20
0.179554
30
0.0
11
-0.040292
21
0.182391
31
0.0
0
LINE
8
0
6
CONTINUOUS
10
-0.040292
20
0.149859
30
0.0
11
-0.040292
21
0.150276
31
0.0
0
LINE
8
0
6
CONTINUOUS
10
-0.040292
20
0.153202
30
0.0
11
-0.040292
21
0.155599
31
0.0
0
LINE
8
0
6
CONTINUOUS
10
-0.040292
20
0.151404
30
0.0
11
-0.040292
21
0.153202
31
0.0
0
LINE
8
0
6
CONTINUOUS
10
-0.040292
20
0.186411
30
0.0
11
-0.040292
21
0.187438
31
0.0
0
LINE
8
0
6
CONTINUOUS
10
-0.061424
20
0.149932
30
0.0
11
-0.062137
21
0.149932
31
0.0
0
LINE
8
0
6
CONTINUOUS
10
-0.061424
20
0.149932
30
0.0
11
-0.041163
21
0.149932
31
0.0
0
LINE
8
0
6
CONTINUOUS
10
-0.045670
20
0.187676
30
0.0
11
-0.041163
21
0.187676
31
0.0
0
LINE
8
0
6
CONTINUOUS
10
-0.041163
20
0.149932
30
0.0
11
-0.040873
21
0.149932
31
0.0
0
LINE
8
0
6
CONTINUOUS
10
-0.041163
20
0.187676
30
0.0
11
-0.040873
21
0.187676
31
0.0
0
LINE
8
0
6
CONTINUOUS
10
-0.062137
20
0.149932
30
0.0
11
-0.062137
21
0.150575
31
0.0
0
LINE
8
0
6
CONTINUOUS
10
-0.062137
20
0.150575
30
0.0
11
-0.062137
21
0.152460
31
0.0
0
LINE
8
0
6
CONTINUOUS
10
-0.062137
20
0.152460
30
0.0
11
-0.062137
21
0.155459
31
0.0
0
LINE
8
0
6
CONTINUOUS
10
-0.062137
20
0.155459
30
0.0
11
-0.062137
21
0.159368
31
0.0
0
LINE
8
0
6
CONTINUOUS
10
-0.062137
20
0.159368
30
0.0
11
-0.062137
21
0.163920
31
0.0
0
LINE
8
0
6
CONTINUOUS
10
-0.062137
20
0.163920
30
0.0
11
-0.062137
21
0.168804
31
0.0
0
LINE
8
0
6
CONTINUOUS
10
-0.062137
20
0.168804
30
0.0
11
-0.062137
21
0.173689
31
0.0
0
LINE
8
0
6
CONTINUOUS
10
-0.062137
20
0.173689
30
0.0
11
-0.062137
21
0.178240
31
0.0
0
LINE
8
0
6
CONTINUOUS
10
-0.062137
20
0.178240
30
0.0
11
-0.062137
21
0.182149
31
0.0
0
LINE
8
0
6
CONTINUOUS
10
-0.062137
20
0.182149
30
0.0
11
-0.062137
21
0.185148
31
0.0
0
LINE
8
0
6
CONTINUOUS
10
-0.062137
20
0.185148
30
0.0
11
-0.062137
21
0.187033
31
0.0
0
LINE
8
0
6
CONTINUOUS
10
-0.062137
20
0.187033
30
0.0
11
-0.062137
21
0.187676
31
0.0
0
LINE
8
0
6
CONTINUOUS
10
-0.061223
20
0.195972
30
0.0
11
-0.061336
21
0.195978
31
0.0
0
LINE
8
0
6
CONTINUOUS
10
-0.061223
20
0.195972
30
0.0
11
-0.045783
21
0.195985
31
0.0
0
LINE
8
0
6
CONTINUOUS
10
-0.045670
20
0.184108
30
0.0
11
-0.045670
21
0.191991
31
0.0
0
LINE
8
0
6
CONTINUOUS
10
-0.045783
20
0.195985
30
0.0
11
-0.045670
21
0.195986
31
0.0
0
LINE
8
0
6
CONTINUOUS
10
-0.061336
20
0.195978
30
0.0
11
-0.061360
21
0.195936
31
0.0
0
LINE
8
0
6
CONTINUOUS
10
-0.061360
20
0.195936
30
0.0
11
-0.061393
21
0.195693
31
0.0
0
LINE
8
0
6
CONTINUOUS
10
-0.061393
20
0.195693
30
0.0
11
-0.061435
21
0.195265
31
0.0
0
LINE
8
0
6
CONTINUOUS
10
-0.061435
20
0.195265
30
0.0
11
-0.061481
21
0.194683
31
0.0
0
LINE
8
0
6
CONTINUOUS
10
-0.061481
20
0.194683
30
0.0
11
-0.061529
21
0.193985
31
0.0
0
LINE
8
0
6
CONTINUOUS
10
-0.062076
20
0.186114
30
0.0
11
-0.061529
21
0.193985
31
0.0
0
LINE
8
0
6
CONTINUOUS
10
-0.045670
20
0.192758
30
0.0
11
-0.045670
21
0.191991
31
0.0
0
LINE
8
0
6
CONTINUOUS
10
-0.045670
20
0.193542
30
0.0
11
-0.045670
21
0.192758
31
0.0
0
LINE
8
0
6
CONTINUOUS
10
-0.045670
20
0.194287
30
0.0
11
-0.045670
21
0.193542
31
0.0
0
LINE
8
0
6
CONTINUOUS
10
-0.045670
20
0.194944
30
0.0
11
-0.045670
21
0.194287
31
0.0
0
LINE
8
0
6
CONTINUOUS
10
-0.045670
20
0.195468
30
0.0
11
-0.045670
21
0.194944
31
0.0
0
LINE
8
0
6
CONTINUOUS
10
-0.045670
20
0.195823
30
0.0
11
-0.045670
21
0.195468
31
0.0
0
LINE
8
0
6
CONTINUOUS
10
-0.045670
20
0.195986
30
0.0
11
-0.045670
21
0.195823
31
0.0
0
LINE
8
0
6
CONTINUOUS
10
-0.040873
20
0.150575
30
0.0
11
-0.040873
21
0.149932
31
0.0
0
LINE
8
0
6
CONTINUOUS
10
-0.040873
20
0.152460
30
0.0
11
-0.040873
21
0.150575
31
0.0
0
LINE
8
0
6
CONTINUOUS
10
-0.040873
20
0.155459
30
0.0
11
-0.040873
21
0.152460
31
0.0
0
LINE
8
0
6
CONTINUOUS
10
-0.040873
20
0.159368
30
0.0
11
-0.040873
21
0.155459
31
0.0
0
LINE
8
0
6
CONTINUOUS
10
-0.040873
20
0.163919
30
0.0
11
-0.040873
21
0.159368
31
0.0
0
LINE
8
0
6
CONTINUOUS
10
-0.040873
20
0.168804
30
0.0
11
-0.040873
21
0.163919
31
0.0
0
LINE
8
0
6
CONTINUOUS
10
-0.040873
20
0.173689
30
0.0
11
-0.040873
21
0.168804
31
0.0
0
LINE
8
0
6
CONTINUOUS
10
-0.040873
20
0.178240
30
0.0
11
-0.040873
21
0.173689
31
0.0
0
LINE
8
0
6
CONTINUOUS
10
-0.040873
20
0.182149
30
0.0
11
-0.040873
21
0.178240
31
0.0
0
LINE
8
0
6
CONTINUOUS
10
-0.040873
20
0.187033
30
0.0
11
-0.040873
21
0.185148
31
0.0
0
LINE
8
0
6
CONTINUOUS
10
-0.040873
20
0.187676
30
0.0
11
-0.040873
21
0.187033
31
0.0
0
LINE
8
0
6
CONTINUOUS
10
-0.022713
20
-0.305033
30
0.0
11
-0.019913
21
-0.305033
31
0.0
0
LINE
8
0
6
CONTINUOUS
10
-0.030913
20
-0.356479
30
0.0
11
-0.030913
21
-0.357033
31
0.0
0
LINE
8
0
6
CONTINUOUS
10
-0.030513
20
-0.357033
30
0.0
11
-0.030913
21
-0.357033
31
0.0
0
LINE
8
0
6
CONTINUOUS
10
-0.029413
20
-0.357033
30
0.0
11
-0.030513
21
-0.357033
31
0.0
0
LINE
8
0
6
CONTINUOUS
10
-0.027713
20
-0.357033
30
0.0
11
-0.029413
21
-0.357033
31
0.0
0
LINE
8
0
6
CONTINUOUS
10
-0.025413
20
-0.357033
30
0.0
11
-0.027713
21
-0.357033
31
0.0
0
LINE
8
0
6
CONTINUOUS
10
-0.022713
20
-0.357033
30
0.0
11
-0.025413
21
-0.357033
31
0.0
0
LINE
8
0
6
CONTINUOUS
10
-0.019913
20
-0.357033
30
0.0
11
-0.022713
21
-0.357033
31
0.0
0
LINE
8
0
6
CONTINUOUS
10
-0.022713
20
-0.305033
30
0.0
11
-0.025413
21
-0.305033
31
0.0
0
LINE
8
0
6
CONTINUOUS
10
-0.025413
20
-0.305033
30
0.0
11
-0.027713
21
-0.305033
31
0.0
0
LINE
8
0
6
CONTINUOUS
10
-0.029413
20
-0.305033
30
0.0
11
-0.030513
21
-0.305033
31
0.0
0
LINE
8
0
6
CONTINUOUS
10
-0.008913
20
-0.357033
30
0.0
11
-0.009313
21
-0.357033
31
0.0
0
LINE
8
0
6
CONTINUOUS
10
-0.009313
20
-0.357033
30
0.0
11
-0.010413
21
-0.357033
31
0.0
0
LINE
8
0
6
CONTINUOUS
10
-0.010413
20
-0.357033
30
0.0
11
-0.012113
21
-0.357033
31
0.0
0
LINE
8
0
6
CONTINUOUS
10
-0.012113
20
-0.357033
30
0.0
11
-0.014413
21
-0.357033
31
0.0
0
LINE
8
0
6
CONTINUOUS
10
-0.014413
20
-0.357033
30
0.0
11
-0.017113
21
-0.357033
31
0.0
0
LINE
8
0
6
CONTINUOUS
10
-0.017113
20
-0.357033
30
0.0
11
-0.019913
21
-0.357033
31
0.0
0
LINE
8
0
6
CONTINUOUS
10
-0.030513
20
-0.305033
30
0.0
11
-0.030913
21
-0.305033
31
0.0
0
LINE
8
0
6
CONTINUOUS
10
-0.030913
20
-0.305587
30
0.0
11
-0.030913
21
-0.305033
31
0.0
0
LINE
8
0
6
CONTINUOUS
10
-0.030913
20
-0.356479
30
0.0
11
-0.030913
21
-0.305587
31
0.0
0
LINE
8
0
6
CONTINUOUS
10
-0.027713
20
-0.305033
30
0.0
11
-0.029413
21
-0.305033
31
0.0
0
LINE
8
0
6
CONTINUOUS
10
-0.008913
20
-0.304533
30
0.0
11
-0.009413
21
-0.305033
31
0.0
0
LINE
8
0
6
CONTINUOUS
10
-0.008913
20
0.259467
30
0.0
11
-0.008913
21
0.259154
31
0.0
0
LINE
8
0
6
CONTINUOUS
10
-0.009413
20
0.259967
30
0.0
11
-0.008913
21
0.259467
31
0.0
0
LINE
8
0
6
CONTINUOUS
10
-0.030413
20
-0.305033
30
0.0
11
-0.030913
21
-0.304533
31
0.0
0
LINE
8
0
6
CONTINUOUS
10
-0.030913
20
0.259154
30
0.0
11
-0.030913
21
0.259467
31
0.0
0
LINE
8
0
6
CONTINUOUS
10
-0.030913
20
0.259467
30
0.0
11
-0.030413
21
0.259967
31
0.0
0
LINE
8
0
6
CONTINUOUS
10
-0.009313
20
0.259967
30
0.0
11
-0.008913
21
0.259967
31
0.0
0
LINE
8
0
6
CONTINUOUS
10
-0.010413
20
0.259967
30
0.0
11
-0.009313
21
0.259967
31
0.0
0
LINE
8
0
6
CONTINUOUS
10
-0.012113
20
0.259967
30
0.0
11
-0.010413
21
0.259967
31
0.0
0
LINE
8
0
6
CONTINUOUS
10
-0.014413
20
0.259967
30
0.0
11
-0.012113
21
0.259967
31
0.0
0
LINE
8
0
6
CONTINUOUS
10
-0.017113
20
0.259967
30
0.0
11
-0.014413
21
0.259967
31
0.0
0
LINE
8
0
6
CONTINUOUS
10
-0.019913
20
0.259967
30
0.0
11
-0.017113
21
0.259967
31
0.0
0
LINE
8
0
6
CONTINUOUS
10
-0.030913
20
0.260675
30
0.0
11
-0.030913
21
0.259967
31
0.0
0
LINE
8
0
6
CONTINUOUS
10
-0.030913
20
0.259967
30
0.0
11
-0.030513
21
0.259967
31
0.0
0
LINE
8
0
6
CONTINUOUS
10
-0.030913
20
0.296859
30
0.0
11
-0.030913
21
0.260675
31
0.0
0
LINE
8
0
6
CONTINUOUS
10
-0.030513
20
0.259967
30
0.0
11
-0.029413
21
0.259967
31
0.0
0
LINE
8
0
6
CONTINUOUS
10
-0.029413
20
0.259967
30
0.0
11
-0.027713
21
0.259967
31
0.0
0
LINE
8
0
6
CONTINUOUS
10
-0.027713
20
0.259967
30
0.0
11
-0.025413
21
0.259967
31
0.0
0
LINE
8
0
6
CONTINUOUS
10
-0.025413
20
0.259967
30
0.0
11
-0.022713
21
0.259967
31
0.0
0
LINE
8
0
6
CONTINUOUS
10
-0.022713
20
0.259967
30
0.0
11
-0.019913
21
0.259967
31
0.0
0
LINE
8
0
6
CONTINUOUS
10
-0.008913
20
0.260675
30
0.0
11
-0.008913
21
0.259967
31
0.0
0
LINE
8
0
6
CONTINUOUS
10
-0.008913
20
0.284121
30
0.0
11
-0.008913
21
0.260675
31
0.0
0
LINE
8
0
6
CONTINUOUS
10
-0.008913
20
0.259154
30
0.0
11
-0.008913
21
0.258612
31
0.0
0
LINE
8
0
6
CONTINUOUS
10
-0.030913
20
0.258612
30
0.0
11
-0.030913
21
0.259154
31
0.0
0
LINE
8
0
6
CONTINUOUS
10
-0.008913
20
-0.305033
30
0.0
11
-0.009313
21
-0.305033
31
0.0
0
LINE
8
0
6
CONTINUOUS
10
-0.009313
20
-0.305033
30
0.0
11
-0.010413
21
-0.305033
31
0.0
0
LINE
8
0
6
CONTINUOUS
10
-0.010413
20
-0.305033
30
0.0
11
-0.012113
21
-0.305033
31
0.0
0
LINE
8
0
6
CONTINUOUS
10
-0.012113
20
-0.305033
30
0.0
11
-0.014413
21
-0.305033
31
0.0
0
LINE
8
0
6
CONTINUOUS
10
-0.014413
20
-0.305033
30
0.0
11
-0.017113
21
-0.305033
31
0.0
0
LINE
8
0
6
CONTINUOUS
10
-0.017113
20
-0.305033
30
0.0
11
-0.019913
21
-0.305033
31
0.0
0
LINE
8
0
6
CONTINUOUS
10
-0.008913
20
-0.305033
30
0.0
11
-0.008913
21
-0.305587
31
0.0
0
LINE
8
0
6
CONTINUOUS
10
-0.008913
20
-0.305587
30
0.0
11
-0.008913
21
-0.356479
31
0.0
0
LINE
8
0
6
CONTINUOUS
10
-0.008913
20
-0.356479
30
0.0
11
-0.008913
21
-0.357033
31
0.0
0
LINE
8
0
6
CONTINUOUS
10
-0.030913
20
-0.304319
30
0.0
11
-0.030913
21
-0.304533
31
0.0
0
LINE
8
0
6
CONTINUOUS
10
-0.008913
20
-0.304319
30
0.0
11
-0.008913
21
-0.304533
31
0.0
0
LINE
8
0
6
CONTINUOUS
10
-0.008913
20
0.258612
30
0.0
11
-0.008913
21
0.187749
31
0.0
0
LINE
8
0
6
CONTINUOUS
10
-0.008913
20
0.149859
30
0.0
11
-0.008913
21
-0.303739
31
0.0
0
LINE
8
0
6
CONTINUOUS
10
-0.030913
20
-0.303739
30
0.0
11
-0.030913
21
0.149859
31
0.0
0
LINE
8
0
6
CONTINUOUS
10
-0.030913
20
0.187749
30
0.0
11
-0.030913
21
0.258612
31
0.0
0
LINE
8
0
6
CONTINUOUS
10
-0.008913
20
-0.303739
30
0.0
11
-0.008913
21
-0.304319
31
0.0
0
LINE
8
0
6
CONTINUOUS
10
-0.030913
20
-0.304319
30
0.0
11
-0.030913
21
-0.303739
31
0.0
0
LINE
8
0
6
CONTINUOUS
10
0.019597
20
0.148413
30
0.0
11
0.019597
21
0.149859
31
0.0
0
LINE
8
0
6
CONTINUOUS
10
0.003597
20
0.148413
30
0.0
11
0.003597
21
0.149859
31
0.0
0
LINE
8
0
6
CONTINUOUS
10
0.019597
20
0.129806
30
0.0
11
0.019597
21
0.148413
31
0.0
0
LINE
8
0
6
CONTINUOUS
10
0.003597
20
0.129806
30
0.0
11
0.003597
21
0.148413
31
0.0
0
LINE
8
0
6
CONTINUOUS
10
0.019597
20
0.112481
30
0.0
11
0.019597
21
0.129806
31
0.0
0
LINE
8
0
6
CONTINUOUS
10
0.003597
20
0.112481
30
0.0
11
0.003597
21
0.129806
31
0.0
0
LINE
8
0
6
CONTINUOUS
10
0.019597
20
0.096021
30
0.0
11
0.019597
21
0.112481
31
0.0
0
LINE
8
0
6
CONTINUOUS
10
0.003597
20
0.096021
30
0.0
11
0.003597
21
0.112481
31
0.0
0
LINE
8
0
6
CONTINUOUS
10
0.019597
20
0.080009
30
0.0
11
0.019597
21
0.096021
31
0.0
0
LINE
8
0
6
CONTINUOUS
10
0.003597
20
0.080009
30
0.0
11
0.003597
21
0.096021
31
0.0
0
LINE
8
0
6
CONTINUOUS
10
0.019597
20
0.064028
30
0.0
11
0.019597
21
0.080009
31
0.0
0
LINE
8
0
6
CONTINUOUS
10
0.003597
20
0.064028
30
0.0
11
0.003597
21
0.080009
31
0.0
0
LINE
8
0
6
CONTINUOUS
10
0.019597
20
0.047660
30
0.0
11
0.019597
21
0.064028
31
0.0
0
LINE
8
0
6
CONTINUOUS
10
0.003597
20
0.047660
30
0.0
11
0.003597
21
0.064028
31
0.0
0
LINE
8
0
6
CONTINUOUS
10
0.019597
20
0.030488
30
0.0
11
0.019597
21
0.047660
31
0.0
0
LINE
8
0
6
CONTINUOUS
10
0.003597
20
0.030488
30
0.0
11
0.003597
21
0.047660
31
0.0
0
LINE
8
0
6
CONTINUOUS
10
0.019597
20
0.012094
30
0.0
11
0.019597
21
0.030488
31
0.0
0
LINE
8
0
6
CONTINUOUS
10
0.003597
20
0.012094
30
0.0
11
0.003597
21
0.030488
31
0.0
0
LINE
8
0
6
CONTINUOUS
10
0.019597
20
-0.007939
30
0.0
11
0.019597
21
0.012094
31
0.0
0
LINE
8
0
6
CONTINUOUS
10
0.003597
20
-0.007939
30
0.0
11
0.003597
21
0.012094
31
0.0
0
LINE
8
0
6
CONTINUOUS
10
0.019597
20
-0.049694
30
0.0
11
0.019597
21
-0.007939
31
0.0
0
LINE
8
0
6
CONTINUOUS
10
0.003597
20
-0.049694
30
0.0
11
0.003597
21
-0.007939
31
0.0
0
LINE
8
0
6
CONTINUOUS
10
0.019597
20
-0.092525
30
0.0
11
0.019597
21
-0.049694
31
0.0
0
LINE
8
0
6
CONTINUOUS
10
0.003597
20
-0.092525
30
0.0
11
0.003597
21
-0.049694
31
0.0
0
LINE
8
0
6
CONTINUOUS
10
0.019597
20
-0.135459
30
0.0
11
0.019597
21
-0.092525
31
0.0
0
LINE
8
0
6
CONTINUOUS
10
0.003597
20
-0.135459
30
0.0
11
0.003597
21
-0.092525
31
0.0
0
LINE
8
0
6
CONTINUOUS
10
0.019597
20
-0.177522
30
0.0
11
0.019597
21
-0.135459
31
0.0
0
LINE
8
0
6
CONTINUOUS
10
0.003597
20
-0.177522
30
0.0
11
0.003597
21
-0.135459
31
0.0
0
LINE
8
0
6
CONTINUOUS
10
0.019597
20
-0.217738
30
0.0
11
0.019597
21
-0.177522
31
0.0
0
LINE
8
0
6
CONTINUOUS
10
0.003597
20
-0.217738
30
0.0
11
0.003597
21
-0.177522
31
0.0
0
LINE
8
0
6
CONTINUOUS
10
0.019597
20
-0.255135
30
0.0
11
0.019597
21
-0.217738
31
0.0
0
LINE
8
0
6
CONTINUOUS
10
0.003597
20
-0.255135
30
0.0
11
0.003597
21
-0.217738
31
0.0
0
LINE
8
0
6
CONTINUOUS
10
0.019597
20
-0.288737
30
0.0
11
0.019597
21
-0.255135
31
0.0
0
LINE
8
0
6
CONTINUOUS
10
0.003597
20
-0.288737
30
0.0
11
0.003597
21
-0.255135
31
0.0
0
LINE
8
0
6
CONTINUOUS
10
0.019597
20
-0.317570
30
0.0
11
0.019597
21
-0.288737
31
0.0
0
LINE
8
0
6
CONTINUOUS
10
0.003597
20
-0.317570
30
0.0
11
0.003597
21
-0.288737
31
0.0
0
LINE
8
0
6
CONTINUOUS
10
0.019597
20
-0.340660
30
0.0
11
0.019597
21
-0.317570
31
0.0
0
LINE
8
0
6
CONTINUOUS
10
0.003597
20
-0.340660
30
0.0
11
0.003597
21
-0.317570
31
0.0
0
LINE
8
0
6
CONTINUOUS
10
0.019597
20
-0.357033
30
0.0
11
0.019597
21
-0.340660
31
0.0
0
LINE
8
0
6
CONTINUOUS
10
0.018525
20
-0.357033
30
0.0
11
0.019597
21
-0.357033
31
0.0
0
LINE
8
0
6
CONTINUOUS
10
0.015597
20
-0.357033
30
0.0
11
0.018525
21
-0.357033
31
0.0
0
LINE
8
0
6
CONTINUOUS
10
0.011597
20
-0.357033
30
0.0
11
0.015597
21
-0.357033
31
0.0
0
LINE
8
0
6
CONTINUOUS
10
0.007597
20
-0.357033
30
0.0
11
0.011597
21
-0.357033
31
0.0
0
LINE
8
0
6
CONTINUOUS
10
0.004669
20
-0.357033
30
0.0
11
0.007597
21
-0.357033
31
0.0
0
LINE
8
0
6
CONTINUOUS
10
0.003597
20
-0.357033
30
0.0
11
0.004669
21
-0.357033
31
0.0
0
LINE
8
0
6
CONTINUOUS
10
0.003597
20
-0.357033
30
0.0
11
0.003597
21
-0.340660
31
0.0
0
LINE
8
0
6
CONTINUOUS
10
0.000742
20
0.184848
30
0.0
11
0.000819
21
0.183617
31
0.0
0
LINE
8
0
6
CONTINUOUS
10
0.022474
20
0.163708
30
0.0
11
0.023804
21
0.184913
31
0.0
0
LINE
8
0
6
CONTINUOUS
10
0.020073
20
0.160034
30
0.0
11
0.021119
21
0.160727
31
0.0
0
LINE
8
0
6
CONTINUOUS
10
0.021119
20
0.160727
30
0.0
11
0.022119
21
0.161961
31
0.0
0
LINE
8
0
6
CONTINUOUS
10
0.022448
20
0.163284
30
0.0
11
0.022474
21
0.163708
31
0.0
0
LINE
8
0
6
CONTINUOUS
10
0.022119
20
0.161961
30
0.0
11
0.022448
21
0.163284
31
0.0
0
LINE
8
0
6
CONTINUOUS
10
0.025119
20
0.279470
30
0.0
11
0.025134
21
0.282428
31
0.0
0
LINE
8
0
6
CONTINUOUS
10
0.026713
20
0.276667
30
0.0
11
0.026712
21
0.276986
31
0.0
0
LINE
8
0
6
CONTINUOUS
10
0.026919
20
0.187727
30
0.0
11
0.026917
21
0.188346
31
0.0
0
LINE
8
0
6
CONTINUOUS
10
0.026398
20
0.186075
30
0.0
11
0.026919
21
0.187727
31
0.0
0
LINE
8
0
6
CONTINUOUS
10
0.023925
20
0.184941
30
0.0
11
0.026398
21
0.186075
31
0.0
0
LINE
8
0
6
CONTINUOUS
10
0.020247
20
0.184084
30
0.0
11
0.023427
21
0.184825
31
0.0
0
LINE
8
0
6
CONTINUOUS
10
0.012320
20
0.183355
30
0.0
11
0.016358
21
0.183527
31
0.0
0
LINE
8
0
6
CONTINUOUS
10
0.016358
20
0.183527
30
0.0
11
0.020247
21
0.184084
31
0.0
0
LINE
8
0
6
CONTINUOUS
10
0.026712
20
0.276986
30
0.0
11
0.026710
21
0.277989
31
0.0
0
LINE
8
0
6
CONTINUOUS
10
0.025117
20
0.279123
30
0.0
11
0.025119
21
0.279470
31
0.0
0
LINE
8
0
6
CONTINUOUS
10
0.026710
20
0.277989
30
0.0
11
0.026677
21
0.278585
31
0.0
0
LINE
8
0
6
CONTINUOUS
10
0.026677
20
0.278585
30
0.0
11
0.026447
21
0.282696
31
0.0
0
LINE
8
0
6
CONTINUOUS
10
0.023427
20
0.184825
30
0.0
11
0.023925
21
0.184941
31
0.0
0
LINE
8
0
6
CONTINUOUS
10
0.026917
20
0.188346
30
0.0
11
0.026713
21
0.276667
31
0.0
0
LINE
8
0
6
CONTINUOUS
10
-0.000908
20
0.282359
30
0.0
11
-0.000884
21
0.279379
31
0.0
0
LINE
8
0
6
CONTINUOUS
10
-0.002465
20
0.276883
30
0.0
11
-0.002465
21
0.276564
31
0.0
0
LINE
8
0
6
CONTINUOUS
10
-0.002343
20
0.187624
30
0.0
11
-0.001798
21
0.185976
31
0.0
0
LINE
8
0
6
CONTINUOUS
10
-0.002344
20
0.188243
30
0.0
11
-0.002343
21
0.187624
31
0.0
0
LINE
8
0
6
CONTINUOUS
10
-0.001798
20
0.185976
30
0.0
11
0.000692
21
0.184859
31
0.0
0
LINE
8
0
6
CONTINUOUS
10
0.001192
20
0.184747
30
0.0
11
0.004382
21
0.184028
31
0.0
0
LINE
8
0
6
CONTINUOUS
10
0.008280
20
0.183498
30
0.0
11
0.012320
21
0.183355
31
0.0
0
LINE
8
0
6
CONTINUOUS
10
0.004382
20
0.184028
30
0.0
11
0.008280
21
0.183498
31
0.0
0
LINE
8
0
6
CONTINUOUS
10
-0.002466
20
0.277886
30
0.0
11
-0.002465
21
0.276883
31
0.0
0
LINE
8
0
6
CONTINUOUS
10
-0.000884
20
0.279379
30
0.0
11
-0.000881
21
0.279031
31
0.0
0
LINE
8
0
6
CONTINUOUS
10
-0.002439
20
0.278482
30
0.0
11
-0.002466
21
0.277886
31
0.0
0
LINE
8
0
6
CONTINUOUS
10
-0.002250
20
0.282622
30
0.0
11
-0.002439
21
0.278482
31
0.0
0
LINE
8
0
6
CONTINUOUS
10
0.000692
20
0.184859
30
0.0
11
0.001192
21
0.184747
31
0.0
0
LINE
8
0
6
CONTINUOUS
10
-0.002465
20
0.276564
30
0.0
11
-0.002344
21
0.188243
31
0.0
0
LINE
8
0
6
CONTINUOUS
10
0.031455
20
0.329744
30
0.0
11
0.039894
21
0.326730
31
0.0
0
LINE
8
0
6
CONTINUOUS
10
0.022047
20
0.331600
30
0.0
11
0.031455
21
0.329744
31
0.0
0
LINE
8
0
6
CONTINUOUS
10
0.012142
20
0.332288
30
0.0
11
0.022047
21
0.331600
31
0.0
0
LINE
8
0
6
CONTINUOUS
10
0.002239
20
0.331531
30
0.0
11
0.012142
21
0.332288
31
0.0
0
LINE
8
0
6
CONTINUOUS
10
-0.007224
20
0.329766
30
0.0
11
0.002239
21
0.331531
31
0.0
0
LINE
8
0
6
CONTINUOUS
10
-0.027951
20
0.317603
30
0.0
11
-0.022651
21
0.322465
31
0.0
0
LINE
8
0
6
CONTINUOUS
10
-0.031241
20
0.312193
30
0.0
11
-0.027951
21
0.317603
31
0.0
0
LINE
8
0
6
CONTINUOUS
10
-0.032355
20
0.306505
30
0.0
11
-0.031241
21
0.312193
31
0.0
0
LINE
8
0
6
CONTINUOUS
10
0.056657
20
0.306819
30
0.0
11
0.055606
21
0.301166
31
0.0
0
LINE
8
0
6
CONTINUOUS
10
-0.037680
20
0.319866
30
0.0
11
-0.037907
21
0.314286
31
0.0
0
LINE
8
0
6
CONTINUOUS
10
0.061386
20
0.322902
30
0.0
11
0.060147
21
0.329196
31
0.0
0
LINE
8
0
6
CONTINUOUS
10
0.061847
20
0.320216
30
0.0
11
0.061386
21
0.322902
31
0.0
0
LINE
8
0
6
CONTINUOUS
10
0.059518
20
0.331796
30
0.0
11
0.058691
21
0.334337
31
0.0
0
LINE
8
0
6
CONTINUOUS
10
0.041256
20
0.351160
30
0.0
11
0.041197
21
0.351188
31
0.0
0
LINE
8
0
6
CONTINUOUS
10
0.040771
20
0.351348
30
0.0
11
0.032028
21
0.354470
31
0.0
0
LINE
8
0
6
CONTINUOUS
10
0.041197
20
0.351188
30
0.0
11
0.040771
21
0.351348
31
0.0
0
LINE
8
0
6
CONTINUOUS
10
0.031882
20
0.354501
30
0.0
11
0.022206
21
0.356410
31
0.0
0
LINE
8
0
6
CONTINUOUS
10
0.032028
20
0.354470
30
0.0
11
0.031882
21
0.354501
31
0.0
0
LINE
8
0
6
CONTINUOUS
10
0.022206
20
0.356410
30
0.0
11
0.012020
21
0.357033
31
0.0
0
LINE
8
0
6
CONTINUOUS
10
0.012020
20
0.357033
30
0.0
11
0.001834
21
0.356338
31
0.0
0
LINE
8
0
6
CONTINUOUS
10
0.001834
20
0.356338
30
0.0
11
-0.007840
21
0.354361
31
0.0
0
LINE
8
0
6
CONTINUOUS
10
-0.007840
20
0.354361
30
0.0
11
-0.007984
21
0.354329
31
0.0
0
LINE
8
0
6
CONTINUOUS
10
-0.017147
20
0.350982
30
0.0
11
-0.017205
21
0.350954
31
0.0
0
LINE
8
0
6
CONTINUOUS
10
-0.007984
20
0.354329
30
0.0
11
-0.016726
21
0.351145
31
0.0
0
LINE
8
0
6
CONTINUOUS
10
-0.016726
20
0.351145
30
0.0
11
-0.017147
21
0.350982
31
0.0
0
LINE
8
0
6
CONTINUOUS
10
-0.034611
20
0.334008
30
0.0
11
-0.035410
21
0.331461
31
0.0
0
LINE
8
0
6
CONTINUOUS
10
-0.036013
20
0.328857
30
0.0
11
-0.037247
21
0.322555
31
0.0
0
LINE
8
0
6
CONTINUOUS
10
-0.037247
20
0.322555
30
0.0
11
-0.037680
21
0.319866
31
0.0
0
LINE
8
0
6
CONTINUOUS
10
0.062130
20
0.314638
30
0.0
11
0.061847
21
0.320216
31
0.0
0
LINE
8
0
6
CONTINUOUS
10
0.060147
20
0.329196
30
0.0
11
0.059518
21
0.331796
31
0.0
0
LINE
8
0
6
CONTINUOUS
10
-0.035410
20
0.331461
30
0.0
11
-0.036013
21
0.328857
31
0.0
0
LINE
8
0
6
CONTINUOUS
10
0.062131
20
0.314438
30
0.0
11
0.062130
21
0.314638
31
0.0
0
LINE
8
0
6
CONTINUOUS
10
-0.037907
20
0.314286
30
0.0
11
-0.037906
21
0.314085
31
0.0
0
LINE
8
0
6
CONTINUOUS
10
0.062137
20
0.313347
30
0.0
11
0.062133
21
0.314156
31
0.0
0
LINE
8
0
6
CONTINUOUS
10
-0.037905
20
0.313803
30
0.0
11
-0.037901
21
0.312995
31
0.0
0
LINE
8
0
6
CONTINUOUS
10
0.055603
20
0.312548
30
0.0
11
0.056657
21
0.306819
31
0.0
0
LINE
8
0
6
CONTINUOUS
10
0.056282
20
0.301565
30
0.0
11
0.052936
21
0.296062
31
0.0
0
LINE
8
0
6
CONTINUOUS
10
-0.015696
20
0.286647
30
0.0
11
-0.016068
21
0.286780
31
0.0
0
LINE
8
0
6
CONTINUOUS
10
-0.008298
20
0.283902
30
0.0
11
-0.007484
21
0.283715
31
0.0
0
LINE
8
0
6
CONTINUOUS
10
-0.017235
20
0.287093
30
0.0
11
-0.008298
21
0.283902
31
0.0
0
LINE
8
0
6
CONTINUOUS
10
-0.032514
20
0.298993
30
0.0
11
-0.031515
21
0.297406
31
0.0
0
LINE
8
0
6
CONTINUOUS
10
-0.036181
20
0.304990
30
0.0
11
-0.032514
21
0.298993
31
0.0
0
LINE
8
0
6
CONTINUOUS
10
-0.025740
20
0.292154
30
0.0
11
-0.024699
21
0.291349
31
0.0
0
LINE
8
0
6
CONTINUOUS
10
-0.031515
20
0.297406
30
0.0
11
-0.025740
21
0.292154
31
0.0
0
LINE
8
0
6
CONTINUOUS
10
0.050024
20
0.292421
30
0.0
11
0.055795
21
0.297713
31
0.0
0
LINE
8
0
6
CONTINUOUS
10
0.048996
20
0.291609
30
0.0
11
0.050024
21
0.292421
31
0.0
0
LINE
8
0
6
CONTINUOUS
10
0.056776
20
0.299307
30
0.0
11
0.060439
21
0.305331
31
0.0
0
LINE
8
0
6
CONTINUOUS
10
0.055795
20
0.297713
30
0.0
11
0.056776
21
0.299307
31
0.0
0
LINE
8
0
6
CONTINUOUS
10
-0.036644
20
0.306611
30
0.0
11
-0.036181
21
0.304990
31
0.0
0
LINE
8
0
6
CONTINUOUS
10
-0.037901
20
0.312995
30
0.0
11
-0.036644
21
0.306611
31
0.0
0
LINE
8
0
6
CONTINUOUS
10
-0.019080
20
0.336415
30
0.0
11
-0.026999
21
0.331842
31
0.0
0
LINE
8
0
6
CONTINUOUS
10
0.057175
20
0.326696
30
0.0
11
0.051214
21
0.332117
31
0.0
0
LINE
8
0
6
CONTINUOUS
10
0.023234
20
0.342107
30
0.0
11
0.012104
21
0.342788
31
0.0
0
LINE
8
0
6
CONTINUOUS
10
0.033807
20
0.340021
30
0.0
11
0.023234
21
0.342107
31
0.0
0
LINE
8
0
6
CONTINUOUS
10
-0.009598
20
0.339868
30
0.0
11
-0.019080
21
0.336415
31
0.0
0
LINE
8
0
6
CONTINUOUS
10
-0.037905
20
0.313905
30
0.0
11
-0.037905
21
0.313803
31
0.0
0
LINE
8
0
6
CONTINUOUS
10
-0.036653
20
0.320298
30
0.0
11
-0.037905
21
0.313905
31
0.0
0
LINE
8
0
6
CONTINUOUS
10
0.060876
20
0.320641
30
0.0
11
0.057175
21
0.326696
31
0.0
0
LINE
8
0
6
CONTINUOUS
10
0.062132
20
0.314258
30
0.0
11
0.060876
21
0.320641
31
0.0
0
LINE
8
0
6
CONTINUOUS
10
0.062133
20
0.314156
30
0.0
11
0.062132
21
0.314258
31
0.0
0
LINE
8
0
6
CONTINUOUS
10
0.043292
20
0.336635
30
0.0
11
0.033807
21
0.340021
31
0.0
0
LINE
8
0
6
CONTINUOUS
10
0.000974
20
0.342029
30
0.0
11
-0.009598
21
0.339868
31
0.0
0
LINE
8
0
6
CONTINUOUS
10
-0.032956
20
0.326378
30
0.0
11
-0.036653
21
0.320298
31
0.0
0
LINE
8
0
6
CONTINUOUS
10
0.051214
20
0.332117
30
0.0
11
0.043292
21
0.336635
31
0.0
0
LINE
8
0
6
CONTINUOUS
10
0.012104
20
0.342788
30
0.0
11
0.000974
21
0.342029
31
0.0
0
LINE
8
0
6
CONTINUOUS
10
-0.026999
20
0.331842
30
0.0
11
-0.032956
21
0.326378
31
0.0
0
LINE
8
0
6
CONTINUOUS
10
-0.037906
20
0.314085
30
0.0
11
-0.037888
21
0.313993
31
0.0
0
LINE
8
0
6
CONTINUOUS
10
0.062114
20
0.314350
30
0.0
11
0.062131
21
0.314438
31
0.0
0
LINE
8
0
6
CONTINUOUS
10
0.054267
20
0.341845
30
0.0
11
0.048680
21
0.346926
31
0.0
0
LINE
8
0
6
CONTINUOUS
10
0.054708
20
0.341141
30
0.0
11
0.054267
21
0.341845
31
0.0
0
LINE
8
0
6
CONTINUOUS
10
0.048680
20
0.346926
30
0.0
11
0.041256
21
0.351160
31
0.0
0
LINE
8
0
6
CONTINUOUS
10
-0.017205
20
0.350954
30
0.0
11
-0.024627
21
0.346668
31
0.0
0
LINE
8
0
6
CONTINUOUS
10
-0.024627
20
0.346668
30
0.0
11
-0.030210
21
0.341547
31
0.0
0
LINE
8
0
6
CONTINUOUS
10
-0.030210
20
0.341547
30
0.0
11
-0.030643
21
0.340840
31
0.0
0
LINE
8
0
6
CONTINUOUS
10
-0.030643
20
0.340840
30
0.0
11
-0.034144
21
0.335083
31
0.0
0
LINE
8
0
6
CONTINUOUS
10
-0.034144
20
0.335083
30
0.0
11
-0.034611
21
0.334008
31
0.0
0
LINE
8
0
6
CONTINUOUS
10
0.058213
20
0.335408
30
0.0
11
0.054708
21
0.341141
31
0.0
0
LINE
8
0
6
CONTINUOUS
10
0.058691
20
0.334337
30
0.0
11
0.058213
21
0.335408
31
0.0
0
LINE
8
0
6
CONTINUOUS
10
0.052929
20
0.318606
30
0.0
11
0.047534
21
0.323512
31
0.0
0
LINE
8
0
6
CONTINUOUS
10
-0.023248
20
0.323263
30
0.0
11
-0.028639
21
0.318318
31
0.0
0
LINE
8
0
6
CONTINUOUS
10
-0.028632
20
0.295775
30
0.0
11
-0.023237
21
0.290868
31
0.0
0
LINE
8
0
6
CONTINUOUS
10
0.040016
20
0.286847
30
0.0
11
0.040379
21
0.286979
31
0.0
0
LINE
8
0
6
CONTINUOUS
10
0.040379
20
0.286979
30
0.0
11
0.047545
21
0.291117
31
0.0
0
LINE
8
0
6
CONTINUOUS
10
0.046994
20
0.322772
30
0.0
11
0.052305
21
0.317942
31
0.0
0
LINE
8
0
6
CONTINUOUS
10
0.039894
20
0.326730
30
0.0
11
0.046994
21
0.322772
31
0.0
0
LINE
8
0
6
CONTINUOUS
10
-0.015605
20
0.326534
30
0.0
11
-0.007224
21
0.329766
31
0.0
0
LINE
8
0
6
CONTINUOUS
10
-0.022651
20
0.322465
30
0.0
11
-0.015605
21
0.326534
31
0.0
0
LINE
8
0
6
CONTINUOUS
10
0.040379
20
0.286979
30
0.0
11
0.040016
21
0.286847
31
0.0
0
LINE
8
0
6
CONTINUOUS
10
0.032600
20
0.284046
30
0.0
11
0.041535
21
0.287300
31
0.0
0
LINE
8
0
6
CONTINUOUS
10
0.031797
20
0.283853
30
0.0
11
0.032600
21
0.284046
31
0.0
0
LINE
8
0
6
CONTINUOUS
10
0.040365
20
0.327601
30
0.0
11
0.047534
21
0.323512
31
0.0
0
LINE
8
0
6
CONTINUOUS
10
-0.028632
20
0.295775
30
0.0
11
-0.031971
21
0.301237
31
0.0
0
LINE
8
0
6
CONTINUOUS
10
-0.028639
20
0.318318
30
0.0
11
-0.023248
21
0.323263
31
0.0
0
LINE
8
0
6
CONTINUOUS
10
0.002067
20
0.332482
30
0.0
11
0.012140
21
0.333169
31
0.0
0
LINE
8
0
6
CONTINUOUS
10
0.047545
20
0.291117
30
0.0
11
0.040379
21
0.286979
31
0.0
0
LINE
8
0
6
CONTINUOUS
10
0.041535
20
0.287300
30
0.0
11
0.048996
21
0.291609
31
0.0
0
LINE
8
0
6
CONTINUOUS
10
-0.023237
20
0.290868
30
0.0
11
-0.028632
21
0.295775
31
0.0
0
LINE
8
0
6
CONTINUOUS
10
-0.007500
20
0.330527
30
0.0
11
0.002067
21
0.332482
31
0.0
0
LINE
8
0
6
CONTINUOUS
10
0.031781
20
0.330665
30
0.0
11
0.040365
21
0.327601
31
0.0
0
LINE
8
0
6
CONTINUOUS
10
0.056278
20
0.313126
30
0.0
11
0.057415
21
0.307350
31
0.0
0
LINE
8
0
6
CONTINUOUS
10
-0.031985
20
0.312815
30
0.0
11
-0.028639
21
0.318318
31
0.0
0
LINE
8
0
6
CONTINUOUS
10
0.052936
20
0.296062
30
0.0
11
0.047545
21
0.291117
31
0.0
0
LINE
8
0
6
CONTINUOUS
10
-0.016068
20
0.286780
30
0.0
11
-0.023237
21
0.290868
31
0.0
0
LINE
8
0
6
CONTINUOUS
10
-0.024699
20
0.291349
30
0.0
11
-0.017235
21
0.287093
31
0.0
0
LINE
8
0
6
CONTINUOUS
10
-0.033118
20
0.307031
30
0.0
11
-0.031985
21
0.312815
31
0.0
0
LINE
8
0
6
CONTINUOUS
10
-0.016082
20
0.327402
30
0.0
11
-0.007500
21
0.330527
31
0.0
0
LINE
8
0
6
CONTINUOUS
10
0.022213
20
0.332553
30
0.0
11
0.031781
21
0.330665
31
0.0
0
LINE
8
0
6
CONTINUOUS
10
0.052929
20
0.318606
30
0.0
11
0.056278
21
0.313126
31
0.0
0
LINE
8
0
6
CONTINUOUS
10
-0.031981
20
0.301254
30
0.0
11
-0.033118
21
0.307031
31
0.0
0
LINE
8
0
6
CONTINUOUS
10
-0.023248
20
0.323263
30
0.0
11
-0.016082
21
0.327402
31
0.0
0
LINE
8
0
6
CONTINUOUS
10
0.012140
20
0.333169
30
0.0
11
0.022213
21
0.332553
31
0.0
0
LINE
8
0
6
CONTINUOUS
10
0.047534
20
0.323512
30
0.0
11
0.052929
21
0.318606
31
0.0
0
LINE
8
0
6
CONTINUOUS
10
0.056278
20
0.313126
30
0.0
11
0.052929
21
0.318606
31
0.0
0
LINE
8
0
6
CONTINUOUS
10
-0.028639
20
0.318318
30
0.0
11
-0.031985
21
0.312815
31
0.0
0
LINE
8
0
6
CONTINUOUS
10
-0.031985
20
0.312815
30
0.0
11
-0.033118
21
0.307031
31
0.0
0
LINE
8
0
6
CONTINUOUS
10
-0.033118
20
0.307031
30
0.0
11
-0.031981
21
0.301254
31
0.0
0
LINE
8
0
6
CONTINUOUS
10
-0.031981
20
0.301254
30
0.0
11
-0.028632
21
0.295775
31
0.0
0
LINE
8
0
6
CONTINUOUS
10
-0.023237
20
0.290868
30
0.0
11
-0.016068
21
0.286780
31
0.0
0
LINE
8
0
6
CONTINUOUS
10
-0.016068
20
0.286780
30
0.0
11
-0.015696
21
0.286647
31
0.0
0
LINE
8
0
6
CONTINUOUS
10
0.047545
20
0.291117
30
0.0
11
0.052936
21
0.296062
31
0.0
0
LINE
8
0
6
CONTINUOUS
10
0.052936
20
0.296062
30
0.0
11
0.056282
21
0.301565
31
0.0
0
LINE
8
0
6
CONTINUOUS
10
0.056282
20
0.301565
30
0.0
11
0.057415
21
0.307350
31
0.0
0
LINE
8
0
6
CONTINUOUS
10
0.057415
20
0.307350
30
0.0
11
0.056282
21
0.301565
31
0.0
0
LINE
8
0
6
CONTINUOUS
10
0.057415
20
0.307350
30
0.0
11
0.056278
21
0.313126
31
0.0
0
LINE
8
0
6
CONTINUOUS
10
0.060439
20
0.305331
30
0.0
11
0.060885
21
0.306955
31
0.0
0
LINE
8
0
6
CONTINUOUS
10
0.060885
20
0.306955
30
0.0
11
0.062137
21
0.313347
31
0.0
0
LINE
8
0
6
CONTINUOUS
10
0.052305
20
0.317942
30
0.0
11
0.055603
21
0.312548
31
0.0
0
LINE
8
0
6
CONTINUOUS
10
0.055603
20
0.312548
30
0.0
11
0.052305
21
0.317942
31
0.0
0
LINE
8
0
6
CONTINUOUS
10
0.039894
20
0.326730
30
0.0
11
0.031455
21
0.329744
31
0.0
0
LINE
8
0
6
CONTINUOUS
10
0.031455
20
0.329744
30
0.0
11
0.022047
21
0.331600
31
0.0
0
LINE
8
0
6
CONTINUOUS
10
0.022047
20
0.331600
30
0.0
11
0.012142
21
0.332288
31
0.0
0
LINE
8
0
6
CONTINUOUS
10
0.012142
20
0.332288
30
0.0
11
0.002239
21
0.331531
31
0.0
0
LINE
8
0
6
CONTINUOUS
10
0.002239
20
0.331531
30
0.0
11
-0.007224
21
0.329766
31
0.0
0
LINE
8
0
6
CONTINUOUS
10
-0.022651
20
0.322465
30
0.0
11
-0.027951
21
0.317603
31
0.0
0
LINE
8
0
6
CONTINUOUS
10
-0.027951
20
0.317603
30
0.0
11
-0.031241
21
0.312193
31
0.0
0
LINE
8
0
6
CONTINUOUS
10
-0.031241
20
0.312193
30
0.0
11
-0.032355
21
0.306505
31
0.0
0
LINE
8
0
6
CONTINUOUS
10
-0.022741
20
0.290658
30
0.0
11
-0.015634
21
0.286611
31
0.0
0
LINE
8
0
6
CONTINUOUS
10
-0.015634
20
0.286611
30
0.0
11
-0.007184
21
0.283592
31
0.0
0
LINE
8
0
6
CONTINUOUS
10
-0.007184
20
0.283592
30
0.0
11
0.002227
21
0.281742
31
0.0
0
LINE
8
0
6
CONTINUOUS
10
0.002227
20
0.281742
30
0.0
11
0.012160
21
0.281127
31
0.0
0
LINE
8
0
6
CONTINUOUS
10
0.012160
20
0.281127
30
0.0
11
0.022071
21
0.281803
31
0.0
0
LINE
8
0
6
CONTINUOUS
10
0.022071
20
0.281803
30
0.0
11
0.031494
21
0.283727
31
0.0
0
LINE
8
0
6
CONTINUOUS
10
-0.015605
20
0.326534
30
0.0
11
-0.022651
21
0.322465
31
0.0
0
LINE
8
0
6
CONTINUOUS
10
0.056657
20
0.306819
30
0.0
11
0.055603
21
0.312548
31
0.0
0
LINE
8
0
6
CONTINUOUS
10
0.052305
20
0.317942
30
0.0
11
0.046994
21
0.322772
31
0.0
0
LINE
8
0
6
CONTINUOUS
10
0.046994
20
0.322772
30
0.0
11
0.039894
21
0.326730
31
0.0
0
LINE
8
0
6
CONTINUOUS
10
-0.032355
20
0.306505
30
0.0
11
-0.031364
21
0.300899
31
0.0
0
LINE
8
0
6
CONTINUOUS
10
-0.031364
20
0.300899
30
0.0
11
-0.028061
21
0.295496
31
0.0
0
LINE
8
0
6
CONTINUOUS
10
-0.028061
20
0.295496
30
0.0
11
-0.022741
21
0.290658
31
0.0
0
LINE
8
0
6
CONTINUOUS
10
0.031494
20
0.283727
30
0.0
11
0.039944
21
0.286805
31
0.0
0
LINE
8
0
6
CONTINUOUS
10
0.039944
20
0.286805
30
0.0
11
0.047054
21
0.290904
31
0.0
0
LINE
8
0
6
CONTINUOUS
10
0.047054
20
0.290904
30
0.0
11
0.052311
21
0.295748
31
0.0
0
LINE
8
0
6
CONTINUOUS
10
0.052311
20
0.295748
30
0.0
11
0.055606
21
0.301166
31
0.0
0
LINE
8
0
6
CONTINUOUS
10
0.055606
20
0.301166
30
0.0
11
0.056657
21
0.306819
31
0.0
0
LINE
8
0
6
CONTINUOUS
10
-0.007224
20
0.329766
30
0.0
11
-0.015605
21
0.326534
31
0.0
0
LINE
8
0
6
CONTINUOUS
10
0.012835
20
0.327875
30
0.0
11
0.013503
21
0.327142
31
0.0
0
LINE
8
0
6
CONTINUOUS
10
-0.009638
20
0.187438
30
0.0
11
-0.009313
21
0.187505
31
0.0
0
LINE
8
0
6
CONTINUOUS
10
0.002412
20
0.180386
30
0.0
11
0.001761
21
0.181577
31
0.0
0
LINE
8
0
6
CONTINUOUS
10
0.012583
20
0.174834
30
0.0
11
0.015262
21
0.175226
31
0.0
0
LINE
8
0
6
CONTINUOUS
10
-0.011394
20
0.322815
30
0.0
11
-0.010374
21
0.322251
31
0.0
0
LINE
8
0
6
CONTINUOUS
10
-0.011491
20
0.322790
30
0.0
11
-0.011394
21
0.322815
31
0.0
0
LINE
8
0
6
CONTINUOUS
10
0.047398
20
0.300509
30
0.0
11
0.047595
21
0.300597
31
0.0
0
LINE
8
0
6
CONTINUOUS
10
-0.024439
20
0.300167
30
0.0
11
-0.023260
21
0.300429
31
0.0
0
LINE
8
0
6
CONTINUOUS
10
-0.012633
20
0.322575
30
0.0
11
-0.011491
21
0.322790
31
0.0
0
LINE
8
0
6
CONTINUOUS
10
0.008916
20
0.284979
30
0.0
11
0.009057
21
0.284359
31
0.0
0
LINE
8
0
6
CONTINUOUS
10
0.000534
20
0.285966
30
0.0
11
0.000620
21
0.285583
31
0.0
0
LINE
8
0
6
CONTINUOUS
10
-0.009419
20
0.288416
30
0.0
11
-0.009492
21
0.287744
31
0.0
0
LINE
8
0
6
CONTINUOUS
10
-0.015874
20
0.291623
30
0.0
11
-0.015065
21
0.291795
31
0.0
0
LINE
8
0
6
CONTINUOUS
10
-0.015874
20
0.291623
30
0.0
11
-0.015947
21
0.290940
31
0.0
0
LINE
8
0
6
CONTINUOUS
10
-0.025418
20
0.309931
30
0.0
11
-0.024178
21
0.310118
31
0.0
0
LINE
8
0
6
CONTINUOUS
10
0.002826
20
0.327104
30
0.0
11
0.002478
21
0.326493
31
0.0
0
LINE
8
0
6
CONTINUOUS
10
0.002826
20
0.327104
30
0.0
11
0.003722
21
0.327191
31
0.0
0
LINE
8
0
6
CONTINUOUS
10
0.004129
20
0.327236
30
0.0
11
0.004978
21
0.326573
31
0.0
0
LINE
8
0
6
CONTINUOUS
10
0.021309
20
0.327259
30
0.0
11
0.021977
21
0.326542
31
0.0
0
LINE
8
0
6
CONTINUOUS
10
0.028137
20
0.325520
30
0.0
11
0.027568
21
0.324859
31
0.0
0
LINE
8
0
6
CONTINUOUS
10
0.029459
20
0.325571
30
0.0
11
0.030127
21
0.324872
31
0.0
0
LINE
8
0
6
CONTINUOUS
10
0.010172
20
0.304824
30
0.0
11
0.009722
21
0.304465
31
0.0
0
LINE
8
0
6
CONTINUOUS
10
0.010756
20
0.305288
30
0.0
11
0.010172
21
0.304824
31
0.0
0
LINE
8
0
6
CONTINUOUS
10
0.011173
20
0.305621
30
0.0
11
0.011640
21
0.305594
31
0.0
0
LINE
8
0
6
CONTINUOUS
10
0.011173
20
0.305621
30
0.0
11
0.010756
21
0.305288
31
0.0
0
LINE
8
0
6
CONTINUOUS
10
0.011640
20
0.305594
30
0.0
11
0.012662
21
0.305537
31
0.0
0
LINE
8
0
6
CONTINUOUS
10
0.012662
20
0.305537
30
0.0
11
0.013634
21
0.305483
31
0.0
0
LINE
8
0
6
CONTINUOUS
10
0.013634
20
0.305483
30
0.0
11
0.013703
21
0.305394
31
0.0
0
LINE
8
0
6
CONTINUOUS
10
0.013703
20
0.305394
30
0.0
11
0.014141
21
0.304834
31
0.0
0
LINE
8
0
6
CONTINUOUS
10
0.020295
20
0.304089
30
0.0
11
0.021878
21
0.304045
31
0.0
0
LINE
8
0
6
CONTINUOUS
10
0.016949
20
0.300467
30
0.0
11
0.017599
21
0.299679
31
0.0
0
LINE
8
0
6
CONTINUOUS
10
0.001069
20
0.297595
30
0.0
11
0.002349
21
0.298099
31
0.0
0
LINE
8
0
6
CONTINUOUS
10
-0.002697
20
0.301946
30
0.0
11
-0.001238
21
0.301554
31
0.0
0
LINE
8
0
6
CONTINUOUS
10
-0.003863
20
0.306576
30
0.0
11
-0.002484
21
0.306085
31
0.0
0
LINE
8
0
6
CONTINUOUS
10
-0.003863
20
0.306576
30
0.0
11
-0.002484
21
0.306085
31
0.0
0
LINE
8
0
6
CONTINUOUS
10
0.005331
20
0.308590
30
0.0
11
0.006521
21
0.307944
31
0.0
0
LINE
8
0
6
CONTINUOUS
10
0.004376
20
0.313184
30
0.0
11
0.004283
21
0.313034
31
0.0
0
LINE
8
0
6
CONTINUOUS
10
0.013029
20
0.314283
30
0.0
11
0.012568
21
0.313521
31
0.0
0
LINE
8
0
6
CONTINUOUS
10
0.020922
20
0.312740
30
0.0
11
0.021233
21
0.312778
31
0.0
0
LINE
8
0
6
CONTINUOUS
10
0.018154
20
0.308404
30
0.0
11
0.017514
21
0.307524
31
0.0
0
LINE
8
0
6
CONTINUOUS
10
0.009286
20
0.292517
30
0.0
11
0.009460
21
0.291735
31
0.0
0
LINE
8
0
6
CONTINUOUS
10
-0.001302
20
0.294120
30
0.0
11
-0.000063
21
0.294559
31
0.0
0
LINE
8
0
6
CONTINUOUS
10
-0.007619
20
0.297516
30
0.0
11
-0.006380
21
0.297948
31
0.0
0
LINE
8
0
6
CONTINUOUS
10
-0.003976
20
0.301450
30
0.0
11
-0.003739
21
0.301533
31
0.0
0
LINE
8
0
6
CONTINUOUS
10
-0.005242
20
0.306180
30
0.0
11
-0.004357
21
0.306423
31
0.0
0
LINE
8
0
6
CONTINUOUS
10
-0.010799
20
0.307093
30
0.0
11
-0.009463
21
0.306566
31
0.0
0
LINE
8
0
6
CONTINUOUS
10
-0.010799
20
0.307093
30
0.0
11
-0.009463
21
0.306566
31
0.0
0
LINE
8
0
6
CONTINUOUS
10
-0.005242
20
0.306180
30
0.0
11
-0.004357
21
0.306423
31
0.0
0
LINE
8
0
6
CONTINUOUS
10
-0.008396
20
0.311847
30
0.0
11
-0.007060
21
0.311311
31
0.0
0
LINE
8
0
6
CONTINUOUS
10
-0.000683
20
0.311096
30
0.0
11
-0.000428
21
0.310994
31
0.0
0
LINE
8
0
6
CONTINUOUS
10
0.002867
20
0.318115
30
0.0
11
0.002338
21
0.317206
31
0.0
0
LINE
8
0
6
CONTINUOUS
10
0.006398
20
0.314102
30
0.0
11
0.006838
21
0.313761
31
0.0
0
LINE
8
0
6
CONTINUOUS
10
0.013114
20
0.314432
30
0.0
11
0.013029
21
0.314283
31
0.0
0
LINE
8
0
6
CONTINUOUS
10
0.014682
20
0.314623
30
0.0
11
0.015320
21
0.314143
31
0.0
0
LINE
8
0
6
CONTINUOUS
10
0.019428
20
0.318180
30
0.0
11
0.018900
21
0.317248
31
0.0
0
LINE
8
0
6
CONTINUOUS
10
0.026765
20
0.315574
30
0.0
11
0.026236
21
0.314652
31
0.0
0
LINE
8
0
6
CONTINUOUS
10
0.026765
20
0.315574
30
0.0
11
0.028282
21
0.315812
31
0.0
0
LINE
8
0
6
CONTINUOUS
10
0.009718
20
0.288750
30
0.0
11
0.009867
21
0.288063
31
0.0
0
LINE
8
0
6
CONTINUOUS
10
0.007152
20
0.285087
30
0.0
11
0.007696
21
0.285296
31
0.0
0
LINE
8
0
6
CONTINUOUS
10
0.001281
20
0.290002
30
0.0
11
0.001430
21
0.289309
31
0.0
0
LINE
8
0
6
CONTINUOUS
10
-0.001327
20
0.286333
30
0.0
11
-0.000741
21
0.286553
31
0.0
0
LINE
8
0
6
CONTINUOUS
10
-0.008687
20
0.288579
30
0.0
11
-0.008239
21
0.288689
31
0.0
0
LINE
8
0
6
CONTINUOUS
10
-0.015065
20
0.291795
30
0.0
11
-0.014694
21
0.291884
31
0.0
0
LINE
8
0
6
CONTINUOUS
10
-0.014694
20
0.291884
30
0.0
11
-0.013587
21
0.291459
31
0.0
0
LINE
8
0
6
CONTINUOUS
10
-0.008127
20
0.292448
30
0.0
11
-0.007064
21
0.292836
31
0.0
0
LINE
8
0
6
CONTINUOUS
10
-0.019849
20
0.295885
30
0.0
11
-0.018741
21
0.295446
31
0.0
0
LINE
8
0
6
CONTINUOUS
10
-0.011595
20
0.296096
30
0.0
11
-0.011446
21
0.295372
31
0.0
0
LINE
8
0
6
CONTINUOUS
10
-0.013871
20
0.296046
30
0.0
11
-0.012807
21
0.296433
31
0.0
0
LINE
8
0
6
CONTINUOUS
10
-0.023160
20
0.300387
30
0.0
11
-0.022152
21
0.299975
31
0.0
0
LINE
8
0
6
CONTINUOUS
10
-0.023631
20
0.309819
30
0.0
11
-0.023158
21
0.309570
31
0.0
0
LINE
8
0
6
CONTINUOUS
10
-0.017901
20
0.305751
30
0.0
11
-0.016755
21
0.305314
31
0.0
0
LINE
8
0
6
CONTINUOUS
10
-0.019046
20
0.305422
30
0.0
11
-0.017901
21
0.305751
31
0.0
0
LINE
8
0
6
CONTINUOUS
10
-0.017901
20
0.305751
30
0.0
11
-0.016755
21
0.305314
31
0.0
0
LINE
8
0
6
CONTINUOUS
10
-0.019046
20
0.305422
30
0.0
11
-0.017901
21
0.305751
31
0.0
0
LINE
8
0
6
CONTINUOUS
10
-0.021010
20
0.314478
30
0.0
11
-0.020603
21
0.314261
31
0.0
0
LINE
8
0
6
CONTINUOUS
10
-0.016743
20
0.310634
30
0.0
11
-0.015596
21
0.310192
31
0.0
0
LINE
8
0
6
CONTINUOUS
10
-0.016516
20
0.318736
30
0.0
11
-0.016260
21
0.318598
31
0.0
0
LINE
8
0
6
CONTINUOUS
10
-0.013438
20
0.315195
30
0.0
11
-0.012292
21
0.314753
31
0.0
0
LINE
8
0
6
CONTINUOUS
10
-0.000454
20
0.321815
30
0.0
11
0.000395
21
0.321172
31
0.0
0
LINE
8
0
6
CONTINUOUS
10
0.006091
20
0.323047
30
0.0
11
0.005637
21
0.322272
31
0.0
0
LINE
8
0
6
CONTINUOUS
10
0.007393
20
0.323186
30
0.0
11
0.008242
21
0.322550
31
0.0
0
LINE
8
0
6
CONTINUOUS
10
0.015025
20
0.323196
30
0.0
11
0.014572
21
0.322416
31
0.0
0
LINE
8
0
6
CONTINUOUS
10
0.027568
20
0.324859
30
0.0
11
0.027483
21
0.324764
31
0.0
0
LINE
8
0
6
CONTINUOUS
10
0.023366
20
0.322034
30
0.0
11
0.022912
21
0.321252
31
0.0
0
ENDSEC
0
EOF
