999
unknown String-ID: 20550
0
SECTION
2
HEADER
9
$ACADVER
1
AC1009
9
$DWGCODEPAGE
3
unknown String-ID: 20561
0
ENDSEC
0
SECTION
2
TABLES
0
TABLE
2
LAYER
70
1
0
LAYER
2
0
70
0
62
7
6
CONTINUOUS
0
ENDTAB
0
ENDSEC
0
SECTION
2
ENTITIES
0
LINE
8
0
6
CONTINUOUS
10
-0.078432
20
0.224214
30
0.0
11
-0.077789
21
0.229098
31
0.0
0
LINE
8
0
6
CONTINUOUS
10
-0.077789
20
0.219329
30
0.0
11
-0.078432
21
0.224214
31
0.0
0
LINE
8
0
6
CONTINUOUS
10
-0.078245
20
0.224206
30
0.0
11
-0.077789
21
0.219329
31
0.0
0
LINE
8
0
6
CONTINUOUS
10
-0.077789
20
0.219329
30
0.0
11
-0.075903
21
0.214778
31
0.0
0
LINE
8
0
6
CONTINUOUS
10
-0.075903
20
0.214778
30
0.0
11
-0.072904
21
0.210869
31
0.0
0
LINE
8
0
6
CONTINUOUS
10
-0.072904
20
0.210869
30
0.0
11
-0.068995
21
0.207870
31
0.0
0
LINE
8
0
6
CONTINUOUS
10
-0.068995
20
0.207870
30
0.0
11
-0.064443
21
0.205985
31
0.0
0
LINE
8
0
6
CONTINUOUS
10
-0.064443
20
0.205985
30
0.0
11
-0.059558
21
0.205341
31
0.0
0
LINE
8
0
6
CONTINUOUS
10
-0.059558
20
0.205341
30
0.0
11
-0.054674
21
0.205985
31
0.0
0
LINE
8
0
6
CONTINUOUS
10
-0.054674
20
0.205985
30
0.0
11
-0.050122
21
0.207870
31
0.0
0
LINE
8
0
6
CONTINUOUS
10
-0.050122
20
0.207870
30
0.0
11
-0.046213
21
0.210869
31
0.0
0
LINE
8
0
6
CONTINUOUS
10
-0.046213
20
0.210869
30
0.0
11
-0.043214
21
0.214778
31
0.0
0
LINE
8
0
6
CONTINUOUS
10
-0.043214
20
0.214778
30
0.0
11
-0.041328
21
0.219329
31
0.0
0
LINE
8
0
6
CONTINUOUS
10
-0.041328
20
0.219329
30
0.0
11
-0.040685
21
0.224214
31
0.0
0
LINE
8
0
6
CONTINUOUS
10
-0.040685
20
0.224214
30
0.0
11
-0.041328
21
0.229098
31
0.0
0
LINE
8
0
6
CONTINUOUS
10
-0.041328
20
0.229098
30
0.0
11
-0.043214
21
0.233650
31
0.0
0
LINE
8
0
6
CONTINUOUS
10
-0.043214
20
0.233650
30
0.0
11
-0.046213
21
0.237559
31
0.0
0
LINE
8
0
6
CONTINUOUS
10
-0.046213
20
0.237559
30
0.0
11
-0.050122
21
0.240558
31
0.0
0
LINE
8
0
6
CONTINUOUS
10
-0.050122
20
0.240558
30
0.0
11
-0.054674
21
0.242443
31
0.0
0
LINE
8
0
6
CONTINUOUS
10
-0.054674
20
0.242443
30
0.0
11
-0.059558
21
0.243086
31
0.0
0
LINE
8
0
6
CONTINUOUS
10
-0.059558
20
0.243086
30
0.0
11
-0.064443
21
0.242443
31
0.0
0
LINE
8
0
6
CONTINUOUS
10
-0.064443
20
0.242443
30
0.0
11
-0.068995
21
0.240558
31
0.0
0
LINE
8
0
6
CONTINUOUS
10
-0.068995
20
0.240558
30
0.0
11
-0.072904
21
0.237559
31
0.0
0
LINE
8
0
6
CONTINUOUS
10
-0.072904
20
0.237559
30
0.0
11
-0.075903
21
0.233650
31
0.0
0
LINE
8
0
6
CONTINUOUS
10
-0.075903
20
0.233650
30
0.0
11
-0.077789
21
0.229098
31
0.0
0
LINE
8
0
6
CONTINUOUS
10
-0.047409
20
0.248168
30
0.0
11
-0.047572
21
0.247401
31
0.0
0
LINE
8
0
6
CONTINUOUS
10
-0.047451
20
0.248951
30
0.0
11
-0.047409
21
0.248168
31
0.0
0
LINE
8
0
6
CONTINUOUS
10
-0.047694
20
0.249697
30
0.0
11
-0.047451
21
0.248951
31
0.0
0
LINE
8
0
6
CONTINUOUS
10
-0.048122
20
0.250354
30
0.0
11
-0.047694
21
0.249697
31
0.0
0
LINE
8
0
6
CONTINUOUS
10
-0.048705
20
0.250878
30
0.0
11
-0.048122
21
0.250354
31
0.0
0
LINE
8
0
6
CONTINUOUS
10
-0.049403
20
0.251233
30
0.0
11
-0.048724
21
0.250888
31
0.0
0
LINE
8
0
6
CONTINUOUS
10
-0.050170
20
0.251395
30
0.0
11
-0.049403
21
0.251233
31
0.0
0
LINE
8
0
6
CONTINUOUS
10
-0.047594
20
0.247401
30
0.0
11
-0.047433
21
0.248167
31
0.0
0
LINE
8
0
6
CONTINUOUS
10
-0.047433
20
0.248167
30
0.0
11
-0.047477
21
0.248948
31
0.0
0
LINE
8
0
6
CONTINUOUS
10
-0.047477
20
0.248948
30
0.0
11
-0.047721
21
0.249693
31
0.0
0
LINE
8
0
6
CONTINUOUS
10
-0.047721
20
0.249693
30
0.0
11
-0.048150
21
0.250349
31
0.0
0
LINE
8
0
6
CONTINUOUS
10
-0.048150
20
0.250349
30
0.0
11
-0.048724
21
0.250863
31
0.0
0
LINE
8
0
6
CONTINUOUS
10
-0.048734
20
0.250872
30
0.0
11
-0.049433
21
0.251226
31
0.0
0
LINE
8
0
6
CONTINUOUS
10
-0.049433
20
0.251226
30
0.0
11
-0.050201
21
0.251388
31
0.0
0
LINE
8
0
6
CONTINUOUS
10
-0.050201
20
0.251388
30
0.0
11
-0.050983
21
0.251345
31
0.0
0
LINE
8
0
6
CONTINUOUS
10
-0.050983
20
0.251345
30
0.0
11
-0.051728
21
0.251103
31
0.0
0
LINE
8
0
6
CONTINUOUS
10
-0.051728
20
0.251103
30
0.0
11
-0.052384
21
0.250675
31
0.0
0
LINE
8
0
6
CONTINUOUS
10
-0.052384
20
0.250675
30
0.0
11
-0.052907
21
0.250093
31
0.0
0
LINE
8
0
6
CONTINUOUS
10
-0.052907
20
0.250093
30
0.0
11
-0.053261
21
0.249395
31
0.0
0
LINE
8
0
6
CONTINUOUS
10
-0.050015
20
0.240476
30
0.0
11
-0.047572
21
0.247401
31
0.0
0
LINE
8
0
6
CONTINUOUS
10
-0.050956
20
0.251353
30
0.0
11
-0.050174
21
0.251395
31
0.0
0
LINE
8
0
6
CONTINUOUS
10
-0.050025
20
0.240483
30
0.0
11
-0.047594
21
0.247401
31
0.0
0
LINE
8
0
6
CONTINUOUS
10
-0.041029
20
0.228175
30
0.0
11
-0.041579
21
0.230202
31
0.0
0
LINE
8
0
6
CONTINUOUS
10
-0.041858
20
0.231048
30
0.0
11
-0.041835
21
0.231005
31
0.0
0
LINE
8
0
6
CONTINUOUS
10
-0.041029
20
0.228175
30
0.0
11
-0.041858
21
0.231048
31
0.0
0
LINE
8
0
6
CONTINUOUS
10
-0.042158
20
0.231714
30
0.0
11
-0.041858
21
0.231048
31
0.0
0
LINE
8
0
6
CONTINUOUS
10
-0.078088
20
0.220253
30
0.0
11
-0.077267
21
0.217405
31
0.0
0
LINE
8
0
6
CONTINUOUS
10
-0.077267
20
0.217405
30
0.0
11
-0.077227
21
0.217273
31
0.0
0
LINE
8
0
6
CONTINUOUS
10
-0.078088
20
0.220253
30
0.0
11
-0.077163
21
0.217168
31
0.0
0
LINE
8
0
6
CONTINUOUS
10
-0.076959
20
0.216714
30
0.0
11
-0.077163
21
0.217168
31
0.0
0
LINE
8
0
6
CONTINUOUS
10
-0.077079
20
0.217006
30
0.0
11
-0.077227
21
0.217273
31
0.0
0
LINE
8
0
6
CONTINUOUS
10
-0.040613
20
0.224484
30
0.0
11
-0.041029
21
0.228175
31
0.0
0
LINE
8
0
6
CONTINUOUS
10
-0.041644
20
0.230102
30
0.0
11
-0.042158
21
0.231714
31
0.0
0
LINE
8
0
6
CONTINUOUS
10
-0.070309
20
0.239816
30
0.0
11
-0.073146
21
0.237419
31
0.0
0
LINE
8
0
6
CONTINUOUS
10
-0.043656
20
0.213913
30
0.0
11
-0.041951
21
0.217214
31
0.0
0
LINE
8
0
6
CONTINUOUS
10
-0.040924
20
0.220783
30
0.0
11
-0.040613
21
0.224484
31
0.0
0
LINE
8
0
6
CONTINUOUS
10
-0.062990
20
0.205580
30
0.0
11
-0.059289
21
0.205269
31
0.0
0
LINE
8
0
6
CONTINUOUS
10
-0.046352
20
0.237801
30
0.0
11
-0.049257
21
0.240116
31
0.0
0
LINE
8
0
6
CONTINUOUS
10
-0.059828
20
0.243159
30
0.0
11
-0.063519
21
0.242742
31
0.0
0
LINE
8
0
6
CONTINUOUS
10
-0.055598
20
0.205685
30
0.0
11
-0.052059
21
0.206814
31
0.0
0
LINE
8
0
6
CONTINUOUS
10
-0.077165
20
0.231214
30
0.0
11
-0.078193
21
0.227645
31
0.0
0
LINE
8
0
6
CONTINUOUS
10
-0.073146
20
0.237419
30
0.0
11
-0.075461
21
0.234514
31
0.0
0
LINE
8
0
6
CONTINUOUS
10
-0.042158
20
0.231714
30
0.0
11
-0.043955
21
0.234964
31
0.0
0
LINE
8
0
6
CONTINUOUS
10
-0.066559
20
0.206607
30
0.0
11
-0.062990
21
0.205580
31
0.0
0
LINE
8
0
6
CONTINUOUS
10
-0.041951
20
0.217214
30
0.0
11
-0.040924
21
0.220783
31
0.0
0
LINE
8
0
6
CONTINUOUS
10
-0.069860
20
0.208311
30
0.0
11
-0.066559
21
0.206607
31
0.0
0
LINE
8
0
6
CONTINUOUS
10
-0.045971
20
0.211009
30
0.0
11
-0.043656
21
0.213913
31
0.0
0
LINE
8
0
6
CONTINUOUS
10
-0.067058
20
0.241613
30
0.0
11
-0.070309
21
0.239816
31
0.0
0
LINE
8
0
6
CONTINUOUS
10
-0.072765
20
0.210626
30
0.0
11
-0.069860
21
0.208311
31
0.0
0
LINE
8
0
6
CONTINUOUS
10
-0.078504
20
0.223943
30
0.0
11
-0.078088
21
0.220253
31
0.0
0
LINE
8
0
6
CONTINUOUS
10
-0.075162
20
0.213464
30
0.0
11
-0.072765
21
0.210626
31
0.0
0
LINE
8
0
6
CONTINUOUS
10
-0.075461
20
0.234514
30
0.0
11
-0.077165
21
0.231214
31
0.0
0
LINE
8
0
6
CONTINUOUS
10
-0.049257
20
0.240116
30
0.0
11
-0.050005
21
0.240503
31
0.0
0
LINE
8
0
6
CONTINUOUS
10
-0.078088
20
0.220253
30
0.0
11
-0.076959
21
0.216714
31
0.0
0
LINE
8
0
6
CONTINUOUS
10
-0.078193
20
0.227645
30
0.0
11
-0.078504
21
0.223943
31
0.0
0
LINE
8
0
6
CONTINUOUS
10
-0.056127
20
0.242848
30
0.0
11
-0.059828
21
0.243159
31
0.0
0
LINE
8
0
6
CONTINUOUS
10
-0.043955
20
0.234964
30
0.0
11
-0.046352
21
0.237801
31
0.0
0
LINE
8
0
6
CONTINUOUS
10
-0.063519
20
0.242742
30
0.0
11
-0.067058
21
0.241613
31
0.0
0
LINE
8
0
6
CONTINUOUS
10
-0.059289
20
0.205269
30
0.0
11
-0.055598
21
0.205685
31
0.0
0
LINE
8
0
6
CONTINUOUS
10
-0.076959
20
0.216714
30
0.0
11
-0.075162
21
0.213464
31
0.0
0
LINE
8
0
6
CONTINUOUS
10
-0.048808
20
0.208612
30
0.0
11
-0.045971
21
0.211009
31
0.0
0
LINE
8
0
6
CONTINUOUS
10
-0.052059
20
0.206814
30
0.0
11
-0.048808
21
0.208612
31
0.0
0
LINE
8
0
6
CONTINUOUS
10
-0.055600
20
0.242696
30
0.0
11
-0.056127
21
0.242848
31
0.0
0
LINE
8
0
6
CONTINUOUS
10
-0.049124
20
-0.427500
30
0.0
11
-0.048724
21
-0.427500
31
0.0
0
LINE
8
0
6
CONTINUOUS
10
-0.059725
20
-0.479500
30
0.0
11
-0.121250
21
-0.479500
31
0.0
0
LINE
8
0
6
CONTINUOUS
10
-0.056925
20
-0.479500
30
0.0
11
-0.059725
21
-0.479500
31
0.0
0
LINE
8
0
6
CONTINUOUS
10
-0.054225
20
-0.479500
30
0.0
11
-0.056925
21
-0.479500
31
0.0
0
LINE
8
0
6
CONTINUOUS
10
-0.051925
20
-0.479500
30
0.0
11
-0.054225
21
-0.479500
31
0.0
0
LINE
8
0
6
CONTINUOUS
10
-0.050224
20
-0.479500
30
0.0
11
-0.051925
21
-0.479500
31
0.0
0
LINE
8
0
6
CONTINUOUS
10
-0.049124
20
-0.479500
30
0.0
11
-0.050224
21
-0.479500
31
0.0
0
LINE
8
0
6
CONTINUOUS
10
-0.048724
20
-0.479500
30
0.0
11
-0.049124
21
-0.479500
31
0.0
0
LINE
8
0
6
CONTINUOUS
10
-0.049124
20
-0.427500
30
0.0
11
-0.050224
21
-0.427500
31
0.0
0
LINE
8
0
6
CONTINUOUS
10
-0.050224
20
-0.427500
30
0.0
11
-0.051925
21
-0.427500
31
0.0
0
LINE
8
0
6
CONTINUOUS
10
-0.054225
20
-0.427500
30
0.0
11
-0.056925
21
-0.427500
31
0.0
0
LINE
8
0
6
CONTINUOUS
10
-0.048724
20
-0.478946
30
0.0
11
-0.048724
21
-0.479500
31
0.0
0
LINE
8
0
6
CONTINUOUS
10
-0.056925
20
-0.427500
30
0.0
11
-0.059725
21
-0.427500
31
0.0
0
LINE
8
0
6
CONTINUOUS
10
-0.051925
20
-0.427500
30
0.0
11
-0.054225
21
-0.427500
31
0.0
0
LINE
8
0
6
CONTINUOUS
10
-0.048724
20
0.478792
30
0.0
11
-0.048724
21
0.479500
31
0.0
0
LINE
8
0
6
CONTINUOUS
10
-0.059725
20
0.479500
30
0.0
11
-0.056925
21
0.479500
31
0.0
0
LINE
8
0
6
CONTINUOUS
10
-0.056925
20
0.479500
30
0.0
11
-0.054225
21
0.479500
31
0.0
0
LINE
8
0
6
CONTINUOUS
10
-0.054225
20
0.479500
30
0.0
11
-0.051925
21
0.479500
31
0.0
0
LINE
8
0
6
CONTINUOUS
10
-0.051925
20
0.479500
30
0.0
11
-0.050224
21
0.479500
31
0.0
0
LINE
8
0
6
CONTINUOUS
10
-0.050224
20
0.479500
30
0.0
11
-0.049124
21
0.479500
31
0.0
0
LINE
8
0
6
CONTINUOUS
10
-0.049124
20
0.479500
30
0.0
11
-0.048724
21
0.479500
31
0.0
0
LINE
8
0
6
CONTINUOUS
10
-0.048724
20
-0.427000
30
0.0
11
-0.049224
21
-0.427500
31
0.0
0
LINE
8
0
6
CONTINUOUS
10
-0.048724
20
0.427000
30
0.0
11
-0.048724
21
0.426687
31
0.0
0
LINE
8
0
6
CONTINUOUS
10
-0.049224
20
0.427500
30
0.0
11
-0.048724
21
0.427000
31
0.0
0
LINE
8
0
6
CONTINUOUS
10
-0.070726
20
0.427000
30
0.0
11
-0.070225
21
0.427500
31
0.0
0
LINE
8
0
6
CONTINUOUS
10
-0.070726
20
-0.427000
30
0.0
11
-0.070225
21
-0.427500
31
0.0
0
LINE
8
0
6
CONTINUOUS
10
-0.070726
20
0.427000
30
0.0
11
-0.070726
21
0.426687
31
0.0
0
LINE
8
0
6
CONTINUOUS
10
-0.059725
20
0.427500
30
0.0
11
-0.056925
21
0.427500
31
0.0
0
LINE
8
0
6
CONTINUOUS
10
-0.056925
20
0.427500
30
0.0
11
-0.054225
21
0.427500
31
0.0
0
LINE
8
0
6
CONTINUOUS
10
-0.054225
20
0.427500
30
0.0
11
-0.051925
21
0.427500
31
0.0
0
LINE
8
0
6
CONTINUOUS
10
-0.051925
20
0.427500
30
0.0
11
-0.050224
21
0.427500
31
0.0
0
LINE
8
0
6
CONTINUOUS
10
-0.050224
20
0.427500
30
0.0
11
-0.049124
21
0.427500
31
0.0
0
LINE
8
0
6
CONTINUOUS
10
-0.048724
20
0.427500
30
0.0
11
-0.048724
21
0.428208
31
0.0
0
LINE
8
0
6
CONTINUOUS
10
-0.049124
20
0.427500
30
0.0
11
-0.048724
21
0.427500
31
0.0
0
LINE
8
0
6
CONTINUOUS
10
-0.048724
20
0.428208
30
0.0
11
-0.048724
21
0.478792
31
0.0
0
LINE
8
0
6
CONTINUOUS
10
-0.121750
20
0.479500
30
0.0
11
-0.121750
21
0.478792
31
0.0
0
LINE
8
0
6
CONTINUOUS
10
-0.059725
20
0.427500
30
0.0
11
-0.121250
21
0.427500
31
0.0
0
LINE
8
0
6
CONTINUOUS
10
-0.121750
20
0.428208
30
0.0
11
-0.121750
21
0.427500
31
0.0
0
LINE
8
0
6
CONTINUOUS
10
-0.121750
20
0.478792
30
0.0
11
-0.121750
21
0.428208
31
0.0
0
LINE
8
0
6
CONTINUOUS
10
-0.048724
20
0.426687
30
0.0
11
-0.048724
21
0.426145
31
0.0
0
LINE
8
0
6
CONTINUOUS
10
-0.070726
20
0.426687
30
0.0
11
-0.070726
21
0.426145
31
0.0
0
LINE
8
0
6
CONTINUOUS
10
-0.048724
20
-0.427500
30
0.0
11
-0.048724
21
-0.428054
31
0.0
0
LINE
8
0
6
CONTINUOUS
10
-0.048724
20
-0.428054
30
0.0
11
-0.048724
21
-0.478946
31
0.0
0
LINE
8
0
6
CONTINUOUS
10
-0.121750
20
-0.427500
30
0.0
11
-0.121750
21
-0.428054
31
0.0
0
LINE
8
0
6
CONTINUOUS
10
-0.121750
20
-0.428054
30
0.0
11
-0.121750
21
-0.478946
31
0.0
0
LINE
8
0
6
CONTINUOUS
10
-0.121750
20
-0.479500
30
0.0
11
-0.121250
21
-0.479500
31
0.0
0
LINE
8
0
6
CONTINUOUS
10
-0.121750
20
-0.478946
30
0.0
11
-0.121750
21
-0.479500
31
0.0
0
LINE
8
0
6
CONTINUOUS
10
-0.121250
20
-0.427500
30
0.0
11
-0.059725
21
-0.427500
31
0.0
0
LINE
8
0
6
CONTINUOUS
10
-0.121750
20
-0.427500
30
0.0
11
-0.121250
21
-0.427500
31
0.0
0
LINE
8
0
6
CONTINUOUS
10
-0.048724
20
-0.427000
30
0.0
11
-0.048724
21
-0.426786
31
0.0
0
LINE
8
0
6
CONTINUOUS
10
-0.070726
20
-0.427000
30
0.0
11
-0.070726
21
-0.426786
31
0.0
0
LINE
8
0
6
CONTINUOUS
10
-0.048724
20
0.426145
30
0.0
11
-0.048724
21
0.250888
31
0.0
0
LINE
8
0
6
CONTINUOUS
10
-0.048724
20
0.244134
30
0.0
11
-0.048724
21
0.239692
31
0.0
0
LINE
8
0
6
CONTINUOUS
10
-0.048724
20
0.208683
30
0.0
11
-0.048724
21
-0.426206
31
0.0
0
LINE
8
0
6
CONTINUOUS
10
-0.070726
20
0.426145
30
0.0
11
-0.070726
21
0.239464
31
0.0
0
LINE
8
0
6
CONTINUOUS
10
-0.070726
20
0.209001
30
0.0
11
-0.070726
21
-0.426206
31
0.0
0
LINE
8
0
6
CONTINUOUS
10
-0.048724
20
-0.426206
30
0.0
11
-0.048724
21
-0.426786
31
0.0
0
LINE
8
0
6
CONTINUOUS
10
-0.070726
20
-0.426206
30
0.0
11
-0.070726
21
-0.426786
31
0.0
0
LINE
8
0
6
CONTINUOUS
10
-0.121250
20
0.427500
30
0.0
11
-0.121750
21
0.427500
31
0.0
0
LINE
8
0
6
CONTINUOUS
10
-0.121250
20
0.479500
30
0.0
11
-0.059725
21
0.479500
31
0.0
0
LINE
8
0
6
CONTINUOUS
10
-0.121750
20
0.479500
30
0.0
11
-0.121250
21
0.479500
31
0.0
0
LINE
8
0
6
CONTINUOUS
10
-0.074741
20
0.212966
30
0.0
11
-0.077733
21
0.207415
31
0.0
0
LINE
8
0
6
CONTINUOUS
10
-0.071915
20
0.182081
30
0.0
11
-0.070726
21
0.184627
31
0.0
0
LINE
8
0
6
CONTINUOUS
10
-0.077733
20
0.207415
30
0.0
11
-0.086635
21
0.188350
31
0.0
0
LINE
8
0
6
CONTINUOUS
10
-0.078394
20
0.165299
30
0.0
11
-0.071915
21
0.182081
31
0.0
0
LINE
8
0
6
CONTINUOUS
10
-0.086635
20
0.188350
30
0.0
11
-0.093530
21
0.170482
31
0.0
0
LINE
8
0
6
CONTINUOUS
10
-0.083154
20
0.149438
30
0.0
11
-0.078394
21
0.165299
31
0.0
0
LINE
8
0
6
CONTINUOUS
10
-0.093530
20
0.170482
30
0.0
11
-0.098649
21
0.153424
31
0.0
0
LINE
8
0
6
CONTINUOUS
10
-0.086471
20
0.134028
30
0.0
11
-0.083154
21
0.149438
31
0.0
0
LINE
8
0
6
CONTINUOUS
10
-0.098649
20
0.153424
30
0.0
11
-0.102227
21
0.136810
31
0.0
0
LINE
8
0
6
CONTINUOUS
10
-0.088606
20
0.118589
30
0.0
11
-0.086471
21
0.134028
31
0.0
0
LINE
8
0
6
CONTINUOUS
10
-0.102227
20
0.136810
30
0.0
11
-0.104515
21
0.120287
31
0.0
0
LINE
8
0
6
CONTINUOUS
10
-0.089803
20
0.102652
30
0.0
11
-0.088606
21
0.118589
31
0.0
0
LINE
8
0
6
CONTINUOUS
10
-0.104515
20
0.120287
30
0.0
11
-0.105781
21
0.103488
31
0.0
0
LINE
8
0
6
CONTINUOUS
10
-0.090300
20
0.085771
30
0.0
11
-0.089803
21
0.102652
31
0.0
0
LINE
8
0
6
CONTINUOUS
10
-0.105781
20
0.103488
30
0.0
11
-0.106298
21
0.086024
31
0.0
0
LINE
8
0
6
CONTINUOUS
10
-0.090337
20
0.067530
30
0.0
11
-0.090300
21
0.085771
31
0.0
0
LINE
8
0
6
CONTINUOUS
10
-0.106298
20
0.086024
30
0.0
11
-0.106336
21
0.067477
31
0.0
0
LINE
8
0
6
CONTINUOUS
10
-0.090162
20
0.047558
30
0.0
11
-0.090337
21
0.067530
31
0.0
0
LINE
8
0
6
CONTINUOUS
10
-0.106336
20
0.067477
30
0.0
11
-0.106161
21
0.047384
31
0.0
0
LINE
8
0
6
CONTINUOUS
10
-0.089557
20
0.000857
30
0.0
11
-0.090162
21
0.047558
31
0.0
0
LINE
8
0
6
CONTINUOUS
10
-0.106161
20
0.047384
30
0.0
11
-0.105555
21
0.000614
31
0.0
0
LINE
8
0
6
CONTINUOUS
10
-0.088575
20
-0.055465
30
0.0
11
-0.089557
21
0.000857
31
0.0
0
LINE
8
0
6
CONTINUOUS
10
-0.105555
20
0.000614
30
0.0
11
-0.104572
21
-0.055764
31
0.0
0
LINE
8
0
6
CONTINUOUS
10
-0.087320
20
-0.118305
30
0.0
11
-0.088575
21
-0.055465
31
0.0
0
LINE
8
0
6
CONTINUOUS
10
-0.104572
20
-0.055764
30
0.0
11
-0.103317
21
-0.118637
31
0.0
0
LINE
8
0
6
CONTINUOUS
10
-0.085896
20
-0.184549
30
0.0
11
-0.087320
21
-0.118305
31
0.0
0
LINE
8
0
6
CONTINUOUS
10
-0.103317
20
-0.118637
30
0.0
11
-0.101892
21
-0.184900
31
0.0
0
LINE
8
0
6
CONTINUOUS
10
-0.084406
20
-0.251086
30
0.0
11
-0.085896
21
-0.184549
31
0.0
0
LINE
8
0
6
CONTINUOUS
10
-0.101892
20
-0.184900
30
0.0
11
-0.100402
21
-0.251448
31
0.0
0
LINE
8
0
6
CONTINUOUS
10
-0.082954
20
-0.314807
30
0.0
11
-0.084406
21
-0.251086
31
0.0
0
LINE
8
0
6
CONTINUOUS
10
-0.100402
20
-0.251448
30
0.0
11
-0.098949
21
-0.315171
31
0.0
0
LINE
8
0
6
CONTINUOUS
10
-0.081644
20
-0.372604
30
0.0
11
-0.082954
21
-0.314807
31
0.0
0
LINE
8
0
6
CONTINUOUS
10
-0.098949
20
-0.315171
30
0.0
11
-0.097640
21
-0.372960
31
0.0
0
LINE
8
0
6
CONTINUOUS
10
-0.080579
20
-0.421372
30
0.0
11
-0.081644
21
-0.372604
31
0.0
0
LINE
8
0
6
CONTINUOUS
10
-0.097640
20
-0.372960
30
0.0
11
-0.096576
21
-0.421703
31
0.0
0
LINE
8
0
6
CONTINUOUS
10
-0.080459
20
-0.427500
30
0.0
11
-0.080579
21
-0.421372
31
0.0
0
LINE
8
0
6
CONTINUOUS
10
-0.096576
20
-0.421703
30
0.0
11
-0.096463
21
-0.427500
31
0.0
0
LINE
8
0
6
CONTINUOUS
10
-0.041579
20
0.230202
30
0.0
11
-0.036843
21
0.237434
31
0.0
0
LINE
8
0
6
CONTINUOUS
10
-0.035837
20
0.239169
30
0.0
11
-0.035790
21
0.239249
31
0.0
0
LINE
8
0
6
CONTINUOUS
10
-0.036843
20
0.237434
30
0.0
11
-0.035837
21
0.239169
31
0.0
0
LINE
8
0
6
CONTINUOUS
10
0.028524
20
0.331305
30
0.0
11
0.037363
21
0.341716
31
0.0
0
LINE
8
0
6
CONTINUOUS
10
0.021678
20
0.340343
30
0.0
11
0.019431
21
0.343553
31
0.0
0
LINE
8
0
6
CONTINUOUS
10
0.027142
20
0.332524
30
0.0
11
0.026960
21
0.332784
31
0.0
0
LINE
8
0
6
CONTINUOUS
10
0.028387
20
0.326581
30
0.0
11
0.028614
21
0.326897
31
0.0
0
LINE
8
0
6
CONTINUOUS
10
0.029540
20
0.357575
30
0.0
11
0.018453
21
0.345715
31
0.0
0
LINE
8
0
6
CONTINUOUS
10
-0.043108
20
0.243428
30
0.0
11
-0.042428
21
0.243034
31
0.0
0
LINE
8
0
6
CONTINUOUS
10
-0.042428
20
0.243034
30
0.0
11
-0.039582
21
0.241385
31
0.0
0
LINE
8
0
6
CONTINUOUS
10
-0.039582
20
0.241385
30
0.0
11
-0.037638
21
0.240269
31
0.0
0
LINE
8
0
6
CONTINUOUS
10
-0.037440
20
0.240156
30
0.0
11
-0.036176
21
0.239438
31
0.0
0
LINE
8
0
6
CONTINUOUS
10
-0.034955
20
0.238765
30
0.0
11
-0.034516
21
0.239374
31
0.0
0
LINE
8
0
6
CONTINUOUS
10
-0.035233
20
0.238908
30
0.0
11
-0.034955
21
0.238765
31
0.0
0
LINE
8
0
6
CONTINUOUS
10
-0.036176
20
0.239438
30
0.0
11
-0.035233
21
0.238908
31
0.0
0
LINE
8
0
6
CONTINUOUS
10
0.017800
20
0.345592
30
0.0
11
0.016659
21
0.345995
31
0.0
0
LINE
8
0
6
CONTINUOUS
10
0.016659
20
0.345995
30
0.0
11
0.015874
21
0.344986
31
0.0
0
LINE
8
0
6
CONTINUOUS
10
0.028614
20
0.326897
30
0.0
11
0.029342
21
0.327906
31
0.0
0
LINE
8
0
6
CONTINUOUS
10
0.028852
20
0.330055
30
0.0
11
0.028737
21
0.330224
31
0.0
0
LINE
8
0
6
CONTINUOUS
10
0.028940
20
0.329665
30
0.0
11
0.028852
21
0.330055
31
0.0
0
LINE
8
0
6
CONTINUOUS
10
0.015874
20
0.344986
30
0.0
11
0.015613
21
0.344652
31
0.0
0
LINE
8
0
6
CONTINUOUS
10
0.028224
20
0.330952
30
0.0
11
0.028524
21
0.331305
31
0.0
0
LINE
8
0
6
CONTINUOUS
10
0.018453
20
0.345715
30
0.0
11
0.018140
21
0.345379
31
0.0
0
LINE
8
0
6
CONTINUOUS
10
-0.047995
20
0.246263
30
0.0
11
-0.043108
21
0.243428
31
0.0
0
LINE
8
0
6
CONTINUOUS
10
-0.037638
20
0.240269
30
0.0
11
-0.037440
21
0.240156
31
0.0
0
LINE
8
0
6
CONTINUOUS
10
-0.034516
20
0.239374
30
0.0
11
0.028387
21
0.326581
31
0.0
0
LINE
8
0
6
CONTINUOUS
10
0.015613
20
0.344652
30
0.0
11
-0.048724
21
0.262003
31
0.0
0
LINE
8
0
6
CONTINUOUS
10
0.018053
20
0.345503
30
0.0
11
0.017800
21
0.345592
31
0.0
0
LINE
8
0
6
CONTINUOUS
10
0.018247
20
0.345234
30
0.0
11
0.018053
21
0.345503
31
0.0
0
LINE
8
0
6
CONTINUOUS
10
0.018720
20
0.344563
30
0.0
11
0.018247
21
0.345234
31
0.0
0
LINE
8
0
6
CONTINUOUS
10
0.019431
20
0.343553
30
0.0
11
0.018720
21
0.344563
31
0.0
0
LINE
8
0
6
CONTINUOUS
10
0.027861
20
0.331490
30
0.0
11
0.027142
21
0.332524
31
0.0
0
LINE
8
0
6
CONTINUOUS
10
0.027932
20
0.331388
30
0.0
11
0.027861
21
0.331490
31
0.0
0
LINE
8
0
6
CONTINUOUS
10
0.028737
20
0.330224
30
0.0
11
0.028384
21
0.330737
31
0.0
0
LINE
8
0
6
CONTINUOUS
10
0.029342
20
0.327906
30
0.0
11
0.028940
21
0.329665
31
0.0
0
LINE
8
0
6
CONTINUOUS
10
0.028384
20
0.330737
30
0.0
11
0.027932
21
0.331388
31
0.0
0
LINE
8
0
6
CONTINUOUS
10
0.120617
20
0.387698
30
0.0
11
0.120142
21
0.388700
31
0.0
0
LINE
8
0
6
CONTINUOUS
10
0.119704
20
0.386940
30
0.0
11
0.120617
21
0.387698
31
0.0
0
LINE
8
0
6
CONTINUOUS
10
0.117062
20
0.385176
30
0.0
11
0.119704
21
0.386940
31
0.0
0
LINE
8
0
6
CONTINUOUS
10
0.100050
20
0.373013
30
0.0
11
0.106949
21
0.377875
31
0.0
0
LINE
8
0
6
CONTINUOUS
10
0.092354
20
0.367603
30
0.0
11
0.100050
21
0.373013
31
0.0
0
LINE
8
0
6
CONTINUOUS
10
0.084246
20
0.361915
30
0.0
11
0.092354
21
0.367603
31
0.0
0
LINE
8
0
6
CONTINUOUS
10
0.055647
20
0.342021
30
0.0
11
0.061369
21
0.346068
31
0.0
0
LINE
8
0
6
CONTINUOUS
10
0.051278
20
0.339002
30
0.0
11
0.055647
21
0.342021
31
0.0
0
LINE
8
0
6
CONTINUOUS
10
0.048466
20
0.337152
30
0.0
11
0.051278
21
0.339002
31
0.0
0
LINE
8
0
6
CONTINUOUS
10
0.046833
20
0.337325
30
0.0
11
0.047612
21
0.336537
31
0.0
0
LINE
8
0
6
CONTINUOUS
10
0.047612
20
0.336537
30
0.0
11
0.048466
21
0.337152
31
0.0
0
LINE
8
0
6
CONTINUOUS
10
0.119642
20
0.398578
30
0.0
11
0.115524
21
0.404010
31
0.0
0
LINE
8
0
6
CONTINUOUS
10
0.037363
20
0.341716
30
0.0
11
0.037718
21
0.341166
31
0.0
0
LINE
8
0
6
CONTINUOUS
10
0.115524
20
0.404010
30
0.0
11
0.113274
21
0.406441
31
0.0
0
LINE
8
0
6
CONTINUOUS
10
0.110877
20
0.408761
30
0.0
11
0.108336
21
0.410933
31
0.0
0
LINE
8
0
6
CONTINUOUS
10
0.106169
20
0.412337
30
0.0
11
0.106044
21
0.412353
31
0.0
0
LINE
8
0
6
CONTINUOUS
10
0.106044
20
0.412353
30
0.0
11
0.105161
21
0.412429
31
0.0
0
LINE
8
0
6
CONTINUOUS
10
0.105161
20
0.412429
30
0.0
11
0.104744
21
0.412443
31
0.0
0
LINE
8
0
6
CONTINUOUS
10
0.029411
20
0.358649
30
0.0
11
0.029383
21
0.358526
31
0.0
0
LINE
8
0
6
CONTINUOUS
10
0.029640
20
0.359505
30
0.0
11
0.029411
21
0.358649
31
0.0
0
LINE
8
0
6
CONTINUOUS
10
0.029770
20
0.359902
30
0.0
11
0.029640
21
0.359505
31
0.0
0
LINE
8
0
6
CONTINUOUS
10
0.113274
20
0.406441
30
0.0
11
0.110877
21
0.408761
31
0.0
0
LINE
8
0
6
CONTINUOUS
10
0.041964
20
0.343732
30
0.0
11
0.046865
21
0.347118
31
0.0
0
LINE
8
0
6
CONTINUOUS
10
0.069815
20
0.363112
30
0.0
11
0.078932
21
0.369495
31
0.0
0
LINE
8
0
6
CONTINUOUS
10
0.104447
20
0.387431
30
0.0
11
0.110916
21
0.392005
31
0.0
0
LINE
8
0
6
CONTINUOUS
10
0.046865
20
0.347118
30
0.0
11
0.053369
21
0.351636
31
0.0
0
LINE
8
0
6
CONTINUOUS
10
0.110916
20
0.392005
30
0.0
11
0.115775
21
0.395458
31
0.0
0
LINE
8
0
6
CONTINUOUS
10
0.078932
20
0.369495
30
0.0
11
0.088044
21
0.375887
31
0.0
0
LINE
8
0
6
CONTINUOUS
10
0.037859
20
0.340966
30
0.0
11
0.038910
21
0.341646
31
0.0
0
LINE
8
0
6
CONTINUOUS
10
0.037718
20
0.341166
30
0.0
11
0.037859
21
0.340966
31
0.0
0
LINE
8
0
6
CONTINUOUS
10
0.053369
20
0.351636
30
0.0
11
0.061148
21
0.357058
31
0.0
0
LINE
8
0
6
CONTINUOUS
10
0.088044
20
0.375887
30
0.0
11
0.096694
21
0.381968
31
0.0
0
LINE
8
0
6
CONTINUOUS
10
0.115775
20
0.395458
30
0.0
11
0.118780
21
0.397618
31
0.0
0
LINE
8
0
6
CONTINUOUS
10
0.038910
20
0.341646
30
0.0
11
0.041964
21
0.343732
31
0.0
0
LINE
8
0
6
CONTINUOUS
10
0.118780
20
0.397618
30
0.0
11
0.119783
21
0.398377
31
0.0
0
LINE
8
0
6
CONTINUOUS
10
0.119783
20
0.398377
30
0.0
11
0.119642
21
0.398578
31
0.0
0
LINE
8
0
6
CONTINUOUS
10
0.096694
20
0.381968
30
0.0
11
0.104447
21
0.387431
31
0.0
0
LINE
8
0
6
CONTINUOUS
10
0.061148
20
0.357058
30
0.0
11
0.069815
21
0.363112
31
0.0
0
LINE
8
0
6
CONTINUOUS
10
0.120547
20
0.397287
30
0.0
11
0.119980
21
0.398095
31
0.0
0
LINE
8
0
6
CONTINUOUS
10
0.038056
20
0.340683
30
0.0
11
0.038623
21
0.339875
31
0.0
0
LINE
8
0
6
CONTINUOUS
10
0.047658
20
0.337237
30
0.0
11
0.050421
21
0.339125
31
0.0
0
LINE
8
0
6
CONTINUOUS
10
0.046706
20
0.336621
30
0.0
11
0.047658
21
0.337237
31
0.0
0
LINE
8
0
6
CONTINUOUS
10
0.044372
20
0.336705
30
0.0
11
0.046706
21
0.336621
31
0.0
0
LINE
8
0
6
CONTINUOUS
10
0.050421
20
0.339125
30
0.0
11
0.054856
21
0.342189
31
0.0
0
LINE
8
0
6
CONTINUOUS
10
0.121344
20
0.395337
30
0.0
11
0.120547
21
0.397287
31
0.0
0
LINE
8
0
6
CONTINUOUS
10
0.121750
20
0.392842
30
0.0
11
0.121344
21
0.395337
31
0.0
0
LINE
8
0
6
CONTINUOUS
10
0.121565
20
0.390801
30
0.0
11
0.121750
21
0.392842
31
0.0
0
LINE
8
0
6
CONTINUOUS
10
0.038623
20
0.339875
30
0.0
11
0.040184
21
0.338460
31
0.0
0
LINE
8
0
6
CONTINUOUS
10
0.040184
20
0.338460
30
0.0
11
0.042390
21
0.337227
31
0.0
0
LINE
8
0
6
CONTINUOUS
10
0.042390
20
0.337227
30
0.0
11
0.044372
21
0.336705
31
0.0
0
LINE
8
0
6
CONTINUOUS
10
0.037985
20
0.340786
30
0.0
11
0.038056
21
0.340683
31
0.0
0
LINE
8
0
6
CONTINUOUS
10
0.119980
20
0.398095
30
0.0
11
0.119909
21
0.398197
31
0.0
0
LINE
8
0
6
CONTINUOUS
10
0.104744
20
0.412443
30
0.0
11
0.104555
21
0.412331
31
0.0
0
LINE
8
0
6
CONTINUOUS
10
0.029939
20
0.360041
30
0.0
11
0.029770
21
0.359902
31
0.0
0
LINE
8
0
6
CONTINUOUS
10
0.052292
20
0.379880
30
0.0
11
0.044755
21
0.373611
31
0.0
0
LINE
8
0
6
CONTINUOUS
10
0.104555
20
0.412331
30
0.0
11
0.094968
21
0.407482
31
0.0
0
LINE
8
0
6
CONTINUOUS
10
0.037398
20
0.367037
30
0.0
11
0.029939
21
0.360041
31
0.0
0
LINE
8
0
6
CONTINUOUS
10
0.107144
20
0.411790
30
0.0
11
0.106169
21
0.412337
31
0.0
0
LINE
8
0
6
CONTINUOUS
10
0.029383
20
0.358526
30
0.0
11
0.029540
21
0.357575
31
0.0
0
LINE
8
0
6
CONTINUOUS
10
0.086802
20
0.403074
30
0.0
11
0.078414
21
0.398170
31
0.0
0
LINE
8
0
6
CONTINUOUS
10
0.078414
20
0.398170
30
0.0
11
0.070048
21
0.392872
31
0.0
0
LINE
8
0
6
CONTINUOUS
10
0.094968
20
0.407482
30
0.0
11
0.086802
21
0.403074
31
0.0
0
LINE
8
0
6
CONTINUOUS
10
0.108336
20
0.410933
30
0.0
11
0.107144
21
0.411790
31
0.0
0
LINE
8
0
6
CONTINUOUS
10
0.068312
20
0.350906
30
0.0
11
0.076046
21
0.356309
31
0.0
0
LINE
8
0
6
CONTINUOUS
10
0.038224
20
0.341222
30
0.0
11
0.038350
21
0.341042
31
0.0
0
LINE
8
0
6
CONTINUOUS
10
0.119543
20
0.397941
30
0.0
11
0.119417
21
0.398121
31
0.0
0
LINE
8
0
6
CONTINUOUS
10
0.044755
20
0.373611
30
0.0
11
0.037398
21
0.367037
31
0.0
0
LINE
8
0
6
CONTINUOUS
10
0.060007
20
0.385835
30
0.0
11
0.052292
21
0.379880
31
0.0
0
LINE
8
0
6
CONTINUOUS
10
0.076046
20
0.356309
30
0.0
11
0.084246
21
0.361915
31
0.0
0
LINE
8
0
6
CONTINUOUS
10
0.112704
20
0.381944
30
0.0
11
0.117062
21
0.385176
31
0.0
0
LINE
8
0
6
CONTINUOUS
10
0.061369
20
0.346068
30
0.0
11
0.068312
21
0.350906
31
0.0
0
LINE
8
0
6
CONTINUOUS
10
0.106949
20
0.377875
30
0.0
11
0.110304
21
0.380247
31
0.0
0
LINE
8
0
6
CONTINUOUS
10
0.112661
20
0.381913
30
0.0
11
0.112704
21
0.381944
31
0.0
0
LINE
8
0
6
CONTINUOUS
10
0.067783
20
0.351185
30
0.0
11
0.075626
21
0.356664
31
0.0
0
LINE
8
0
6
CONTINUOUS
10
0.099952
20
0.373728
30
0.0
11
0.106968
21
0.378673
31
0.0
0
LINE
8
0
6
CONTINUOUS
10
0.119940
20
0.387892
30
0.0
11
0.120847
21
0.388579
31
0.0
0
LINE
8
0
6
CONTINUOUS
10
0.120847
20
0.388579
30
0.0
11
0.121565
21
0.390801
31
0.0
0
LINE
8
0
6
CONTINUOUS
10
0.060742
20
0.346278
30
0.0
11
0.067783
21
0.351185
31
0.0
0
LINE
8
0
6
CONTINUOUS
10
0.117219
20
0.385937
30
0.0
11
0.119940
21
0.387892
31
0.0
0
LINE
8
0
6
CONTINUOUS
10
0.092124
20
0.368225
30
0.0
11
0.099952
21
0.373728
31
0.0
0
LINE
8
0
6
CONTINUOUS
10
0.054856
20
0.342189
30
0.0
11
0.060742
21
0.346278
31
0.0
0
LINE
8
0
6
CONTINUOUS
10
0.083877
20
0.362440
30
0.0
11
0.092124
21
0.368225
31
0.0
0
LINE
8
0
6
CONTINUOUS
10
0.112822
20
0.382811
30
0.0
11
0.117219
21
0.385937
31
0.0
0
LINE
8
0
6
CONTINUOUS
10
0.075626
20
0.356664
30
0.0
11
0.083877
21
0.362440
31
0.0
0
LINE
8
0
6
CONTINUOUS
10
0.106968
20
0.378673
30
0.0
11
0.112822
21
0.382811
31
0.0
0
LINE
8
0
6
CONTINUOUS
10
0.067193
20
0.390899
30
0.0
11
0.066131
21
0.390158
31
0.0
0
LINE
8
0
6
CONTINUOUS
10
0.068147
20
0.391564
30
0.0
11
0.067193
21
0.390899
31
0.0
0
LINE
8
0
6
CONTINUOUS
10
0.068944
20
0.392118
30
0.0
11
0.068147
21
0.391564
31
0.0
0
LINE
8
0
6
CONTINUOUS
10
0.069545
20
0.392533
30
0.0
11
0.068944
21
0.392118
31
0.0
0
LINE
8
0
6
CONTINUOUS
10
0.069919
20
0.392788
30
0.0
11
0.069545
21
0.392533
31
0.0
0
LINE
8
0
6
CONTINUOUS
10
0.070048
20
0.392872
30
0.0
11
0.069919
21
0.392788
31
0.0
0
LINE
8
0
6
CONTINUOUS
10
0.060130
20
0.385928
30
0.0
11
0.060007
21
0.385835
31
0.0
0
LINE
8
0
6
CONTINUOUS
10
0.060498
20
0.386193
30
0.0
11
0.060130
21
0.385928
31
0.0
0
LINE
8
0
6
CONTINUOUS
10
0.061094
20
0.386616
30
0.0
11
0.060498
21
0.386193
31
0.0
0
LINE
8
0
6
CONTINUOUS
10
0.061887
20
0.387177
30
0.0
11
0.061094
21
0.386616
31
0.0
0
LINE
8
0
6
CONTINUOUS
10
0.062837
20
0.387847
30
0.0
11
0.061887
21
0.387177
31
0.0
0
LINE
8
0
6
CONTINUOUS
10
0.063897
20
0.388592
30
0.0
11
0.062837
21
0.387847
31
0.0
0
LINE
8
0
6
CONTINUOUS
10
0.065014
20
0.389375
30
0.0
11
0.063897
21
0.388592
31
0.0
0
LINE
8
0
6
CONTINUOUS
10
0.066131
20
0.390158
30
0.0
11
0.065014
21
0.389375
31
0.0
0
LINE
8
0
6
CONTINUOUS
10
0.110202
20
0.378585
30
0.0
11
0.111106
21
0.379307
31
0.0
0
LINE
8
0
6
CONTINUOUS
10
0.113052
20
0.380859
30
0.0
11
0.113274
21
0.381037
31
0.0
0
LINE
8
0
6
CONTINUOUS
10
0.057537
20
0.341874
30
0.0
11
0.058486
21
0.342454
31
0.0
0
LINE
8
0
6
CONTINUOUS
10
0.100724
20
0.370855
30
0.0
11
0.101816
21
0.371755
31
0.0
0
LINE
8
0
6
CONTINUOUS
10
0.105164
20
0.374512
30
0.0
11
0.106438
21
0.375561
31
0.0
0
LINE
8
0
6
CONTINUOUS
10
0.091661
20
0.363947
30
0.0
11
0.092352
21
0.364467
31
0.0
0
LINE
8
0
6
CONTINUOUS
10
0.095388
20
0.366747
30
0.0
11
0.096630
21
0.367680
31
0.0
0
LINE
8
0
6
CONTINUOUS
10
0.072872
20
0.351115
30
0.0
11
0.073113
21
0.351272
31
0.0
0
LINE
8
0
6
CONTINUOUS
10
0.076435
20
0.353440
30
0.0
11
0.077820
21
0.354344
31
0.0
0
LINE
8
0
6
CONTINUOUS
10
0.088811
20
0.361825
30
0.0
11
0.089159
21
0.362084
31
0.0
0
LINE
8
0
6
CONTINUOUS
10
0.085821
20
0.359681
30
0.0
11
0.086294
21
0.360012
31
0.0
0
LINE
8
0
6
CONTINUOUS
10
0.085348
20
0.359350
30
0.0
11
0.085821
21
0.359681
31
0.0
0
LINE
8
0
6
CONTINUOUS
10
0.082047
20
0.357115
30
0.0
11
0.082823
21
0.357628
31
0.0
0
LINE
8
0
6
CONTINUOUS
10
0.120617
20
0.387698
30
0.0
11
0.119704
21
0.386940
31
0.0
0
LINE
8
0
6
CONTINUOUS
10
0.119551
20
0.386282
30
0.0
11
0.120617
21
0.387698
31
0.0
0
LINE
8
0
6
CONTINUOUS
10
0.119704
20
0.386940
30
0.0
11
0.117062
21
0.385176
31
0.0
0
LINE
8
0
6
CONTINUOUS
10
0.106949
20
0.377875
30
0.0
11
0.100050
21
0.373013
31
0.0
0
LINE
8
0
6
CONTINUOUS
10
0.100050
20
0.373013
30
0.0
11
0.092354
21
0.367603
31
0.0
0
LINE
8
0
6
CONTINUOUS
10
0.092354
20
0.367603
30
0.0
11
0.084246
21
0.361915
31
0.0
0
LINE
8
0
6
CONTINUOUS
10
0.061369
20
0.346068
30
0.0
11
0.055647
21
0.342021
31
0.0
0
LINE
8
0
6
CONTINUOUS
10
0.055647
20
0.342021
30
0.0
11
0.051278
21
0.339002
31
0.0
0
LINE
8
0
6
CONTINUOUS
10
0.051278
20
0.339002
30
0.0
11
0.048466
21
0.337152
31
0.0
0
LINE
8
0
6
CONTINUOUS
10
0.048466
20
0.337152
30
0.0
11
0.047612
21
0.336537
31
0.0
0
LINE
8
0
6
CONTINUOUS
10
0.047612
20
0.336537
30
0.0
11
0.049307
21
0.337055
31
0.0
0
LINE
8
0
6
CONTINUOUS
10
0.112704
20
0.381944
30
0.0
11
0.106949
21
0.377875
31
0.0
0
LINE
8
0
6
CONTINUOUS
10
0.084246
20
0.361915
30
0.0
11
0.076046
21
0.356309
31
0.0
0
LINE
8
0
6
CONTINUOUS
10
0.076046
20
0.356309
30
0.0
11
0.068312
21
0.350906
31
0.0
0
LINE
8
0
6
CONTINUOUS
10
0.068312
20
0.350906
30
0.0
11
0.061369
21
0.346068
31
0.0
0
LINE
8
0
6
CONTINUOUS
10
0.117062
20
0.385176
30
0.0
11
0.112704
21
0.381944
31
0.0
0
LINE
8
0
6
CONTINUOUS
10
0.116003
20
0.383276
30
0.0
11
0.119551
21
0.386282
31
0.0
0
LINE
8
0
6
CONTINUOUS
10
0.049307
20
0.337055
30
0.0
11
0.053336
21
0.339360
31
0.0
0
LINE
8
0
6
CONTINUOUS
10
0.086674
20
0.359038
30
0.0
11
0.088312
21
0.360193
31
0.0
0
LINE
8
0
6
CONTINUOUS
10
0.084822
20
0.357745
30
0.0
11
0.086674
21
0.359038
31
0.0
0
LINE
8
0
6
CONTINUOUS
10
0.084608
20
0.357607
30
0.0
11
0.084822
21
0.357745
31
0.0
0
LINE
8
0
6
CONTINUOUS
10
0.058055
20
0.341362
30
0.0
11
0.057646
21
0.341940
31
0.0
0
LINE
8
0
6
CONTINUOUS
10
0.063923
20
0.344919
30
0.0
11
0.064362
21
0.345233
31
0.0
0
LINE
8
0
6
CONTINUOUS
10
0.071136
20
0.349358
30
0.0
11
0.070805
21
0.349825
31
0.0
0
LINE
8
0
6
CONTINUOUS
10
0.076959
20
0.352826
30
0.0
11
0.077727
21
0.353357
31
0.0
0
LINE
8
0
6
CONTINUOUS
10
0.076496
20
0.353480
30
0.0
11
0.076959
21
0.352826
31
0.0
0
LINE
8
0
6
CONTINUOUS
10
0.083994
20
0.357356
30
0.0
11
0.085297
21
0.358269
31
0.0
0
LINE
8
0
6
CONTINUOUS
10
0.085946
20
0.358731
30
0.0
11
0.085359
21
0.359554
31
0.0
0
LINE
8
0
6
CONTINUOUS
10
0.085297
20
0.358269
30
0.0
11
0.085946
21
0.358731
31
0.0
0
LINE
8
0
6
CONTINUOUS
10
0.083339
20
0.356904
30
0.0
11
0.083994
21
0.357356
31
0.0
0
LINE
8
0
6
CONTINUOUS
10
0.082739
20
0.357747
30
0.0
11
0.083339
21
0.356904
31
0.0
0
LINE
8
0
6
CONTINUOUS
10
0.090542
20
0.361955
30
0.0
11
0.091818
21
0.362851
31
0.0
0
LINE
8
0
6
CONTINUOUS
10
0.092224
20
0.363144
30
0.0
11
0.091624
21
0.364000
31
0.0
0
LINE
8
0
6
CONTINUOUS
10
0.091818
20
0.362851
30
0.0
11
0.092224
21
0.363144
31
0.0
0
LINE
8
0
6
CONTINUOUS
10
0.089673
20
0.361352
30
0.0
11
0.090542
21
0.361955
31
0.0
0
LINE
8
0
6
CONTINUOUS
10
0.089100
20
0.362169
30
0.0
11
0.089673
21
0.361352
31
0.0
0
LINE
8
0
6
CONTINUOUS
10
0.078428
20
0.353485
30
0.0
11
0.078832
21
0.353760
31
0.0
0
LINE
8
0
6
CONTINUOUS
10
0.077815
20
0.354352
30
0.0
11
0.078428
21
0.353485
31
0.0
0
LINE
8
0
6
CONTINUOUS
10
0.078832
20
0.353760
30
0.0
11
0.080107
21
0.354652
31
0.0
0
LINE
8
0
6
CONTINUOUS
10
0.080107
20
0.354652
30
0.0
11
0.080979
21
0.355269
31
0.0
0
LINE
8
0
6
CONTINUOUS
10
0.077781
20
0.354319
30
0.0
11
0.078361
21
0.353483
31
0.0
0
LINE
8
0
6
CONTINUOUS
10
0.092503
20
0.363373
30
0.0
11
0.092640
21
0.363462
31
0.0
0
LINE
8
0
6
CONTINUOUS
10
0.091953
20
0.364167
30
0.0
11
0.092503
21
0.363373
31
0.0
0
LINE
8
0
6
CONTINUOUS
10
0.093832
20
0.364293
30
0.0
11
0.094885
21
0.365037
31
0.0
0
LINE
8
0
6
CONTINUOUS
10
0.092640
20
0.363462
30
0.0
11
0.093832
21
0.364293
31
0.0
0
LINE
8
0
6
CONTINUOUS
10
0.087089
20
0.359778
30
0.0
11
0.088392
21
0.360692
31
0.0
0
LINE
8
0
6
CONTINUOUS
10
0.088392
20
0.360692
30
0.0
11
0.089041
21
0.361153
31
0.0
0
LINE
8
0
6
CONTINUOUS
10
0.086434
20
0.359326
30
0.0
11
0.087089
21
0.359778
31
0.0
0
LINE
8
0
6
CONTINUOUS
10
0.085847
20
0.360150
30
0.0
11
0.086434
21
0.359326
31
0.0
0
LINE
8
0
6
CONTINUOUS
10
0.087035
20
0.360332
30
0.0
11
0.088297
21
0.361217
31
0.0
0
LINE
8
0
6
CONTINUOUS
10
0.088926
20
0.361664
30
0.0
11
0.088328
21
0.362503
31
0.0
0
LINE
8
0
6
CONTINUOUS
10
0.088297
20
0.361217
30
0.0
11
0.088926
21
0.361664
31
0.0
0
LINE
8
0
6
CONTINUOUS
10
0.086401
20
0.359895
30
0.0
11
0.087035
21
0.360332
31
0.0
0
LINE
8
0
6
CONTINUOUS
10
0.084598
20
0.359189
30
0.0
11
0.085681
21
0.359948
31
0.0
0
LINE
8
0
6
CONTINUOUS
10
0.086220
20
0.360332
30
0.0
11
0.085631
21
0.361161
31
0.0
0
LINE
8
0
6
CONTINUOUS
10
0.085681
20
0.359948
30
0.0
11
0.086220
21
0.360332
31
0.0
0
LINE
8
0
6
CONTINUOUS
10
0.084054
20
0.358814
30
0.0
11
0.084598
21
0.359189
31
0.0
0
LINE
8
0
6
CONTINUOUS
10
0.082978
20
0.358587
30
0.0
11
0.084061
21
0.359346
31
0.0
0
LINE
8
0
6
CONTINUOUS
10
0.082434
20
0.358212
30
0.0
11
0.082978
21
0.358587
31
0.0
0
LINE
8
0
6
CONTINUOUS
10
0.081841
20
0.359047
30
0.0
11
0.082434
21
0.358212
31
0.0
0
LINE
8
0
6
CONTINUOUS
10
0.083082
20
0.358642
30
0.0
11
0.084165
21
0.359401
31
0.0
0
LINE
8
0
6
CONTINUOUS
10
0.084704
20
0.359784
30
0.0
11
0.084124
21
0.360601
31
0.0
0
LINE
8
0
6
CONTINUOUS
10
0.084165
20
0.359401
30
0.0
11
0.084704
21
0.359784
31
0.0
0
LINE
8
0
6
CONTINUOUS
10
0.082538
20
0.358266
30
0.0
11
0.083082
21
0.358642
31
0.0
0
LINE
8
0
6
CONTINUOUS
10
0.084598
20
0.359189
30
0.0
11
0.085681
21
0.359948
31
0.0
0
LINE
8
0
6
CONTINUOUS
10
0.086220
20
0.360332
30
0.0
11
0.085631
21
0.361161
31
0.0
0
LINE
8
0
6
CONTINUOUS
10
0.085681
20
0.359948
30
0.0
11
0.086220
21
0.360332
31
0.0
0
LINE
8
0
6
CONTINUOUS
10
0.084054
20
0.358814
30
0.0
11
0.084598
21
0.359189
31
0.0
0
LINE
8
0
6
CONTINUOUS
10
0.087035
20
0.360332
30
0.0
11
0.088297
21
0.361217
31
0.0
0
LINE
8
0
6
CONTINUOUS
10
0.088926
20
0.361664
30
0.0
11
0.088328
21
0.362503
31
0.0
0
LINE
8
0
6
CONTINUOUS
10
0.088297
20
0.361217
30
0.0
11
0.088926
21
0.361664
31
0.0
0
LINE
8
0
6
CONTINUOUS
10
0.086401
20
0.359895
30
0.0
11
0.087035
21
0.360332
31
0.0
0
LINE
8
0
6
CONTINUOUS
10
0.087089
20
0.359778
30
0.0
11
0.088392
21
0.360692
31
0.0
0
LINE
8
0
6
CONTINUOUS
10
0.088392
20
0.360692
30
0.0
11
0.089041
21
0.361153
31
0.0
0
LINE
8
0
6
CONTINUOUS
10
0.086434
20
0.359326
30
0.0
11
0.087089
21
0.359778
31
0.0
0
LINE
8
0
6
CONTINUOUS
10
0.085847
20
0.360150
30
0.0
11
0.086434
21
0.359326
31
0.0
0
LINE
8
0
6
CONTINUOUS
10
0.093473
20
0.364264
30
0.0
11
0.094776
21
0.365177
31
0.0
0
LINE
8
0
6
CONTINUOUS
10
0.095425
20
0.365639
30
0.0
11
0.094898
21
0.366379
31
0.0
0
LINE
8
0
6
CONTINUOUS
10
0.094776
20
0.365177
30
0.0
11
0.095425
21
0.365639
31
0.0
0
LINE
8
0
6
CONTINUOUS
10
0.092819
20
0.363812
30
0.0
11
0.093473
21
0.364264
31
0.0
0
LINE
8
0
6
CONTINUOUS
10
0.092244
20
0.364617
30
0.0
11
0.092819
21
0.363812
31
0.0
0
LINE
8
0
6
CONTINUOUS
10
0.093761
20
0.365044
30
0.0
11
0.095024
21
0.365929
31
0.0
0
LINE
8
0
6
CONTINUOUS
10
0.095652
20
0.366376
30
0.0
11
0.095025
21
0.367257
31
0.0
0
LINE
8
0
6
CONTINUOUS
10
0.095024
20
0.365929
30
0.0
11
0.095652
21
0.366376
31
0.0
0
LINE
8
0
6
CONTINUOUS
10
0.093127
20
0.364606
30
0.0
11
0.093761
21
0.365044
31
0.0
0
LINE
8
0
6
CONTINUOUS
10
0.099255
20
0.368931
30
0.0
11
0.100517
21
0.369816
31
0.0
0
LINE
8
0
6
CONTINUOUS
10
0.101145
20
0.370263
30
0.0
11
0.100505
21
0.371162
31
0.0
0
LINE
8
0
6
CONTINUOUS
10
0.100517
20
0.369816
30
0.0
11
0.101145
21
0.370263
31
0.0
0
LINE
8
0
6
CONTINUOUS
10
0.098621
20
0.368494
30
0.0
11
0.099255
21
0.368931
31
0.0
0
LINE
8
0
6
CONTINUOUS
10
0.091534
20
0.364050
30
0.0
11
0.092617
21
0.364809
31
0.0
0
LINE
8
0
6
CONTINUOUS
10
0.093156
20
0.365192
30
0.0
11
0.092551
21
0.366044
31
0.0
0
LINE
8
0
6
CONTINUOUS
10
0.092617
20
0.364809
30
0.0
11
0.093156
21
0.365192
31
0.0
0
LINE
8
0
6
CONTINUOUS
10
0.090990
20
0.363675
30
0.0
11
0.091534
21
0.364050
31
0.0
0
LINE
8
0
6
CONTINUOUS
10
0.097980
20
0.368598
30
0.0
11
0.099063
21
0.369357
31
0.0
0
LINE
8
0
6
CONTINUOUS
10
0.099602
20
0.369740
30
0.0
11
0.098988
21
0.370605
31
0.0
0
LINE
8
0
6
CONTINUOUS
10
0.099063
20
0.369357
30
0.0
11
0.099602
21
0.369740
31
0.0
0
LINE
8
0
6
CONTINUOUS
10
0.097436
20
0.368222
30
0.0
11
0.097980
21
0.368598
31
0.0
0
LINE
8
0
6
CONTINUOUS
10
0.103340
20
0.372372
30
0.0
11
0.104423
21
0.373131
31
0.0
0
LINE
8
0
6
CONTINUOUS
10
0.104962
20
0.373515
30
0.0
11
0.104339
21
0.374392
31
0.0
0
LINE
8
0
6
CONTINUOUS
10
0.104423
20
0.373131
30
0.0
11
0.104962
21
0.373515
31
0.0
0
LINE
8
0
6
CONTINUOUS
10
0.102796
20
0.371997
30
0.0
11
0.103340
21
0.372372
31
0.0
0
LINE
8
0
6
CONTINUOUS
10
0.108225
20
0.376319
30
0.0
11
0.109293
21
0.377068
31
0.0
0
LINE
8
0
6
CONTINUOUS
10
0.109667
20
0.377337
30
0.0
11
0.109037
21
0.378224
31
0.0
0
LINE
8
0
6
CONTINUOUS
10
0.109293
20
0.377068
30
0.0
11
0.109667
21
0.377337
31
0.0
0
LINE
8
0
6
CONTINUOUS
10
0.107533
20
0.375839
30
0.0
11
0.108225
21
0.376319
31
0.0
0
LINE
8
0
6
CONTINUOUS
10
0.106977
20
0.376622
30
0.0
11
0.107533
21
0.375839
31
0.0
0
LINE
8
0
6
CONTINUOUS
10
0.103090
20
0.372689
30
0.0
11
0.104157
21
0.373438
31
0.0
0
LINE
8
0
6
CONTINUOUS
10
0.104532
20
0.373707
30
0.0
11
0.103919
21
0.374571
31
0.0
0
LINE
8
0
6
CONTINUOUS
10
0.104157
20
0.373438
30
0.0
11
0.104532
21
0.373707
31
0.0
0
LINE
8
0
6
CONTINUOUS
10
0.102397
20
0.372209
30
0.0
11
0.103090
21
0.372689
31
0.0
0
LINE
8
0
6
CONTINUOUS
10
0.101832
20
0.373005
30
0.0
11
0.102397
21
0.372209
31
0.0
0
LINE
8
0
6
CONTINUOUS
10
0.096941
20
0.368365
30
0.0
11
0.098008
21
0.369114
31
0.0
0
LINE
8
0
6
CONTINUOUS
10
0.098383
20
0.369383
30
0.0
11
0.097783
21
0.370227
31
0.0
0
LINE
8
0
6
CONTINUOUS
10
0.098008
20
0.369114
30
0.0
11
0.098383
21
0.369383
31
0.0
0
LINE
8
0
6
CONTINUOUS
10
0.096249
20
0.367884
30
0.0
11
0.096941
21
0.368365
31
0.0
0
LINE
8
0
6
CONTINUOUS
10
0.095670
20
0.368699
30
0.0
11
0.096249
21
0.367884
31
0.0
0
LINE
8
0
6
CONTINUOUS
10
0.090260
20
0.363685
30
0.0
11
0.091327
21
0.364435
31
0.0
0
LINE
8
0
6
CONTINUOUS
10
0.091702
20
0.364703
30
0.0
11
0.091117
21
0.365528
31
0.0
0
LINE
8
0
6
CONTINUOUS
10
0.091327
20
0.364435
30
0.0
11
0.091702
21
0.364703
31
0.0
0
LINE
8
0
6
CONTINUOUS
10
0.089567
20
0.363205
30
0.0
11
0.090260
21
0.363685
31
0.0
0
LINE
8
0
6
CONTINUOUS
10
0.088974
20
0.364040
30
0.0
11
0.089567
21
0.363205
31
0.0
0
LINE
8
0
6
CONTINUOUS
10
0.071884
20
0.349196
30
0.0
11
0.072408
21
0.349555
31
0.0
0
LINE
8
0
6
CONTINUOUS
10
0.071246
20
0.350095
30
0.0
11
0.071884
21
0.349196
31
0.0
0
LINE
8
0
6
CONTINUOUS
10
0.072408
20
0.349555
30
0.0
11
0.073703
21
0.350462
31
0.0
0
LINE
8
0
6
CONTINUOUS
10
0.073703
20
0.350462
30
0.0
11
0.074475
21
0.351010
31
0.0
0
LINE
8
0
6
CONTINUOUS
10
0.053977
20
0.338454
30
0.0
11
0.054412
21
0.338753
31
0.0
0
LINE
8
0
6
CONTINUOUS
10
0.053321
20
0.339382
30
0.0
11
0.053977
21
0.338454
31
0.0
0
LINE
8
0
6
CONTINUOUS
10
0.054412
20
0.338753
30
0.0
11
0.055489
21
0.339507
31
0.0
0
LINE
8
0
6
CONTINUOUS
10
0.055489
20
0.339507
30
0.0
11
0.056130
21
0.339961
31
0.0
0
LINE
8
0
6
CONTINUOUS
10
0.060099
20
0.342168
30
0.0
11
0.060534
21
0.342467
31
0.0
0
LINE
8
0
6
CONTINUOUS
10
0.060534
20
0.342467
30
0.0
11
0.061611
21
0.343220
31
0.0
0
LINE
8
0
6
CONTINUOUS
10
0.061611
20
0.343220
30
0.0
11
0.062252
21
0.343675
31
0.0
0
LINE
8
0
6
CONTINUOUS
10
0.066103
20
0.345756
30
0.0
11
0.066611
21
0.346104
31
0.0
0
LINE
8
0
6
CONTINUOUS
10
0.066611
20
0.346104
30
0.0
11
0.067866
21
0.346983
31
0.0
0
LINE
8
0
6
CONTINUOUS
10
0.067866
20
0.346983
30
0.0
11
0.068613
21
0.347513
31
0.0
0
LINE
8
0
6
CONTINUOUS
10
0.055856
20
0.339700
30
0.0
11
0.056291
21
0.339999
31
0.0
0
LINE
8
0
6
CONTINUOUS
10
0.055205
20
0.340619
30
0.0
11
0.055856
21
0.339700
31
0.0
0
LINE
8
0
6
CONTINUOUS
10
0.056291
20
0.339999
30
0.0
11
0.057367
21
0.340753
31
0.0
0
LINE
8
0
6
CONTINUOUS
10
0.058009
20
0.341207
30
0.0
11
0.057474
21
0.341963
31
0.0
0
LINE
8
0
6
CONTINUOUS
10
0.057367
20
0.340753
30
0.0
11
0.058009
21
0.341207
31
0.0
0
LINE
8
0
6
CONTINUOUS
10
0.061967
20
0.343429
30
0.0
11
0.062402
21
0.343728
31
0.0
0
LINE
8
0
6
CONTINUOUS
10
0.061336
20
0.344320
30
0.0
11
0.061967
21
0.343429
31
0.0
0
LINE
8
0
6
CONTINUOUS
10
0.062402
20
0.343728
30
0.0
11
0.063479
21
0.344482
31
0.0
0
LINE
8
0
6
CONTINUOUS
10
0.063479
20
0.344482
30
0.0
11
0.064120
21
0.344936
31
0.0
0
LINE
8
0
6
CONTINUOUS
10
0.068580
20
0.347459
30
0.0
11
0.069088
21
0.347807
31
0.0
0
LINE
8
0
6
CONTINUOUS
10
0.067938
20
0.348365
30
0.0
11
0.068580
21
0.347459
31
0.0
0
LINE
8
0
6
CONTINUOUS
10
0.069088
20
0.347807
30
0.0
11
0.070343
21
0.348686
31
0.0
0
LINE
8
0
6
CONTINUOUS
10
0.070343
20
0.348686
30
0.0
11
0.071090
21
0.349216
31
0.0
0
LINE
8
0
6
CONTINUOUS
10
0.074363
20
0.350895
30
0.0
11
0.074887
21
0.351255
31
0.0
0
LINE
8
0
6
CONTINUOUS
10
0.074887
20
0.351255
30
0.0
11
0.076182
21
0.352162
31
0.0
0
LINE
8
0
6
CONTINUOUS
10
0.076954
20
0.352709
30
0.0
11
0.076387
21
0.353509
31
0.0
0
LINE
8
0
6
CONTINUOUS
10
0.076182
20
0.352162
30
0.0
11
0.076954
21
0.352709
31
0.0
0
LINE
8
0
6
CONTINUOUS
10
0.079866
20
0.354721
30
0.0
11
0.080390
21
0.355081
31
0.0
0
LINE
8
0
6
CONTINUOUS
10
0.079402
20
0.355376
30
0.0
11
0.079866
21
0.354721
31
0.0
0
LINE
8
0
6
CONTINUOUS
10
0.080390
20
0.355081
30
0.0
11
0.081686
21
0.355988
31
0.0
0
LINE
8
0
6
CONTINUOUS
10
0.082458
20
0.356535
30
0.0
11
0.081876
21
0.357355
31
0.0
0
LINE
8
0
6
CONTINUOUS
10
0.081686
20
0.355988
30
0.0
11
0.082458
21
0.356535
31
0.0
0
LINE
8
0
6
CONTINUOUS
10
0.073438
20
0.350814
30
0.0
11
0.073945
21
0.351162
31
0.0
0
LINE
8
0
6
CONTINUOUS
10
0.072813
20
0.351695
30
0.0
11
0.073438
21
0.350814
31
0.0
0
LINE
8
0
6
CONTINUOUS
10
0.073945
20
0.351162
30
0.0
11
0.075200
21
0.352041
31
0.0
0
LINE
8
0
6
CONTINUOUS
10
0.075947
20
0.352571
30
0.0
11
0.075389
21
0.353358
31
0.0
0
LINE
8
0
6
CONTINUOUS
10
0.075200
20
0.352041
30
0.0
11
0.075947
21
0.352571
31
0.0
0
LINE
8
0
6
CONTINUOUS
10
0.079494
20
0.355063
30
0.0
11
0.080002
21
0.355411
31
0.0
0
LINE
8
0
6
CONTINUOUS
10
0.079313
20
0.355318
30
0.0
11
0.079494
21
0.355063
31
0.0
0
LINE
8
0
6
CONTINUOUS
10
0.080002
20
0.355411
30
0.0
11
0.081256
21
0.356290
31
0.0
0
LINE
8
0
6
CONTINUOUS
10
0.082004
20
0.356820
30
0.0
11
0.081428
21
0.357633
31
0.0
0
LINE
8
0
6
CONTINUOUS
10
0.081256
20
0.356290
30
0.0
11
0.082004
21
0.356820
31
0.0
0
LINE
8
0
6
CONTINUOUS
10
0.065630
20
0.345950
30
0.0
11
0.066066
21
0.346249
31
0.0
0
LINE
8
0
6
CONTINUOUS
10
0.065222
20
0.346527
30
0.0
11
0.065630
21
0.345950
31
0.0
0
LINE
8
0
6
CONTINUOUS
10
0.066066
20
0.346249
30
0.0
11
0.067142
21
0.347003
31
0.0
0
LINE
8
0
6
CONTINUOUS
10
0.067784
20
0.347458
30
0.0
11
0.067226
21
0.348246
31
0.0
0
LINE
8
0
6
CONTINUOUS
10
0.067142
20
0.347003
30
0.0
11
0.067784
21
0.347458
31
0.0
0
LINE
8
0
6
CONTINUOUS
10
0.070771
20
0.349535
30
0.0
11
0.071206
21
0.349834
31
0.0
0
LINE
8
0
6
CONTINUOUS
10
0.070636
20
0.349725
30
0.0
11
0.070771
21
0.349535
31
0.0
0
LINE
8
0
6
CONTINUOUS
10
0.071206
20
0.349834
30
0.0
11
0.072283
21
0.350587
31
0.0
0
LINE
8
0
6
CONTINUOUS
10
0.072924
20
0.351042
30
0.0
11
0.072357
21
0.351843
31
0.0
0
LINE
8
0
6
CONTINUOUS
10
0.072283
20
0.350587
30
0.0
11
0.072924
21
0.351042
31
0.0
0
LINE
8
0
6
CONTINUOUS
10
0.077168
20
0.354010
30
0.0
11
0.077603
21
0.354309
31
0.0
0
LINE
8
0
6
CONTINUOUS
10
0.077603
20
0.354309
30
0.0
11
0.078680
21
0.355063
31
0.0
0
LINE
8
0
6
CONTINUOUS
10
0.079321
20
0.355517
30
0.0
11
0.078744
21
0.356333
31
0.0
0
LINE
8
0
6
CONTINUOUS
10
0.078680
20
0.355063
30
0.0
11
0.079321
21
0.355517
31
0.0
0
LINE
8
0
6
CONTINUOUS
10
0.075764
20
0.353525
30
0.0
11
0.076359
21
0.353936
31
0.0
0
LINE
8
0
6
CONTINUOUS
10
0.075152
20
0.354388
30
0.0
11
0.075764
21
0.353525
31
0.0
0
LINE
8
0
6
CONTINUOUS
10
0.076359
20
0.353936
30
0.0
11
0.077440
21
0.354694
31
0.0
0
LINE
8
0
6
CONTINUOUS
10
0.077927
20
0.355041
30
0.0
11
0.077362
21
0.355838
31
0.0
0
LINE
8
0
6
CONTINUOUS
10
0.077440
20
0.354694
30
0.0
11
0.077927
21
0.355041
31
0.0
0
LINE
8
0
6
CONTINUOUS
10
0.069279
20
0.348996
30
0.0
11
0.069874
21
0.349407
31
0.0
0
LINE
8
0
6
CONTINUOUS
10
0.068644
20
0.349892
30
0.0
11
0.069279
21
0.348996
31
0.0
0
LINE
8
0
6
CONTINUOUS
10
0.069874
20
0.349407
30
0.0
11
0.070955
21
0.350165
31
0.0
0
LINE
8
0
6
CONTINUOUS
10
0.071441
20
0.350512
30
0.0
11
0.070887
21
0.351295
31
0.0
0
LINE
8
0
6
CONTINUOUS
10
0.070955
20
0.350165
30
0.0
11
0.071441
21
0.350512
31
0.0
0
LINE
8
0
6
CONTINUOUS
10
0.063539
20
0.345014
30
0.0
11
0.064134
21
0.345425
31
0.0
0
LINE
8
0
6
CONTINUOUS
10
0.062899
20
0.345918
30
0.0
11
0.063539
21
0.345014
31
0.0
0
LINE
8
0
6
CONTINUOUS
10
0.064134
20
0.345425
30
0.0
11
0.065216
21
0.346183
31
0.0
0
LINE
8
0
6
CONTINUOUS
10
0.065702
20
0.346530
30
0.0
11
0.065160
21
0.347294
31
0.0
0
LINE
8
0
6
CONTINUOUS
10
0.065216
20
0.346183
30
0.0
11
0.065702
21
0.346530
31
0.0
0
LINE
8
0
6
CONTINUOUS
10
0.058928
20
0.341830
30
0.0
11
0.059523
21
0.342241
31
0.0
0
LINE
8
0
6
CONTINUOUS
10
0.058281
20
0.342744
30
0.0
11
0.058928
21
0.341830
31
0.0
0
LINE
8
0
6
CONTINUOUS
10
0.059523
20
0.342241
30
0.0
11
0.060604
21
0.342999
31
0.0
0
LINE
8
0
6
CONTINUOUS
10
0.061091
20
0.343346
30
0.0
11
0.060558
21
0.344098
31
0.0
0
LINE
8
0
6
CONTINUOUS
10
0.060604
20
0.342999
30
0.0
11
0.061091
21
0.343346
31
0.0
0
LINE
8
0
6
CONTINUOUS
10
0.099400
20
0.368459
30
0.0
11
0.099620
21
0.368621
31
0.0
0
LINE
8
0
6
CONTINUOUS
10
0.098177
20
0.367599
30
0.0
11
0.099400
21
0.368459
31
0.0
0
LINE
8
0
6
CONTINUOUS
10
0.097174
20
0.366902
30
0.0
11
0.098177
21
0.367599
31
0.0
0
LINE
8
0
6
CONTINUOUS
10
0.096614
20
0.367704
30
0.0
11
0.097174
21
0.366902
31
0.0
0
LINE
8
0
6
CONTINUOUS
10
0.113566
20
0.380124
30
0.0
11
0.112944
21
0.381013
31
0.0
0
LINE
8
0
6
CONTINUOUS
10
0.113383
20
0.379989
30
0.0
11
0.113566
21
0.380124
31
0.0
0
LINE
8
0
6
CONTINUOUS
10
0.112367
20
0.379275
30
0.0
11
0.113383
21
0.379989
31
0.0
0
LINE
8
0
6
CONTINUOUS
10
0.111534
20
0.378695
30
0.0
11
0.112367
21
0.379275
31
0.0
0
LINE
8
0
6
CONTINUOUS
10
0.110987
20
0.379477
30
0.0
11
0.111534
21
0.378695
31
0.0
0
LINE
8
0
6
CONTINUOUS
10
0.108743
20
0.376204
30
0.0
11
0.108926
21
0.376339
31
0.0
0
LINE
8
0
6
CONTINUOUS
10
0.107727
20
0.375490
30
0.0
11
0.108743
21
0.376204
31
0.0
0
LINE
8
0
6
CONTINUOUS
10
0.106894
20
0.374911
30
0.0
11
0.107727
21
0.375490
31
0.0
0
LINE
8
0
6
CONTINUOUS
10
0.106340
20
0.375701
30
0.0
11
0.106894
21
0.374911
31
0.0
0
LINE
8
0
6
CONTINUOUS
10
0.104436
20
0.372600
30
0.0
11
0.104649
21
0.372757
31
0.0
0
LINE
8
0
6
CONTINUOUS
10
0.103252
20
0.371767
30
0.0
11
0.104436
21
0.372600
31
0.0
0
LINE
8
0
6
CONTINUOUS
10
0.102281
20
0.371092
30
0.0
11
0.103252
21
0.371767
31
0.0
0
LINE
8
0
6
CONTINUOUS
10
0.101751
20
0.371848
30
0.0
11
0.102281
21
0.371092
31
0.0
0
LINE
8
0
6
CONTINUOUS
10
0.115823
20
0.381727
30
0.0
11
0.115179
21
0.382646
31
0.0
0
LINE
8
0
6
CONTINUOUS
10
0.115640
20
0.381592
30
0.0
11
0.115823
21
0.381727
31
0.0
0
LINE
8
0
6
CONTINUOUS
10
0.114624
20
0.380878
30
0.0
11
0.115640
21
0.381592
31
0.0
0
LINE
8
0
6
CONTINUOUS
10
0.113791
20
0.380298
30
0.0
11
0.114624
21
0.380878
31
0.0
0
LINE
8
0
6
CONTINUOUS
10
0.113252
20
0.381069
30
0.0
11
0.113791
21
0.380298
31
0.0
0
LINE
8
0
6
CONTINUOUS
10
0.110819
20
0.377702
30
0.0
11
0.110202
21
0.378585
31
0.0
0
LINE
8
0
6
CONTINUOUS
10
0.110636
20
0.377567
30
0.0
11
0.110819
21
0.377702
31
0.0
0
LINE
8
0
6
CONTINUOUS
10
0.109620
20
0.376853
30
0.0
11
0.110636
21
0.377567
31
0.0
0
LINE
8
0
6
CONTINUOUS
10
0.108787
20
0.376273
30
0.0
11
0.109620
21
0.376853
31
0.0
0
LINE
8
0
6
CONTINUOUS
10
0.105886
20
0.373651
30
0.0
11
0.105240
21
0.374574
31
0.0
0
LINE
8
0
6
CONTINUOUS
10
0.105673
20
0.373494
30
0.0
11
0.105886
21
0.373651
31
0.0
0
LINE
8
0
6
CONTINUOUS
10
0.104489
20
0.372661
30
0.0
11
0.105673
21
0.373494
31
0.0
0
LINE
8
0
6
CONTINUOUS
10
0.100084
20
0.368970
30
0.0
11
0.100305
21
0.369132
31
0.0
0
LINE
8
0
6
CONTINUOUS
10
0.096417
20
0.366443
30
0.0
11
0.097640
21
0.367303
31
0.0
0
LINE
8
0
6
CONTINUOUS
10
0.095415
20
0.365746
30
0.0
11
0.096417
21
0.366443
31
0.0
0
LINE
8
0
6
CONTINUOUS
10
0.110975
20
0.377860
30
0.0
11
0.110373
21
0.378721
31
0.0
0
LINE
8
0
6
CONTINUOUS
10
0.110792
20
0.377726
30
0.0
11
0.110975
21
0.377860
31
0.0
0
LINE
8
0
6
CONTINUOUS
10
0.111013
20
0.379232
30
0.0
11
0.111365
21
0.378729
31
0.0
0
LINE
8
0
6
CONTINUOUS
10
0.115702
20
0.381689
30
0.0
11
0.116641
21
0.382350
31
0.0
0
LINE
8
0
6
CONTINUOUS
10
0.091966
20
0.363350
30
0.0
11
0.092625
21
0.363819
31
0.0
0
LINE
8
0
6
CONTINUOUS
10
0.057099
20
0.341743
30
0.0
11
0.057474
21
0.341963
31
0.0
0
LINE
8
0
6
CONTINUOUS
10
0.060357
20
0.343989
30
0.0
11
0.060558
21
0.344098
31
0.0
0
LINE
8
0
6
CONTINUOUS
10
0.064993
20
0.347205
30
0.0
11
0.065160
21
0.347294
31
0.0
0
LINE
8
0
6
CONTINUOUS
10
0.066538
20
0.347858
30
0.0
11
0.067226
21
0.348246
31
0.0
0
LINE
8
0
6
CONTINUOUS
10
0.066538
20
0.347858
30
0.0
11
0.065431
21
0.347147
31
0.0
0
LINE
8
0
6
CONTINUOUS
10
0.071668
20
0.351456
30
0.0
11
0.072357
21
0.351843
31
0.0
0
LINE
8
0
6
CONTINUOUS
10
0.085053
20
0.360832
30
0.0
11
0.085631
21
0.361161
31
0.0
0
LINE
8
0
6
CONTINUOUS
10
0.085053
20
0.360832
30
0.0
11
0.085631
21
0.361161
31
0.0
0
LINE
8
0
6
CONTINUOUS
10
0.107126
20
0.376348
30
0.0
11
0.106340
21
0.375701
31
0.0
0
LINE
8
0
6
CONTINUOUS
10
0.110014
20
0.378457
30
0.0
11
0.109040
21
0.377682
31
0.0
0
LINE
8
0
6
CONTINUOUS
10
0.114995
20
0.382514
30
0.0
11
0.114260
21
0.381903
31
0.0
0
LINE
8
0
6
CONTINUOUS
10
0.114995
20
0.382514
30
0.0
11
0.115124
21
0.382601
31
0.0
0
LINE
8
0
6
CONTINUOUS
10
0.102657
20
0.372616
30
0.0
11
0.101751
21
0.371848
31
0.0
0
LINE
8
0
6
CONTINUOUS
10
0.111759
20
0.380143
30
0.0
11
0.111073
21
0.379548
31
0.0
0
LINE
8
0
6
CONTINUOUS
10
0.060019
20
0.343825
30
0.0
11
0.058876
21
0.343154
31
0.0
0
LINE
8
0
6
CONTINUOUS
10
0.064613
20
0.347033
30
0.0
11
0.064993
21
0.347205
31
0.0
0
LINE
8
0
6
CONTINUOUS
10
0.064613
20
0.347033
30
0.0
11
0.063478
21
0.346350
31
0.0
0
LINE
8
0
6
CONTINUOUS
10
0.069210
20
0.350344
30
0.0
11
0.069146
21
0.350295
31
0.0
0
LINE
8
0
6
CONTINUOUS
10
0.076815
20
0.355577
30
0.0
11
0.077362
21
0.355838
31
0.0
0
LINE
8
0
6
CONTINUOUS
10
0.074573
20
0.352926
30
0.0
11
0.075389
21
0.353358
31
0.0
0
LINE
8
0
6
CONTINUOUS
10
0.075585
20
0.353004
30
0.0
11
0.076387
21
0.353509
31
0.0
0
LINE
8
0
6
CONTINUOUS
10
0.056785
20
0.341576
30
0.0
11
0.055646
21
0.340911
31
0.0
0
LINE
8
0
6
CONTINUOUS
10
0.054922
20
0.340308
30
0.0
11
0.053777
21
0.339651
31
0.0
0
LINE
8
0
6
CONTINUOUS
10
0.089612
20
0.364597
30
0.0
11
0.088974
21
0.364040
31
0.0
0
LINE
8
0
6
CONTINUOUS
10
0.090683
20
0.365341
30
0.0
11
0.091117
21
0.365528
31
0.0
0
LINE
8
0
6
CONTINUOUS
10
0.096302
20
0.369264
30
0.0
11
0.095670
21
0.368699
31
0.0
0
LINE
8
0
6
CONTINUOUS
10
0.102461
20
0.373574
30
0.0
11
0.101847
21
0.373018
31
0.0
0
LINE
8
0
6
CONTINUOUS
10
0.107611
20
0.377184
30
0.0
11
0.107116
21
0.376740
31
0.0
0
LINE
8
0
6
CONTINUOUS
10
0.108642
20
0.377985
30
0.0
11
0.109010
21
0.378200
31
0.0
0
LINE
8
0
6
CONTINUOUS
10
0.099859
20
0.370740
30
0.0
11
0.098646
21
0.369786
31
0.0
0
LINE
8
0
6
CONTINUOUS
10
0.093129
20
0.365931
30
0.0
11
0.092564
21
0.365397
31
0.0
0
LINE
8
0
6
CONTINUOUS
10
0.086388
20
0.361239
30
0.0
11
0.085818
21
0.360712
31
0.0
0
LINE
8
0
6
CONTINUOUS
10
0.083422
20
0.360245
30
0.0
11
0.082335
21
0.359493
31
0.0
0
LINE
8
0
6
CONTINUOUS
10
0.086388
20
0.361239
30
0.0
11
0.085818
21
0.360712
31
0.0
0
LINE
8
0
6
CONTINUOUS
10
0.089939
20
0.362815
30
0.0
11
0.089100
21
0.362169
31
0.0
0
ENDSEC
0
EOF
