999
unknown String-ID: 20550
0
SECTION
2
HEADER
9
$ACADVER
1
AC1009
9
$DWGCODEPAGE
3
unknown String-ID: 20561
0
ENDSEC
0
SECTION
2
TABLES
0
TABLE
2
LAYER
70
1
0
LAYER
2
0
70
0
62
7
6
CONTINUOUS
0
ENDTAB
0
ENDSEC
0
SECTION
2
ENTITIES
0
LINE
8
0
6
CONTINUOUS
10
0.000494
20
0.184313
30
0.0
11
0.000819
21
0.183617
31
0.0
0
LINE
8
0
6
CONTINUOUS
10
0.020516
20
0.165373
30
0.0
11
0.020516
21
0.169074
31
0.0
0
LINE
8
0
6
CONTINUOUS
10
0.020516
20
0.158503
30
0.0
11
0.020516
21
0.161804
31
0.0
0
LINE
8
0
6
CONTINUOUS
10
0.020516
20
0.161804
30
0.0
11
0.020516
21
0.165373
31
0.0
0
LINE
8
0
6
CONTINUOUS
10
0.020516
20
0.172765
30
0.0
11
0.020516
21
0.176304
31
0.0
0
LINE
8
0
6
CONTINUOUS
10
0.020516
20
0.176304
30
0.0
11
0.020516
21
0.178397
31
0.0
0
LINE
8
0
6
CONTINUOUS
10
-0.039972
20
0.187749
30
0.0
11
-0.040292
21
0.187749
31
0.0
0
LINE
8
0
6
CONTINUOUS
10
-0.002343
20
0.187749
30
0.0
11
-0.008913
21
0.187749
31
0.0
0
LINE
8
0
6
CONTINUOUS
10
-0.030913
20
0.187749
30
0.0
11
-0.039972
21
0.187749
31
0.0
0
LINE
8
0
6
CONTINUOUS
10
-0.039972
20
0.149859
30
0.0
11
-0.040292
21
0.149859
31
0.0
0
LINE
8
0
6
CONTINUOUS
10
0.016954
20
0.149859
30
0.0
11
0.012339
21
0.149186
31
0.0
0
LINE
8
0
6
CONTINUOUS
10
0.007430
20
0.149193
30
0.0
11
0.012339
21
0.149169
31
0.0
0
LINE
8
0
6
CONTINUOUS
10
0.007430
20
0.149193
30
0.0
11
0.003868
21
0.149859
31
0.0
0
LINE
8
0
6
CONTINUOUS
10
0.020516
20
0.150276
30
0.0
11
0.020516
21
0.151404
31
0.0
0
LINE
8
0
6
CONTINUOUS
10
0.020516
20
0.151404
30
0.0
11
0.020516
21
0.153202
31
0.0
0
LINE
8
0
6
CONTINUOUS
10
0.020516
20
0.155599
30
0.0
11
0.020516
21
0.158503
31
0.0
0
LINE
8
0
6
CONTINUOUS
10
0.020516
20
0.153202
30
0.0
11
0.020516
21
0.155599
31
0.0
0
LINE
8
0
6
CONTINUOUS
10
0.020516
20
0.149859
30
0.0
11
0.020516
21
0.150276
31
0.0
0
LINE
8
0
6
CONTINUOUS
10
0.020516
20
0.149859
30
0.0
11
0.020116
21
0.149859
31
0.0
0
LINE
8
0
6
CONTINUOUS
10
0.003868
20
0.149859
30
0.0
11
-0.008913
21
0.149859
31
0.0
0
LINE
8
0
6
CONTINUOUS
10
-0.030913
20
0.149859
30
0.0
11
-0.039972
21
0.149859
31
0.0
0
LINE
8
0
6
CONTINUOUS
10
0.020116
20
0.149859
30
0.0
11
0.016954
21
0.149859
31
0.0
0
LINE
8
0
6
CONTINUOUS
10
-0.040292
20
0.169074
30
0.0
11
-0.040292
21
0.172765
31
0.0
0
LINE
8
0
6
CONTINUOUS
10
-0.040292
20
0.172765
30
0.0
11
-0.040292
21
0.176304
31
0.0
0
LINE
8
0
6
CONTINUOUS
10
-0.040292
20
0.158503
30
0.0
11
-0.040292
21
0.161804
31
0.0
0
LINE
8
0
6
CONTINUOUS
10
-0.040292
20
0.165373
30
0.0
11
-0.040292
21
0.169074
31
0.0
0
LINE
8
0
6
CONTINUOUS
10
-0.040292
20
0.182391
30
0.0
11
-0.040292
21
0.184707
31
0.0
0
LINE
8
0
6
CONTINUOUS
10
-0.040292
20
0.150276
30
0.0
11
-0.040292
21
0.151404
31
0.0
0
LINE
8
0
6
CONTINUOUS
10
-0.040292
20
0.176304
30
0.0
11
-0.040292
21
0.179554
31
0.0
0
LINE
8
0
6
CONTINUOUS
10
-0.040292
20
0.161804
30
0.0
11
-0.040292
21
0.165373
31
0.0
0
LINE
8
0
6
CONTINUOUS
10
-0.040292
20
0.155599
30
0.0
11
-0.040292
21
0.158503
31
0.0
0
LINE
8
0
6
CONTINUOUS
10
-0.040292
20
0.184707
30
0.0
11
-0.040292
21
0.186411
31
0.0
0
LINE
8
0
6
CONTINUOUS
10
-0.040292
20
0.187438
30
0.0
11
-0.040292
21
0.187749
31
0.0
0
LINE
8
0
6
CONTINUOUS
10
-0.040292
20
0.179554
30
0.0
11
-0.040292
21
0.182391
31
0.0
0
LINE
8
0
6
CONTINUOUS
10
-0.040292
20
0.149859
30
0.0
11
-0.040292
21
0.150276
31
0.0
0
LINE
8
0
6
CONTINUOUS
10
-0.040292
20
0.153202
30
0.0
11
-0.040292
21
0.155599
31
0.0
0
LINE
8
0
6
CONTINUOUS
10
-0.040292
20
0.151404
30
0.0
11
-0.040292
21
0.153202
31
0.0
0
LINE
8
0
6
CONTINUOUS
10
-0.040292
20
0.186411
30
0.0
11
-0.040292
21
0.187438
31
0.0
0
LINE
8
0
6
CONTINUOUS
10
-0.061424
20
0.149932
30
0.0
11
-0.062137
21
0.149932
31
0.0
0
LINE
8
0
6
CONTINUOUS
10
-0.061424
20
0.149932
30
0.0
11
-0.041163
21
0.149932
31
0.0
0
LINE
8
0
6
CONTINUOUS
10
-0.045670
20
0.187676
30
0.0
11
-0.041163
21
0.187676
31
0.0
0
LINE
8
0
6
CONTINUOUS
10
-0.041163
20
0.149932
30
0.0
11
-0.040873
21
0.149932
31
0.0
0
LINE
8
0
6
CONTINUOUS
10
-0.041163
20
0.187676
30
0.0
11
-0.040873
21
0.187676
31
0.0
0
LINE
8
0
6
CONTINUOUS
10
-0.062137
20
0.149932
30
0.0
11
-0.062137
21
0.150575
31
0.0
0
LINE
8
0
6
CONTINUOUS
10
-0.062137
20
0.150575
30
0.0
11
-0.062137
21
0.152460
31
0.0
0
LINE
8
0
6
CONTINUOUS
10
-0.062137
20
0.152460
30
0.0
11
-0.062137
21
0.155459
31
0.0
0
LINE
8
0
6
CONTINUOUS
10
-0.062137
20
0.155459
30
0.0
11
-0.062137
21
0.159368
31
0.0
0
LINE
8
0
6
CONTINUOUS
10
-0.062137
20
0.159368
30
0.0
11
-0.062137
21
0.163920
31
0.0
0
LINE
8
0
6
CONTINUOUS
10
-0.062137
20
0.163920
30
0.0
11
-0.062137
21
0.168804
31
0.0
0
LINE
8
0
6
CONTINUOUS
10
-0.062137
20
0.168804
30
0.0
11
-0.062137
21
0.173689
31
0.0
0
LINE
8
0
6
CONTINUOUS
10
-0.062137
20
0.173689
30
0.0
11
-0.062137
21
0.178240
31
0.0
0
LINE
8
0
6
CONTINUOUS
10
-0.062137
20
0.178240
30
0.0
11
-0.062137
21
0.182149
31
0.0
0
LINE
8
0
6
CONTINUOUS
10
-0.062137
20
0.182149
30
0.0
11
-0.062137
21
0.185148
31
0.0
0
LINE
8
0
6
CONTINUOUS
10
-0.062137
20
0.185148
30
0.0
11
-0.062137
21
0.187033
31
0.0
0
LINE
8
0
6
CONTINUOUS
10
-0.062137
20
0.187033
30
0.0
11
-0.062137
21
0.187676
31
0.0
0
LINE
8
0
6
CONTINUOUS
10
-0.061223
20
0.195972
30
0.0
11
-0.061336
21
0.195978
31
0.0
0
LINE
8
0
6
CONTINUOUS
10
-0.061223
20
0.195972
30
0.0
11
-0.045783
21
0.195985
31
0.0
0
LINE
8
0
6
CONTINUOUS
10
-0.045670
20
0.184108
30
0.0
11
-0.045670
21
0.191991
31
0.0
0
LINE
8
0
6
CONTINUOUS
10
-0.045783
20
0.195985
30
0.0
11
-0.045670
21
0.195986
31
0.0
0
LINE
8
0
6
CONTINUOUS
10
-0.061336
20
0.195978
30
0.0
11
-0.061360
21
0.195936
31
0.0
0
LINE
8
0
6
CONTINUOUS
10
-0.061360
20
0.195936
30
0.0
11
-0.061393
21
0.195693
31
0.0
0
LINE
8
0
6
CONTINUOUS
10
-0.061393
20
0.195693
30
0.0
11
-0.061435
21
0.195265
31
0.0
0
LINE
8
0
6
CONTINUOUS
10
-0.061435
20
0.195265
30
0.0
11
-0.061481
21
0.194683
31
0.0
0
LINE
8
0
6
CONTINUOUS
10
-0.061481
20
0.194683
30
0.0
11
-0.061529
21
0.193985
31
0.0
0
LINE
8
0
6
CONTINUOUS
10
-0.062076
20
0.186114
30
0.0
11
-0.061529
21
0.193985
31
0.0
0
LINE
8
0
6
CONTINUOUS
10
-0.045670
20
0.192758
30
0.0
11
-0.045670
21
0.191991
31
0.0
0
LINE
8
0
6
CONTINUOUS
10
-0.045670
20
0.193542
30
0.0
11
-0.045670
21
0.192758
31
0.0
0
LINE
8
0
6
CONTINUOUS
10
-0.045670
20
0.194287
30
0.0
11
-0.045670
21
0.193542
31
0.0
0
LINE
8
0
6
CONTINUOUS
10
-0.045670
20
0.194944
30
0.0
11
-0.045670
21
0.194287
31
0.0
0
LINE
8
0
6
CONTINUOUS
10
-0.045670
20
0.195468
30
0.0
11
-0.045670
21
0.194944
31
0.0
0
LINE
8
0
6
CONTINUOUS
10
-0.045670
20
0.195823
30
0.0
11
-0.045670
21
0.195468
31
0.0
0
LINE
8
0
6
CONTINUOUS
10
-0.045670
20
0.195986
30
0.0
11
-0.045670
21
0.195823
31
0.0
0
LINE
8
0
6
CONTINUOUS
10
-0.040873
20
0.150575
30
0.0
11
-0.040873
21
0.149932
31
0.0
0
LINE
8
0
6
CONTINUOUS
10
-0.040873
20
0.152460
30
0.0
11
-0.040873
21
0.150575
31
0.0
0
LINE
8
0
6
CONTINUOUS
10
-0.040873
20
0.155459
30
0.0
11
-0.040873
21
0.152460
31
0.0
0
LINE
8
0
6
CONTINUOUS
10
-0.040873
20
0.159368
30
0.0
11
-0.040873
21
0.155459
31
0.0
0
LINE
8
0
6
CONTINUOUS
10
-0.040873
20
0.163919
30
0.0
11
-0.040873
21
0.159368
31
0.0
0
LINE
8
0
6
CONTINUOUS
10
-0.040873
20
0.168804
30
0.0
11
-0.040873
21
0.163919
31
0.0
0
LINE
8
0
6
CONTINUOUS
10
-0.040873
20
0.173689
30
0.0
11
-0.040873
21
0.168804
31
0.0
0
LINE
8
0
6
CONTINUOUS
10
-0.040873
20
0.178240
30
0.0
11
-0.040873
21
0.173689
31
0.0
0
LINE
8
0
6
CONTINUOUS
10
-0.040873
20
0.182149
30
0.0
11
-0.040873
21
0.178240
31
0.0
0
LINE
8
0
6
CONTINUOUS
10
-0.040873
20
0.187033
30
0.0
11
-0.040873
21
0.185148
31
0.0
0
LINE
8
0
6
CONTINUOUS
10
-0.040873
20
0.187676
30
0.0
11
-0.040873
21
0.187033
31
0.0
0
LINE
8
0
6
CONTINUOUS
10
-0.022713
20
-0.305033
30
0.0
11
-0.019913
21
-0.305033
31
0.0
0
LINE
8
0
6
CONTINUOUS
10
-0.030913
20
-0.356479
30
0.0
11
-0.030913
21
-0.357033
31
0.0
0
LINE
8
0
6
CONTINUOUS
10
-0.030513
20
-0.357033
30
0.0
11
-0.030913
21
-0.357033
31
0.0
0
LINE
8
0
6
CONTINUOUS
10
-0.029413
20
-0.357033
30
0.0
11
-0.030513
21
-0.357033
31
0.0
0
LINE
8
0
6
CONTINUOUS
10
-0.027713
20
-0.357033
30
0.0
11
-0.029413
21
-0.357033
31
0.0
0
LINE
8
0
6
CONTINUOUS
10
-0.025413
20
-0.357033
30
0.0
11
-0.027713
21
-0.357033
31
0.0
0
LINE
8
0
6
CONTINUOUS
10
-0.022713
20
-0.357033
30
0.0
11
-0.025413
21
-0.357033
31
0.0
0
LINE
8
0
6
CONTINUOUS
10
-0.019913
20
-0.357033
30
0.0
11
-0.022713
21
-0.357033
31
0.0
0
LINE
8
0
6
CONTINUOUS
10
-0.022713
20
-0.305033
30
0.0
11
-0.025413
21
-0.305033
31
0.0
0
LINE
8
0
6
CONTINUOUS
10
-0.025413
20
-0.305033
30
0.0
11
-0.027713
21
-0.305033
31
0.0
0
LINE
8
0
6
CONTINUOUS
10
-0.029413
20
-0.305033
30
0.0
11
-0.030513
21
-0.305033
31
0.0
0
LINE
8
0
6
CONTINUOUS
10
-0.008913
20
-0.357033
30
0.0
11
-0.009313
21
-0.357033
31
0.0
0
LINE
8
0
6
CONTINUOUS
10
-0.009313
20
-0.357033
30
0.0
11
-0.010413
21
-0.357033
31
0.0
0
LINE
8
0
6
CONTINUOUS
10
-0.010413
20
-0.357033
30
0.0
11
-0.012113
21
-0.357033
31
0.0
0
LINE
8
0
6
CONTINUOUS
10
-0.012113
20
-0.357033
30
0.0
11
-0.014413
21
-0.357033
31
0.0
0
LINE
8
0
6
CONTINUOUS
10
-0.014413
20
-0.357033
30
0.0
11
-0.017113
21
-0.357033
31
0.0
0
LINE
8
0
6
CONTINUOUS
10
-0.017113
20
-0.357033
30
0.0
11
-0.019913
21
-0.357033
31
0.0
0
LINE
8
0
6
CONTINUOUS
10
-0.030513
20
-0.305033
30
0.0
11
-0.030913
21
-0.305033
31
0.0
0
LINE
8
0
6
CONTINUOUS
10
-0.030913
20
-0.305587
30
0.0
11
-0.030913
21
-0.305033
31
0.0
0
LINE
8
0
6
CONTINUOUS
10
-0.030913
20
-0.356479
30
0.0
11
-0.030913
21
-0.305587
31
0.0
0
LINE
8
0
6
CONTINUOUS
10
-0.027713
20
-0.305033
30
0.0
11
-0.029413
21
-0.305033
31
0.0
0
LINE
8
0
6
CONTINUOUS
10
-0.008913
20
-0.304533
30
0.0
11
-0.009413
21
-0.305033
31
0.0
0
LINE
8
0
6
CONTINUOUS
10
-0.008913
20
0.259467
30
0.0
11
-0.008913
21
0.259154
31
0.0
0
LINE
8
0
6
CONTINUOUS
10
-0.009413
20
0.259967
30
0.0
11
-0.008913
21
0.259467
31
0.0
0
LINE
8
0
6
CONTINUOUS
10
-0.030413
20
-0.305033
30
0.0
11
-0.030913
21
-0.304533
31
0.0
0
LINE
8
0
6
CONTINUOUS
10
-0.030913
20
0.259154
30
0.0
11
-0.030913
21
0.259467
31
0.0
0
LINE
8
0
6
CONTINUOUS
10
-0.030913
20
0.259467
30
0.0
11
-0.030413
21
0.259967
31
0.0
0
LINE
8
0
6
CONTINUOUS
10
-0.009313
20
0.259967
30
0.0
11
-0.008913
21
0.259967
31
0.0
0
LINE
8
0
6
CONTINUOUS
10
-0.010413
20
0.259967
30
0.0
11
-0.009313
21
0.259967
31
0.0
0
LINE
8
0
6
CONTINUOUS
10
-0.012113
20
0.259967
30
0.0
11
-0.010413
21
0.259967
31
0.0
0
LINE
8
0
6
CONTINUOUS
10
-0.014413
20
0.259967
30
0.0
11
-0.012113
21
0.259967
31
0.0
0
LINE
8
0
6
CONTINUOUS
10
-0.017113
20
0.259967
30
0.0
11
-0.014413
21
0.259967
31
0.0
0
LINE
8
0
6
CONTINUOUS
10
-0.019913
20
0.259967
30
0.0
11
-0.017113
21
0.259967
31
0.0
0
LINE
8
0
6
CONTINUOUS
10
-0.030913
20
0.260675
30
0.0
11
-0.030913
21
0.259967
31
0.0
0
LINE
8
0
6
CONTINUOUS
10
-0.030913
20
0.259967
30
0.0
11
-0.030513
21
0.259967
31
0.0
0
LINE
8
0
6
CONTINUOUS
10
-0.030913
20
0.296859
30
0.0
11
-0.030913
21
0.260675
31
0.0
0
LINE
8
0
6
CONTINUOUS
10
-0.030513
20
0.259967
30
0.0
11
-0.029413
21
0.259967
31
0.0
0
LINE
8
0
6
CONTINUOUS
10
-0.029413
20
0.259967
30
0.0
11
-0.027713
21
0.259967
31
0.0
0
LINE
8
0
6
CONTINUOUS
10
-0.027713
20
0.259967
30
0.0
11
-0.025413
21
0.259967
31
0.0
0
LINE
8
0
6
CONTINUOUS
10
-0.025413
20
0.259967
30
0.0
11
-0.022713
21
0.259967
31
0.0
0
LINE
8
0
6
CONTINUOUS
10
-0.022713
20
0.259967
30
0.0
11
-0.019913
21
0.259967
31
0.0
0
LINE
8
0
6
CONTINUOUS
10
-0.008913
20
0.260675
30
0.0
11
-0.008913
21
0.259967
31
0.0
0
LINE
8
0
6
CONTINUOUS
10
-0.008913
20
0.284121
30
0.0
11
-0.008913
21
0.260675
31
0.0
0
LINE
8
0
6
CONTINUOUS
10
-0.008913
20
0.259154
30
0.0
11
-0.008913
21
0.258612
31
0.0
0
LINE
8
0
6
CONTINUOUS
10
-0.030913
20
0.258612
30
0.0
11
-0.030913
21
0.259154
31
0.0
0
LINE
8
0
6
CONTINUOUS
10
-0.008913
20
-0.305033
30
0.0
11
-0.009313
21
-0.305033
31
0.0
0
LINE
8
0
6
CONTINUOUS
10
-0.009313
20
-0.305033
30
0.0
11
-0.010413
21
-0.305033
31
0.0
0
LINE
8
0
6
CONTINUOUS
10
-0.010413
20
-0.305033
30
0.0
11
-0.012113
21
-0.305033
31
0.0
0
LINE
8
0
6
CONTINUOUS
10
-0.012113
20
-0.305033
30
0.0
11
-0.014413
21
-0.305033
31
0.0
0
LINE
8
0
6
CONTINUOUS
10
-0.014413
20
-0.305033
30
0.0
11
-0.017113
21
-0.305033
31
0.0
0
LINE
8
0
6
CONTINUOUS
10
-0.017113
20
-0.305033
30
0.0
11
-0.019913
21
-0.305033
31
0.0
0
LINE
8
0
6
CONTINUOUS
10
-0.008913
20
-0.305033
30
0.0
11
-0.008913
21
-0.305587
31
0.0
0
LINE
8
0
6
CONTINUOUS
10
-0.008913
20
-0.305587
30
0.0
11
-0.008913
21
-0.356479
31
0.0
0
LINE
8
0
6
CONTINUOUS
10
-0.008913
20
-0.356479
30
0.0
11
-0.008913
21
-0.357033
31
0.0
0
LINE
8
0
6
CONTINUOUS
10
-0.030913
20
-0.304319
30
0.0
11
-0.030913
21
-0.304533
31
0.0
0
LINE
8
0
6
CONTINUOUS
10
-0.008913
20
-0.304319
30
0.0
11
-0.008913
21
-0.304533
31
0.0
0
LINE
8
0
6
CONTINUOUS
10
-0.008913
20
0.258612
30
0.0
11
-0.008913
21
0.187749
31
0.0
0
LINE
8
0
6
CONTINUOUS
10
-0.008913
20
0.149859
30
0.0
11
-0.008913
21
-0.303739
31
0.0
0
LINE
8
0
6
CONTINUOUS
10
-0.030913
20
-0.303739
30
0.0
11
-0.030913
21
0.149859
31
0.0
0
LINE
8
0
6
CONTINUOUS
10
-0.030913
20
0.187749
30
0.0
11
-0.030913
21
0.258612
31
0.0
0
LINE
8
0
6
CONTINUOUS
10
-0.008913
20
-0.303739
30
0.0
11
-0.008913
21
-0.304319
31
0.0
0
LINE
8
0
6
CONTINUOUS
10
-0.030913
20
-0.304319
30
0.0
11
-0.030913
21
-0.303739
31
0.0
0
LINE
8
0
6
CONTINUOUS
10
0.019597
20
0.148413
30
0.0
11
0.019597
21
0.149859
31
0.0
0
LINE
8
0
6
CONTINUOUS
10
0.003597
20
0.148413
30
0.0
11
0.003597
21
0.149859
31
0.0
0
LINE
8
0
6
CONTINUOUS
10
0.019597
20
0.129806
30
0.0
11
0.019597
21
0.148413
31
0.0
0
LINE
8
0
6
CONTINUOUS
10
0.003597
20
0.129806
30
0.0
11
0.003597
21
0.148413
31
0.0
0
LINE
8
0
6
CONTINUOUS
10
0.019597
20
0.112481
30
0.0
11
0.019597
21
0.129806
31
0.0
0
LINE
8
0
6
CONTINUOUS
10
0.003597
20
0.112481
30
0.0
11
0.003597
21
0.129806
31
0.0
0
LINE
8
0
6
CONTINUOUS
10
0.019597
20
0.096021
30
0.0
11
0.019597
21
0.112481
31
0.0
0
LINE
8
0
6
CONTINUOUS
10
0.003597
20
0.096021
30
0.0
11
0.003597
21
0.112481
31
0.0
0
LINE
8
0
6
CONTINUOUS
10
0.019597
20
0.080009
30
0.0
11
0.019597
21
0.096021
31
0.0
0
LINE
8
0
6
CONTINUOUS
10
0.003597
20
0.080009
30
0.0
11
0.003597
21
0.096021
31
0.0
0
LINE
8
0
6
CONTINUOUS
10
0.019597
20
0.064028
30
0.0
11
0.019597
21
0.080009
31
0.0
0
LINE
8
0
6
CONTINUOUS
10
0.003597
20
0.064028
30
0.0
11
0.003597
21
0.080009
31
0.0
0
LINE
8
0
6
CONTINUOUS
10
0.019597
20
0.047660
30
0.0
11
0.019597
21
0.064028
31
0.0
0
LINE
8
0
6
CONTINUOUS
10
0.003597
20
0.047660
30
0.0
11
0.003597
21
0.064028
31
0.0
0
LINE
8
0
6
CONTINUOUS
10
0.019597
20
0.030488
30
0.0
11
0.019597
21
0.047660
31
0.0
0
LINE
8
0
6
CONTINUOUS
10
0.003597
20
0.030488
30
0.0
11
0.003597
21
0.047660
31
0.0
0
LINE
8
0
6
CONTINUOUS
10
0.019597
20
0.012094
30
0.0
11
0.019597
21
0.030488
31
0.0
0
LINE
8
0
6
CONTINUOUS
10
0.003597
20
0.012094
30
0.0
11
0.003597
21
0.030488
31
0.0
0
LINE
8
0
6
CONTINUOUS
10
0.019597
20
-0.007939
30
0.0
11
0.019597
21
0.012094
31
0.0
0
LINE
8
0
6
CONTINUOUS
10
0.003597
20
-0.007939
30
0.0
11
0.003597
21
0.012094
31
0.0
0
LINE
8
0
6
CONTINUOUS
10
0.019597
20
-0.049694
30
0.0
11
0.019597
21
-0.007939
31
0.0
0
LINE
8
0
6
CONTINUOUS
10
0.003597
20
-0.049694
30
0.0
11
0.003597
21
-0.007939
31
0.0
0
LINE
8
0
6
CONTINUOUS
10
0.019597
20
-0.092525
30
0.0
11
0.019597
21
-0.049694
31
0.0
0
LINE
8
0
6
CONTINUOUS
10
0.003597
20
-0.092525
30
0.0
11
0.003597
21
-0.049694
31
0.0
0
LINE
8
0
6
CONTINUOUS
10
0.019597
20
-0.135459
30
0.0
11
0.019597
21
-0.092525
31
0.0
0
LINE
8
0
6
CONTINUOUS
10
0.003597
20
-0.135459
30
0.0
11
0.003597
21
-0.092525
31
0.0
0
LINE
8
0
6
CONTINUOUS
10
0.019597
20
-0.177522
30
0.0
11
0.019597
21
-0.135459
31
0.0
0
LINE
8
0
6
CONTINUOUS
10
0.003597
20
-0.177522
30
0.0
11
0.003597
21
-0.135459
31
0.0
0
LINE
8
0
6
CONTINUOUS
10
0.019597
20
-0.217738
30
0.0
11
0.019597
21
-0.177522
31
0.0
0
LINE
8
0
6
CONTINUOUS
10
0.003597
20
-0.217738
30
0.0
11
0.003597
21
-0.177522
31
0.0
0
LINE
8
0
6
CONTINUOUS
10
0.019597
20
-0.255135
30
0.0
11
0.019597
21
-0.217738
31
0.0
0
LINE
8
0
6
CONTINUOUS
10
0.003597
20
-0.255135
30
0.0
11
0.003597
21
-0.217738
31
0.0
0
LINE
8
0
6
CONTINUOUS
10
0.019597
20
-0.288737
30
0.0
11
0.019597
21
-0.255135
31
0.0
0
LINE
8
0
6
CONTINUOUS
10
0.003597
20
-0.288737
30
0.0
11
0.003597
21
-0.255135
31
0.0
0
LINE
8
0
6
CONTINUOUS
10
0.019597
20
-0.317570
30
0.0
11
0.019597
21
-0.288737
31
0.0
0
LINE
8
0
6
CONTINUOUS
10
0.003597
20
-0.317570
30
0.0
11
0.003597
21
-0.288737
31
0.0
0
LINE
8
0
6
CONTINUOUS
10
0.019597
20
-0.340660
30
0.0
11
0.019597
21
-0.317570
31
0.0
0
LINE
8
0
6
CONTINUOUS
10
0.003597
20
-0.340660
30
0.0
11
0.003597
21
-0.317570
31
0.0
0
LINE
8
0
6
CONTINUOUS
10
0.019597
20
-0.357033
30
0.0
11
0.019597
21
-0.340660
31
0.0
0
LINE
8
0
6
CONTINUOUS
10
0.018525
20
-0.357033
30
0.0
11
0.019597
21
-0.357033
31
0.0
0
LINE
8
0
6
CONTINUOUS
10
0.015597
20
-0.357033
30
0.0
11
0.018525
21
-0.357033
31
0.0
0
LINE
8
0
6
CONTINUOUS
10
0.011597
20
-0.357033
30
0.0
11
0.015597
21
-0.357033
31
0.0
0
LINE
8
0
6
CONTINUOUS
10
0.007597
20
-0.357033
30
0.0
11
0.011597
21
-0.357033
31
0.0
0
LINE
8
0
6
CONTINUOUS
10
0.004669
20
-0.357033
30
0.0
11
0.007597
21
-0.357033
31
0.0
0
LINE
8
0
6
CONTINUOUS
10
0.003597
20
-0.357033
30
0.0
11
0.004669
21
-0.357033
31
0.0
0
LINE
8
0
6
CONTINUOUS
10
0.003597
20
-0.357033
30
0.0
11
0.003597
21
-0.340660
31
0.0
0
LINE
8
0
6
CONTINUOUS
10
0.041865
20
0.308496
30
0.0
11
0.043108
21
0.308759
31
0.0
0
LINE
8
0
6
CONTINUOUS
10
0.044119
20
0.308274
30
0.0
11
0.044112
21
0.309039
31
0.0
0
LINE
8
0
6
CONTINUOUS
10
0.043108
20
0.308759
30
0.0
11
0.044119
21
0.308274
31
0.0
0
LINE
8
0
6
CONTINUOUS
10
0.041632
20
0.307748
30
0.0
11
0.041865
21
0.308496
31
0.0
0
LINE
8
0
6
CONTINUOUS
10
0.041626
20
0.308383
30
0.0
11
0.041632
21
0.307748
31
0.0
0
LINE
8
0
6
CONTINUOUS
10
0.041865
20
0.308496
30
0.0
11
0.041632
21
0.307748
31
0.0
0
LINE
8
0
6
CONTINUOUS
10
0.043108
20
0.308759
30
0.0
11
0.041865
21
0.308496
31
0.0
0
LINE
8
0
6
CONTINUOUS
10
0.044119
20
0.308274
30
0.0
11
0.043108
21
0.308759
31
0.0
0
LINE
8
0
6
CONTINUOUS
10
0.043886
20
0.307526
30
0.0
11
0.044119
21
0.308274
31
0.0
0
LINE
8
0
6
CONTINUOUS
10
0.042642
20
0.307263
30
0.0
11
0.043886
21
0.307526
31
0.0
0
LINE
8
0
6
CONTINUOUS
10
0.041632
20
0.307748
30
0.0
11
0.042642
21
0.307263
31
0.0
0
LINE
8
0
6
CONTINUOUS
10
0.036722
20
0.306833
30
0.0
11
0.038171
21
0.307139
31
0.0
0
LINE
8
0
6
CONTINUOUS
10
0.039348
20
0.306574
30
0.0
11
0.039340
21
0.307365
31
0.0
0
LINE
8
0
6
CONTINUOUS
10
0.038171
20
0.307139
30
0.0
11
0.039348
21
0.306574
31
0.0
0
LINE
8
0
6
CONTINUOUS
10
0.036451
20
0.305961
30
0.0
11
0.036722
21
0.306833
31
0.0
0
LINE
8
0
6
CONTINUOUS
10
0.036445
20
0.306570
30
0.0
11
0.036451
21
0.305961
31
0.0
0
LINE
8
0
6
CONTINUOUS
10
0.036722
20
0.306833
30
0.0
11
0.036451
21
0.305961
31
0.0
0
LINE
8
0
6
CONTINUOUS
10
0.038171
20
0.307139
30
0.0
11
0.036722
21
0.306833
31
0.0
0
LINE
8
0
6
CONTINUOUS
10
0.039348
20
0.306574
30
0.0
11
0.038171
21
0.307139
31
0.0
0
LINE
8
0
6
CONTINUOUS
10
0.039077
20
0.305703
30
0.0
11
0.039348
21
0.306574
31
0.0
0
LINE
8
0
6
CONTINUOUS
10
0.037628
20
0.305397
30
0.0
11
0.039077
21
0.305703
31
0.0
0
LINE
8
0
6
CONTINUOUS
10
0.036451
20
0.305961
30
0.0
11
0.037628
21
0.305397
31
0.0
0
LINE
8
0
6
CONTINUOUS
10
0.031266
20
0.303594
30
0.0
11
0.032715
21
0.303900
31
0.0
0
LINE
8
0
6
CONTINUOUS
10
0.033892
20
0.303335
30
0.0
11
0.033884
21
0.304130
31
0.0
0
LINE
8
0
6
CONTINUOUS
10
0.032715
20
0.303900
30
0.0
11
0.033892
21
0.303335
31
0.0
0
LINE
8
0
6
CONTINUOUS
10
0.030995
20
0.302723
30
0.0
11
0.031266
21
0.303594
31
0.0
0
LINE
8
0
6
CONTINUOUS
10
0.030989
20
0.303343
30
0.0
11
0.030995
21
0.302723
31
0.0
0
LINE
8
0
6
CONTINUOUS
10
0.031266
20
0.303594
30
0.0
11
0.030995
21
0.302723
31
0.0
0
LINE
8
0
6
CONTINUOUS
10
0.032715
20
0.303900
30
0.0
11
0.031266
21
0.303594
31
0.0
0
LINE
8
0
6
CONTINUOUS
10
0.033892
20
0.303335
30
0.0
11
0.032715
21
0.303900
31
0.0
0
LINE
8
0
6
CONTINUOUS
10
0.033621
20
0.302464
30
0.0
11
0.033892
21
0.303335
31
0.0
0
LINE
8
0
6
CONTINUOUS
10
0.032172
20
0.302158
30
0.0
11
0.033621
21
0.302464
31
0.0
0
LINE
8
0
6
CONTINUOUS
10
0.030995
20
0.302723
30
0.0
11
0.032172
21
0.302158
31
0.0
0
LINE
8
0
6
CONTINUOUS
10
0.045412
20
0.298532
30
0.0
11
0.046656
21
0.298795
31
0.0
0
LINE
8
0
6
CONTINUOUS
10
0.047667
20
0.298310
30
0.0
11
0.047660
21
0.299076
31
0.0
0
LINE
8
0
6
CONTINUOUS
10
0.046656
20
0.298795
30
0.0
11
0.047667
21
0.298310
31
0.0
0
LINE
8
0
6
CONTINUOUS
10
0.045179
20
0.297784
30
0.0
11
0.045412
21
0.298532
31
0.0
0
LINE
8
0
6
CONTINUOUS
10
0.045173
20
0.298427
30
0.0
11
0.045179
21
0.297784
31
0.0
0
LINE
8
0
6
CONTINUOUS
10
0.045412
20
0.298532
30
0.0
11
0.045179
21
0.297784
31
0.0
0
LINE
8
0
6
CONTINUOUS
10
0.046656
20
0.298795
30
0.0
11
0.045412
21
0.298532
31
0.0
0
LINE
8
0
6
CONTINUOUS
10
0.047667
20
0.298310
30
0.0
11
0.046656
21
0.298795
31
0.0
0
LINE
8
0
6
CONTINUOUS
10
0.047434
20
0.297562
30
0.0
11
0.047667
21
0.298310
31
0.0
0
LINE
8
0
6
CONTINUOUS
10
0.046190
20
0.297298
30
0.0
11
0.047434
21
0.297562
31
0.0
0
LINE
8
0
6
CONTINUOUS
10
0.045179
20
0.297784
30
0.0
11
0.046190
21
0.297298
31
0.0
0
LINE
8
0
6
CONTINUOUS
10
0.039071
20
0.292196
30
0.0
11
0.040315
21
0.292459
31
0.0
0
LINE
8
0
6
CONTINUOUS
10
0.041326
20
0.291974
30
0.0
11
0.041319
21
0.292715
31
0.0
0
LINE
8
0
6
CONTINUOUS
10
0.040315
20
0.292459
30
0.0
11
0.041326
21
0.291974
31
0.0
0
LINE
8
0
6
CONTINUOUS
10
0.038838
20
0.291447
30
0.0
11
0.039071
21
0.292196
31
0.0
0
LINE
8
0
6
CONTINUOUS
10
0.038832
20
0.292122
30
0.0
11
0.038838
21
0.291447
31
0.0
0
LINE
8
0
6
CONTINUOUS
10
0.039071
20
0.292196
30
0.0
11
0.038838
21
0.291447
31
0.0
0
LINE
8
0
6
CONTINUOUS
10
0.040315
20
0.292459
30
0.0
11
0.039071
21
0.292196
31
0.0
0
LINE
8
0
6
CONTINUOUS
10
0.041326
20
0.291974
30
0.0
11
0.040315
21
0.292459
31
0.0
0
LINE
8
0
6
CONTINUOUS
10
0.041093
20
0.291225
30
0.0
11
0.041326
21
0.291974
31
0.0
0
LINE
8
0
6
CONTINUOUS
10
0.039849
20
0.290962
30
0.0
11
0.041093
21
0.291225
31
0.0
0
LINE
8
0
6
CONTINUOUS
10
0.038838
20
0.291447
30
0.0
11
0.039849
21
0.290962
31
0.0
0
LINE
8
0
6
CONTINUOUS
10
0.029388
20
0.287458
30
0.0
11
0.030632
21
0.287721
31
0.0
0
LINE
8
0
6
CONTINUOUS
10
0.031642
20
0.287236
30
0.0
11
0.031636
21
0.287965
31
0.0
0
LINE
8
0
6
CONTINUOUS
10
0.030632
20
0.287721
30
0.0
11
0.031642
21
0.287236
31
0.0
0
LINE
8
0
6
CONTINUOUS
10
0.029155
20
0.286710
30
0.0
11
0.029388
21
0.287458
31
0.0
0
LINE
8
0
6
CONTINUOUS
10
0.029148
20
0.287403
30
0.0
11
0.029155
21
0.286710
31
0.0
0
LINE
8
0
6
CONTINUOUS
10
0.029388
20
0.287458
30
0.0
11
0.029155
21
0.286710
31
0.0
0
LINE
8
0
6
CONTINUOUS
10
0.030632
20
0.287721
30
0.0
11
0.029388
21
0.287458
31
0.0
0
LINE
8
0
6
CONTINUOUS
10
0.031642
20
0.287236
30
0.0
11
0.030632
21
0.287721
31
0.0
0
LINE
8
0
6
CONTINUOUS
10
0.031409
20
0.286488
30
0.0
11
0.031642
21
0.287236
31
0.0
0
LINE
8
0
6
CONTINUOUS
10
0.030166
20
0.286225
30
0.0
11
0.031409
21
0.286488
31
0.0
0
LINE
8
0
6
CONTINUOUS
10
0.029155
20
0.286710
30
0.0
11
0.030166
21
0.286225
31
0.0
0
LINE
8
0
6
CONTINUOUS
10
0.017437
20
0.284946
30
0.0
11
0.018681
21
0.285209
31
0.0
0
LINE
8
0
6
CONTINUOUS
10
0.019692
20
0.284724
30
0.0
11
0.019685
21
0.285427
31
0.0
0
LINE
8
0
6
CONTINUOUS
10
0.018681
20
0.285209
30
0.0
11
0.019692
21
0.284724
31
0.0
0
LINE
8
0
6
CONTINUOUS
10
0.017204
20
0.284198
30
0.0
11
0.017437
21
0.284946
31
0.0
0
LINE
8
0
6
CONTINUOUS
10
0.017197
20
0.284944
30
0.0
11
0.017204
21
0.284198
31
0.0
0
LINE
8
0
6
CONTINUOUS
10
0.017437
20
0.284946
30
0.0
11
0.017204
21
0.284198
31
0.0
0
LINE
8
0
6
CONTINUOUS
10
0.018681
20
0.285209
30
0.0
11
0.017437
21
0.284946
31
0.0
0
LINE
8
0
6
CONTINUOUS
10
0.019692
20
0.284724
30
0.0
11
0.018681
21
0.285209
31
0.0
0
LINE
8
0
6
CONTINUOUS
10
0.019459
20
0.283976
30
0.0
11
0.019692
21
0.284724
31
0.0
0
LINE
8
0
6
CONTINUOUS
10
0.018215
20
0.283713
30
0.0
11
0.019459
21
0.283976
31
0.0
0
LINE
8
0
6
CONTINUOUS
10
0.017204
20
0.284198
30
0.0
11
0.018215
21
0.283713
31
0.0
0
LINE
8
0
6
CONTINUOUS
10
0.004757
20
0.284895
30
0.0
11
0.006001
21
0.285158
31
0.0
0
LINE
8
0
6
CONTINUOUS
10
0.007012
20
0.284673
30
0.0
11
0.007005
21
0.285373
31
0.0
0
LINE
8
0
6
CONTINUOUS
10
0.006001
20
0.285158
30
0.0
11
0.007012
21
0.284673
31
0.0
0
LINE
8
0
6
CONTINUOUS
10
0.004524
20
0.284147
30
0.0
11
0.004757
21
0.284895
31
0.0
0
LINE
8
0
6
CONTINUOUS
10
0.004517
20
0.284924
30
0.0
11
0.004524
21
0.284147
31
0.0
0
LINE
8
0
6
CONTINUOUS
10
0.004757
20
0.284895
30
0.0
11
0.004524
21
0.284147
31
0.0
0
LINE
8
0
6
CONTINUOUS
10
0.006001
20
0.285158
30
0.0
11
0.004757
21
0.284895
31
0.0
0
LINE
8
0
6
CONTINUOUS
10
0.007012
20
0.284673
30
0.0
11
0.006001
21
0.285158
31
0.0
0
LINE
8
0
6
CONTINUOUS
10
0.006779
20
0.283925
30
0.0
11
0.007012
21
0.284673
31
0.0
0
LINE
8
0
6
CONTINUOUS
10
0.005535
20
0.283662
30
0.0
11
0.006779
21
0.283925
31
0.0
0
LINE
8
0
6
CONTINUOUS
10
0.004524
20
0.284147
30
0.0
11
0.005535
21
0.283662
31
0.0
0
LINE
8
0
6
CONTINUOUS
10
-0.007191
20
0.287307
30
0.0
11
-0.005947
21
0.287570
31
0.0
0
LINE
8
0
6
CONTINUOUS
10
-0.004936
20
0.287085
30
0.0
11
-0.004943
21
0.287772
31
0.0
0
LINE
8
0
6
CONTINUOUS
10
-0.005947
20
0.287570
30
0.0
11
-0.004936
21
0.287085
31
0.0
0
LINE
8
0
6
CONTINUOUS
10
-0.007424
20
0.286559
30
0.0
11
-0.007191
21
0.287307
31
0.0
0
LINE
8
0
6
CONTINUOUS
10
-0.007432
20
0.287382
30
0.0
11
-0.007424
21
0.286559
31
0.0
0
LINE
8
0
6
CONTINUOUS
10
-0.007191
20
0.287307
30
0.0
11
-0.007424
21
0.286559
31
0.0
0
LINE
8
0
6
CONTINUOUS
10
-0.005947
20
0.287570
30
0.0
11
-0.007191
21
0.287307
31
0.0
0
LINE
8
0
6
CONTINUOUS
10
-0.004936
20
0.287085
30
0.0
11
-0.005947
21
0.287570
31
0.0
0
LINE
8
0
6
CONTINUOUS
10
-0.005169
20
0.286337
30
0.0
11
-0.004936
21
0.287085
31
0.0
0
LINE
8
0
6
CONTINUOUS
10
-0.006413
20
0.286074
30
0.0
11
-0.005169
21
0.286337
31
0.0
0
LINE
8
0
6
CONTINUOUS
10
-0.007424
20
0.286559
30
0.0
11
-0.006413
21
0.286074
31
0.0
0
LINE
8
0
6
CONTINUOUS
10
-0.016869
20
0.291968
30
0.0
11
-0.015626
21
0.292231
31
0.0
0
LINE
8
0
6
CONTINUOUS
10
-0.014615
20
0.291746
30
0.0
11
-0.014621
21
0.292435
31
0.0
0
LINE
8
0
6
CONTINUOUS
10
-0.015626
20
0.292231
30
0.0
11
-0.014615
21
0.291746
31
0.0
0
LINE
8
0
6
CONTINUOUS
10
-0.017102
20
0.291220
30
0.0
11
-0.016869
21
0.291968
31
0.0
0
LINE
8
0
6
CONTINUOUS
10
-0.017110
20
0.292065
30
0.0
11
-0.017102
21
0.291220
31
0.0
0
LINE
8
0
6
CONTINUOUS
10
-0.016869
20
0.291968
30
0.0
11
-0.017102
21
0.291220
31
0.0
0
LINE
8
0
6
CONTINUOUS
10
-0.015626
20
0.292231
30
0.0
11
-0.016869
21
0.291968
31
0.0
0
LINE
8
0
6
CONTINUOUS
10
-0.014615
20
0.291746
30
0.0
11
-0.015626
21
0.292231
31
0.0
0
LINE
8
0
6
CONTINUOUS
10
-0.014848
20
0.290998
30
0.0
11
-0.014615
21
0.291746
31
0.0
0
LINE
8
0
6
CONTINUOUS
10
-0.016092
20
0.290735
30
0.0
11
-0.014848
21
0.290998
31
0.0
0
LINE
8
0
6
CONTINUOUS
10
-0.017102
20
0.291220
30
0.0
11
-0.016092
21
0.290735
31
0.0
0
LINE
8
0
6
CONTINUOUS
10
-0.023203
20
0.298252
30
0.0
11
-0.021959
21
0.298516
31
0.0
0
LINE
8
0
6
CONTINUOUS
10
-0.020948
20
0.298030
30
0.0
11
-0.020955
21
0.298718
31
0.0
0
LINE
8
0
6
CONTINUOUS
10
-0.021959
20
0.298516
30
0.0
11
-0.020948
21
0.298030
31
0.0
0
LINE
8
0
6
CONTINUOUS
10
-0.023436
20
0.297504
30
0.0
11
-0.023203
21
0.298252
31
0.0
0
LINE
8
0
6
CONTINUOUS
10
-0.023444
20
0.298351
30
0.0
11
-0.023436
21
0.297504
31
0.0
0
LINE
8
0
6
CONTINUOUS
10
-0.023203
20
0.298252
30
0.0
11
-0.023436
21
0.297504
31
0.0
0
LINE
8
0
6
CONTINUOUS
10
-0.021959
20
0.298516
30
0.0
11
-0.023203
21
0.298252
31
0.0
0
LINE
8
0
6
CONTINUOUS
10
-0.020948
20
0.298030
30
0.0
11
-0.021959
21
0.298516
31
0.0
0
LINE
8
0
6
CONTINUOUS
10
-0.021181
20
0.297282
30
0.0
11
-0.020948
21
0.298030
31
0.0
0
LINE
8
0
6
CONTINUOUS
10
-0.022425
20
0.297019
30
0.0
11
-0.021181
21
0.297282
31
0.0
0
LINE
8
0
6
CONTINUOUS
10
-0.023436
20
0.297504
30
0.0
11
-0.022425
21
0.297019
31
0.0
0
LINE
8
0
6
CONTINUOUS
10
-0.025479
20
0.305400
30
0.0
11
-0.024235
21
0.305663
31
0.0
0
LINE
8
0
6
CONTINUOUS
10
-0.023224
20
0.305178
30
0.0
11
-0.023231
21
0.305877
31
0.0
0
LINE
8
0
6
CONTINUOUS
10
-0.024235
20
0.305663
30
0.0
11
-0.023224
21
0.305178
31
0.0
0
LINE
8
0
6
CONTINUOUS
10
-0.025712
20
0.304652
30
0.0
11
-0.025479
21
0.305400
31
0.0
0
LINE
8
0
6
CONTINUOUS
10
-0.025720
20
0.305503
30
0.0
11
-0.025712
21
0.304652
31
0.0
0
LINE
8
0
6
CONTINUOUS
10
-0.025479
20
0.305400
30
0.0
11
-0.025712
21
0.304652
31
0.0
0
LINE
8
0
6
CONTINUOUS
10
-0.024235
20
0.305663
30
0.0
11
-0.025479
21
0.305400
31
0.0
0
LINE
8
0
6
CONTINUOUS
10
-0.023224
20
0.305178
30
0.0
11
-0.024235
21
0.305663
31
0.0
0
LINE
8
0
6
CONTINUOUS
10
-0.023457
20
0.304430
30
0.0
11
-0.023224
21
0.305178
31
0.0
0
LINE
8
0
6
CONTINUOUS
10
-0.024701
20
0.304167
30
0.0
11
-0.023457
21
0.304430
31
0.0
0
LINE
8
0
6
CONTINUOUS
10
-0.025712
20
0.304652
30
0.0
11
-0.024701
21
0.304167
31
0.0
0
LINE
8
0
6
CONTINUOUS
10
-0.023195
20
0.312586
30
0.0
11
-0.021951
21
0.312850
31
0.0
0
LINE
8
0
6
CONTINUOUS
10
-0.020940
20
0.312364
30
0.0
11
-0.020947
21
0.313068
31
0.0
0
LINE
8
0
6
CONTINUOUS
10
-0.021951
20
0.312850
30
0.0
11
-0.020940
21
0.312364
31
0.0
0
LINE
8
0
6
CONTINUOUS
10
-0.023428
20
0.311838
30
0.0
11
-0.023195
21
0.312586
31
0.0
0
LINE
8
0
6
CONTINUOUS
10
-0.023436
20
0.312671
30
0.0
11
-0.023428
21
0.311838
31
0.0
0
LINE
8
0
6
CONTINUOUS
10
-0.023195
20
0.312586
30
0.0
11
-0.023428
21
0.311838
31
0.0
0
LINE
8
0
6
CONTINUOUS
10
-0.021951
20
0.312850
30
0.0
11
-0.023195
21
0.312586
31
0.0
0
LINE
8
0
6
CONTINUOUS
10
-0.020940
20
0.312364
30
0.0
11
-0.021951
21
0.312850
31
0.0
0
LINE
8
0
6
CONTINUOUS
10
-0.021173
20
0.311616
30
0.0
11
-0.020940
21
0.312364
31
0.0
0
LINE
8
0
6
CONTINUOUS
10
-0.022417
20
0.311353
30
0.0
11
-0.021173
21
0.311616
31
0.0
0
LINE
8
0
6
CONTINUOUS
10
-0.023428
20
0.311838
30
0.0
11
-0.022417
21
0.311353
31
0.0
0
LINE
8
0
6
CONTINUOUS
10
-0.016855
20
0.318905
30
0.0
11
-0.015611
21
0.319168
31
0.0
0
LINE
8
0
6
CONTINUOUS
10
-0.014600
20
0.318683
30
0.0
11
-0.014606
21
0.319407
31
0.0
0
LINE
8
0
6
CONTINUOUS
10
-0.015611
20
0.319168
30
0.0
11
-0.014600
21
0.318683
31
0.0
0
LINE
8
0
6
CONTINUOUS
10
-0.017088
20
0.318157
30
0.0
11
-0.016855
21
0.318905
31
0.0
0
LINE
8
0
6
CONTINUOUS
10
-0.017095
20
0.318953
30
0.0
11
-0.017088
21
0.318157
31
0.0
0
LINE
8
0
6
CONTINUOUS
10
-0.016855
20
0.318905
30
0.0
11
-0.017088
21
0.318157
31
0.0
0
LINE
8
0
6
CONTINUOUS
10
-0.015611
20
0.319168
30
0.0
11
-0.016855
21
0.318905
31
0.0
0
LINE
8
0
6
CONTINUOUS
10
-0.014600
20
0.318683
30
0.0
11
-0.015611
21
0.319168
31
0.0
0
LINE
8
0
6
CONTINUOUS
10
-0.014833
20
0.317935
30
0.0
11
-0.014600
21
0.318683
31
0.0
0
LINE
8
0
6
CONTINUOUS
10
-0.016077
20
0.317672
30
0.0
11
-0.014833
21
0.317935
31
0.0
0
LINE
8
0
6
CONTINUOUS
10
-0.017088
20
0.318157
30
0.0
11
-0.016077
21
0.317672
31
0.0
0
LINE
8
0
6
CONTINUOUS
10
-0.007171
20
0.323670
30
0.0
11
-0.005927
21
0.323933
31
0.0
0
LINE
8
0
6
CONTINUOUS
10
-0.004916
20
0.323448
30
0.0
11
-0.004923
21
0.324173
31
0.0
0
LINE
8
0
6
CONTINUOUS
10
-0.005927
20
0.323933
30
0.0
11
-0.004916
21
0.323448
31
0.0
0
LINE
8
0
6
CONTINUOUS
10
-0.007404
20
0.322922
30
0.0
11
-0.007171
21
0.323670
31
0.0
0
LINE
8
0
6
CONTINUOUS
10
-0.007411
20
0.323688
30
0.0
11
-0.007404
21
0.322922
31
0.0
0
LINE
8
0
6
CONTINUOUS
10
-0.007171
20
0.323670
30
0.0
11
-0.007404
21
0.322922
31
0.0
0
LINE
8
0
6
CONTINUOUS
10
-0.005927
20
0.323933
30
0.0
11
-0.007171
21
0.323670
31
0.0
0
LINE
8
0
6
CONTINUOUS
10
-0.004916
20
0.323448
30
0.0
11
-0.005927
21
0.323933
31
0.0
0
LINE
8
0
6
CONTINUOUS
10
-0.005149
20
0.322700
30
0.0
11
-0.004916
21
0.323448
31
0.0
0
LINE
8
0
6
CONTINUOUS
10
-0.006393
20
0.322437
30
0.0
11
-0.005149
21
0.322700
31
0.0
0
LINE
8
0
6
CONTINUOUS
10
-0.007404
20
0.322922
30
0.0
11
-0.006393
21
0.322437
31
0.0
0
LINE
8
0
6
CONTINUOUS
10
0.004780
20
0.326164
30
0.0
11
0.006024
21
0.326427
31
0.0
0
LINE
8
0
6
CONTINUOUS
10
0.007035
20
0.325942
30
0.0
11
0.007028
21
0.326700
31
0.0
0
LINE
8
0
6
CONTINUOUS
10
0.006024
20
0.326427
30
0.0
11
0.007035
21
0.325942
31
0.0
0
LINE
8
0
6
CONTINUOUS
10
0.004547
20
0.325416
30
0.0
11
0.004780
21
0.326164
31
0.0
0
LINE
8
0
6
CONTINUOUS
10
0.004540
20
0.326134
30
0.0
11
0.004547
21
0.325416
31
0.0
0
LINE
8
0
6
CONTINUOUS
10
0.004780
20
0.326164
30
0.0
11
0.004547
21
0.325416
31
0.0
0
LINE
8
0
6
CONTINUOUS
10
0.006024
20
0.326427
30
0.0
11
0.004780
21
0.326164
31
0.0
0
LINE
8
0
6
CONTINUOUS
10
0.007035
20
0.325942
30
0.0
11
0.006024
21
0.326427
31
0.0
0
LINE
8
0
6
CONTINUOUS
10
0.006802
20
0.325194
30
0.0
11
0.007035
21
0.325942
31
0.0
0
LINE
8
0
6
CONTINUOUS
10
0.005558
20
0.324931
30
0.0
11
0.006802
21
0.325194
31
0.0
0
LINE
8
0
6
CONTINUOUS
10
0.004547
20
0.325416
30
0.0
11
0.005558
21
0.324931
31
0.0
0
LINE
8
0
6
CONTINUOUS
10
0.017460
20
0.326216
30
0.0
11
0.018704
21
0.326479
31
0.0
0
LINE
8
0
6
CONTINUOUS
10
0.019714
20
0.325994
30
0.0
11
0.019707
21
0.326760
31
0.0
0
LINE
8
0
6
CONTINUOUS
10
0.018704
20
0.326479
30
0.0
11
0.019714
21
0.325994
31
0.0
0
LINE
8
0
6
CONTINUOUS
10
0.017227
20
0.325468
30
0.0
11
0.017460
21
0.326216
31
0.0
0
LINE
8
0
6
CONTINUOUS
10
0.017220
20
0.326160
30
0.0
11
0.017227
21
0.325468
31
0.0
0
LINE
8
0
6
CONTINUOUS
10
0.017460
20
0.326216
30
0.0
11
0.017227
21
0.325468
31
0.0
0
LINE
8
0
6
CONTINUOUS
10
0.018704
20
0.326479
30
0.0
11
0.017460
21
0.326216
31
0.0
0
LINE
8
0
6
CONTINUOUS
10
0.019714
20
0.325994
30
0.0
11
0.018704
21
0.326479
31
0.0
0
LINE
8
0
6
CONTINUOUS
10
0.019482
20
0.325246
30
0.0
11
0.019714
21
0.325994
31
0.0
0
LINE
8
0
6
CONTINUOUS
10
0.018238
20
0.324983
30
0.0
11
0.019482
21
0.325246
31
0.0
0
LINE
8
0
6
CONTINUOUS
10
0.017227
20
0.325468
30
0.0
11
0.018238
21
0.324983
31
0.0
0
LINE
8
0
6
CONTINUOUS
10
0.029408
20
0.323817
30
0.0
11
0.030652
21
0.324080
31
0.0
0
LINE
8
0
6
CONTINUOUS
10
0.031663
20
0.323595
30
0.0
11
0.031655
21
0.324383
31
0.0
0
LINE
8
0
6
CONTINUOUS
10
0.030652
20
0.324080
30
0.0
11
0.031663
21
0.323595
31
0.0
0
LINE
8
0
6
CONTINUOUS
10
0.029175
20
0.323069
30
0.0
11
0.029408
21
0.323817
31
0.0
0
LINE
8
0
6
CONTINUOUS
10
0.029169
20
0.323726
30
0.0
11
0.029175
21
0.323069
31
0.0
0
LINE
8
0
6
CONTINUOUS
10
0.029408
20
0.323817
30
0.0
11
0.029175
21
0.323069
31
0.0
0
LINE
8
0
6
CONTINUOUS
10
0.030652
20
0.324080
30
0.0
11
0.029408
21
0.323817
31
0.0
0
LINE
8
0
6
CONTINUOUS
10
0.031663
20
0.323595
30
0.0
11
0.030652
21
0.324080
31
0.0
0
LINE
8
0
6
CONTINUOUS
10
0.031430
20
0.322847
30
0.0
11
0.031663
21
0.323595
31
0.0
0
LINE
8
0
6
CONTINUOUS
10
0.030186
20
0.322584
30
0.0
11
0.031430
21
0.322847
31
0.0
0
LINE
8
0
6
CONTINUOUS
10
0.029175
20
0.323069
30
0.0
11
0.030186
21
0.322584
31
0.0
0
LINE
8
0
6
CONTINUOUS
10
0.039086
20
0.319133
30
0.0
11
0.040330
21
0.319396
31
0.0
0
LINE
8
0
6
CONTINUOUS
10
0.041341
20
0.318911
30
0.0
11
0.041334
21
0.319704
31
0.0
0
LINE
8
0
6
CONTINUOUS
10
0.040330
20
0.319396
30
0.0
11
0.041341
21
0.318911
31
0.0
0
LINE
8
0
6
CONTINUOUS
10
0.038853
20
0.318385
30
0.0
11
0.039086
21
0.319133
31
0.0
0
LINE
8
0
6
CONTINUOUS
10
0.038847
20
0.319028
30
0.0
11
0.038853
21
0.318385
31
0.0
0
LINE
8
0
6
CONTINUOUS
10
0.039086
20
0.319133
30
0.0
11
0.038853
21
0.318385
31
0.0
0
LINE
8
0
6
CONTINUOUS
10
0.040330
20
0.319396
30
0.0
11
0.039086
21
0.319133
31
0.0
0
LINE
8
0
6
CONTINUOUS
10
0.041341
20
0.318911
30
0.0
11
0.040330
21
0.319396
31
0.0
0
LINE
8
0
6
CONTINUOUS
10
0.041108
20
0.318163
30
0.0
11
0.041341
21
0.318911
31
0.0
0
LINE
8
0
6
CONTINUOUS
10
0.039864
20
0.317900
30
0.0
11
0.041108
21
0.318163
31
0.0
0
LINE
8
0
6
CONTINUOUS
10
0.038853
20
0.318385
30
0.0
11
0.039864
21
0.317900
31
0.0
0
LINE
8
0
6
CONTINUOUS
10
0.045420
20
0.312866
30
0.0
11
0.046664
21
0.313129
31
0.0
0
LINE
8
0
6
CONTINUOUS
10
0.047675
20
0.312644
30
0.0
11
0.047668
21
0.313426
31
0.0
0
LINE
8
0
6
CONTINUOUS
10
0.046664
20
0.313129
30
0.0
11
0.047675
21
0.312644
31
0.0
0
LINE
8
0
6
CONTINUOUS
10
0.045187
20
0.312118
30
0.0
11
0.045420
21
0.312866
31
0.0
0
LINE
8
0
6
CONTINUOUS
10
0.045181
20
0.312746
30
0.0
11
0.045187
21
0.312118
31
0.0
0
LINE
8
0
6
CONTINUOUS
10
0.045420
20
0.312866
30
0.0
11
0.045187
21
0.312118
31
0.0
0
LINE
8
0
6
CONTINUOUS
10
0.046664
20
0.313129
30
0.0
11
0.045420
21
0.312866
31
0.0
0
LINE
8
0
6
CONTINUOUS
10
0.047675
20
0.312644
30
0.0
11
0.046664
21
0.313129
31
0.0
0
LINE
8
0
6
CONTINUOUS
10
0.047442
20
0.311896
30
0.0
11
0.047675
21
0.312644
31
0.0
0
LINE
8
0
6
CONTINUOUS
10
0.046198
20
0.311633
30
0.0
11
0.047442
21
0.311896
31
0.0
0
LINE
8
0
6
CONTINUOUS
10
0.045187
20
0.312118
30
0.0
11
0.046198
21
0.311633
31
0.0
0
LINE
8
0
6
CONTINUOUS
10
0.041782
20
0.302276
30
0.0
11
0.043026
21
0.302539
31
0.0
0
LINE
8
0
6
CONTINUOUS
10
0.044036
20
0.302054
30
0.0
11
0.044029
21
0.302813
31
0.0
0
LINE
8
0
6
CONTINUOUS
10
0.043026
20
0.302539
30
0.0
11
0.044036
21
0.302054
31
0.0
0
LINE
8
0
6
CONTINUOUS
10
0.041549
20
0.301528
30
0.0
11
0.041782
21
0.302276
31
0.0
0
LINE
8
0
6
CONTINUOUS
10
0.041543
20
0.302168
30
0.0
11
0.041549
21
0.301528
31
0.0
0
LINE
8
0
6
CONTINUOUS
10
0.041782
20
0.302276
30
0.0
11
0.041549
21
0.301528
31
0.0
0
LINE
8
0
6
CONTINUOUS
10
0.043026
20
0.302539
30
0.0
11
0.041782
21
0.302276
31
0.0
0
LINE
8
0
6
CONTINUOUS
10
0.044036
20
0.302054
30
0.0
11
0.043026
21
0.302539
31
0.0
0
LINE
8
0
6
CONTINUOUS
10
0.043803
20
0.301306
30
0.0
11
0.044036
21
0.302054
31
0.0
0
LINE
8
0
6
CONTINUOUS
10
0.042560
20
0.301043
30
0.0
11
0.043803
21
0.301306
31
0.0
0
LINE
8
0
6
CONTINUOUS
10
0.041549
20
0.301528
30
0.0
11
0.042560
21
0.301043
31
0.0
0
LINE
8
0
6
CONTINUOUS
10
0.038067
20
0.296431
30
0.0
11
0.039311
21
0.296694
31
0.0
0
LINE
8
0
6
CONTINUOUS
10
0.040322
20
0.296209
30
0.0
11
0.040315
21
0.296953
31
0.0
0
LINE
8
0
6
CONTINUOUS
10
0.039311
20
0.296694
30
0.0
11
0.040322
21
0.296209
31
0.0
0
LINE
8
0
6
CONTINUOUS
10
0.037834
20
0.295683
30
0.0
11
0.038067
21
0.296431
31
0.0
0
LINE
8
0
6
CONTINUOUS
10
0.037828
20
0.296345
30
0.0
11
0.037834
21
0.295683
31
0.0
0
LINE
8
0
6
CONTINUOUS
10
0.038067
20
0.296431
30
0.0
11
0.037834
21
0.295683
31
0.0
0
LINE
8
0
6
CONTINUOUS
10
0.039311
20
0.296694
30
0.0
11
0.038067
21
0.296431
31
0.0
0
LINE
8
0
6
CONTINUOUS
10
0.040322
20
0.296209
30
0.0
11
0.039311
21
0.296694
31
0.0
0
LINE
8
0
6
CONTINUOUS
10
0.040089
20
0.295461
30
0.0
11
0.040322
21
0.296209
31
0.0
0
LINE
8
0
6
CONTINUOUS
10
0.038845
20
0.295198
30
0.0
11
0.040089
21
0.295461
31
0.0
0
LINE
8
0
6
CONTINUOUS
10
0.037834
20
0.295683
30
0.0
11
0.038845
21
0.295198
31
0.0
0
LINE
8
0
6
CONTINUOUS
10
0.031135
20
0.291623
30
0.0
11
0.032379
21
0.291886
31
0.0
0
LINE
8
0
6
CONTINUOUS
10
0.033389
20
0.291401
30
0.0
11
0.033383
21
0.292138
31
0.0
0
LINE
8
0
6
CONTINUOUS
10
0.032379
20
0.291886
30
0.0
11
0.033389
21
0.291401
31
0.0
0
LINE
8
0
6
CONTINUOUS
10
0.030902
20
0.290875
30
0.0
11
0.031135
21
0.291623
31
0.0
0
LINE
8
0
6
CONTINUOUS
10
0.030895
20
0.291563
30
0.0
11
0.030902
21
0.290875
31
0.0
0
LINE
8
0
6
CONTINUOUS
10
0.031135
20
0.291623
30
0.0
11
0.030902
21
0.290875
31
0.0
0
LINE
8
0
6
CONTINUOUS
10
0.032379
20
0.291886
30
0.0
11
0.031135
21
0.291623
31
0.0
0
LINE
8
0
6
CONTINUOUS
10
0.033389
20
0.291401
30
0.0
11
0.032379
21
0.291886
31
0.0
0
LINE
8
0
6
CONTINUOUS
10
0.033157
20
0.290653
30
0.0
11
0.033389
21
0.291401
31
0.0
0
LINE
8
0
6
CONTINUOUS
10
0.031913
20
0.290390
30
0.0
11
0.033157
21
0.290653
31
0.0
0
LINE
8
0
6
CONTINUOUS
10
0.030902
20
0.290875
30
0.0
11
0.031913
21
0.290390
31
0.0
0
LINE
8
0
6
CONTINUOUS
10
0.021718
20
0.288517
30
0.0
11
0.022962
21
0.288780
31
0.0
0
LINE
8
0
6
CONTINUOUS
10
0.023973
20
0.288294
30
0.0
11
0.023966
21
0.289010
31
0.0
0
LINE
8
0
6
CONTINUOUS
10
0.022962
20
0.288780
30
0.0
11
0.023973
21
0.288294
31
0.0
0
LINE
8
0
6
CONTINUOUS
10
0.021485
20
0.287768
30
0.0
11
0.021718
21
0.288517
31
0.0
0
LINE
8
0
6
CONTINUOUS
10
0.021478
20
0.288488
30
0.0
11
0.021485
21
0.287768
31
0.0
0
LINE
8
0
6
CONTINUOUS
10
0.021718
20
0.288517
30
0.0
11
0.021485
21
0.287768
31
0.0
0
LINE
8
0
6
CONTINUOUS
10
0.022962
20
0.288780
30
0.0
11
0.021718
21
0.288517
31
0.0
0
LINE
8
0
6
CONTINUOUS
10
0.023973
20
0.288294
30
0.0
11
0.022962
21
0.288780
31
0.0
0
LINE
8
0
6
CONTINUOUS
10
0.023740
20
0.287546
30
0.0
11
0.023973
21
0.288294
31
0.0
0
LINE
8
0
6
CONTINUOUS
10
0.022496
20
0.287283
30
0.0
11
0.023740
21
0.287546
31
0.0
0
LINE
8
0
6
CONTINUOUS
10
0.021485
20
0.287768
30
0.0
11
0.022496
21
0.287283
31
0.0
0
LINE
8
0
6
CONTINUOUS
10
0.011060
20
0.287393
30
0.0
11
0.012304
21
0.287656
31
0.0
0
LINE
8
0
6
CONTINUOUS
10
0.013315
20
0.287171
30
0.0
11
0.013308
21
0.287880
31
0.0
0
LINE
8
0
6
CONTINUOUS
10
0.012304
20
0.287656
30
0.0
11
0.013315
21
0.287171
31
0.0
0
LINE
8
0
6
CONTINUOUS
10
0.010827
20
0.286645
30
0.0
11
0.011060
21
0.287393
31
0.0
0
LINE
8
0
6
CONTINUOUS
10
0.010820
20
0.287403
30
0.0
11
0.010827
21
0.286645
31
0.0
0
LINE
8
0
6
CONTINUOUS
10
0.011060
20
0.287393
30
0.0
11
0.010827
21
0.286645
31
0.0
0
LINE
8
0
6
CONTINUOUS
10
0.012304
20
0.287656
30
0.0
11
0.011060
21
0.287393
31
0.0
0
LINE
8
0
6
CONTINUOUS
10
0.013315
20
0.287171
30
0.0
11
0.012304
21
0.287656
31
0.0
0
LINE
8
0
6
CONTINUOUS
10
0.013082
20
0.286423
30
0.0
11
0.013315
21
0.287171
31
0.0
0
LINE
8
0
6
CONTINUOUS
10
0.011838
20
0.286160
30
0.0
11
0.013082
21
0.286423
31
0.0
0
LINE
8
0
6
CONTINUOUS
10
0.010827
20
0.286645
30
0.0
11
0.011838
21
0.286160
31
0.0
0
LINE
8
0
6
CONTINUOUS
10
0.000388
20
0.288416
30
0.0
11
0.001632
21
0.288679
31
0.0
0
LINE
8
0
6
CONTINUOUS
10
0.002643
20
0.288194
30
0.0
11
0.002636
21
0.288887
31
0.0
0
LINE
8
0
6
CONTINUOUS
10
0.001632
20
0.288679
30
0.0
11
0.002643
21
0.288194
31
0.0
0
LINE
8
0
6
CONTINUOUS
10
0.000155
20
0.287668
30
0.0
11
0.000388
21
0.288416
31
0.0
0
LINE
8
0
6
CONTINUOUS
10
0.000148
20
0.288449
30
0.0
11
0.000155
21
0.287668
31
0.0
0
LINE
8
0
6
CONTINUOUS
10
0.000388
20
0.288416
30
0.0
11
0.000155
21
0.287668
31
0.0
0
LINE
8
0
6
CONTINUOUS
10
0.001632
20
0.288679
30
0.0
11
0.000388
21
0.288416
31
0.0
0
LINE
8
0
6
CONTINUOUS
10
0.002643
20
0.288194
30
0.0
11
0.001632
21
0.288679
31
0.0
0
LINE
8
0
6
CONTINUOUS
10
0.002410
20
0.287446
30
0.0
11
0.002643
21
0.288194
31
0.0
0
LINE
8
0
6
CONTINUOUS
10
0.001166
20
0.287183
30
0.0
11
0.002410
21
0.287446
31
0.0
0
LINE
8
0
6
CONTINUOUS
10
0.000155
20
0.287668
30
0.0
11
0.001166
21
0.287183
31
0.0
0
LINE
8
0
6
CONTINUOUS
10
-0.008955
20
0.291513
30
0.0
11
-0.007711
21
0.291776
31
0.0
0
LINE
8
0
6
CONTINUOUS
10
-0.006700
20
0.291291
30
0.0
11
-0.006707
21
0.291974
31
0.0
0
LINE
8
0
6
CONTINUOUS
10
-0.007711
20
0.291776
30
0.0
11
-0.006700
21
0.291291
31
0.0
0
LINE
8
0
6
CONTINUOUS
10
-0.009188
20
0.290765
30
0.0
11
-0.008955
21
0.291513
31
0.0
0
LINE
8
0
6
CONTINUOUS
10
-0.009196
20
0.291573
30
0.0
11
-0.009188
21
0.290765
31
0.0
0
LINE
8
0
6
CONTINUOUS
10
-0.008955
20
0.291513
30
0.0
11
-0.009188
21
0.290765
31
0.0
0
LINE
8
0
6
CONTINUOUS
10
-0.007711
20
0.291776
30
0.0
11
-0.008955
21
0.291513
31
0.0
0
LINE
8
0
6
CONTINUOUS
10
-0.006700
20
0.291291
30
0.0
11
-0.007711
21
0.291776
31
0.0
0
LINE
8
0
6
CONTINUOUS
10
-0.006933
20
0.290543
30
0.0
11
-0.006700
21
0.291291
31
0.0
0
LINE
8
0
6
CONTINUOUS
10
-0.008177
20
0.290280
30
0.0
11
-0.006933
21
0.290543
31
0.0
0
LINE
8
0
6
CONTINUOUS
10
-0.009188
20
0.290765
30
0.0
11
-0.008177
21
0.290280
31
0.0
0
LINE
8
0
6
CONTINUOUS
10
-0.015894
20
0.296251
30
0.0
11
-0.014650
21
0.296514
31
0.0
0
LINE
8
0
6
CONTINUOUS
10
-0.013639
20
0.296029
30
0.0
11
-0.013646
21
0.296713
31
0.0
0
LINE
8
0
6
CONTINUOUS
10
-0.014650
20
0.296514
30
0.0
11
-0.013639
21
0.296029
31
0.0
0
LINE
8
0
6
CONTINUOUS
10
-0.016127
20
0.295503
30
0.0
11
-0.015894
21
0.296251
31
0.0
0
LINE
8
0
6
CONTINUOUS
10
-0.016135
20
0.296322
30
0.0
11
-0.016127
21
0.295503
31
0.0
0
LINE
8
0
6
CONTINUOUS
10
-0.015894
20
0.296251
30
0.0
11
-0.016127
21
0.295503
31
0.0
0
LINE
8
0
6
CONTINUOUS
10
-0.014650
20
0.296514
30
0.0
11
-0.015894
21
0.296251
31
0.0
0
LINE
8
0
6
CONTINUOUS
10
-0.013639
20
0.296029
30
0.0
11
-0.014650
21
0.296514
31
0.0
0
LINE
8
0
6
CONTINUOUS
10
-0.013872
20
0.295281
30
0.0
11
-0.013639
21
0.296029
31
0.0
0
LINE
8
0
6
CONTINUOUS
10
-0.015116
20
0.295018
30
0.0
11
-0.013872
21
0.295281
31
0.0
0
LINE
8
0
6
CONTINUOUS
10
-0.016127
20
0.295503
30
0.0
11
-0.015116
21
0.295018
31
0.0
0
LINE
8
0
6
CONTINUOUS
10
-0.019676
20
0.301977
30
0.0
11
-0.018451
21
0.302268
31
0.0
0
LINE
8
0
6
CONTINUOUS
10
-0.017407
20
0.301807
30
0.0
11
-0.017414
21
0.302515
31
0.0
0
LINE
8
0
6
CONTINUOUS
10
-0.018451
20
0.302268
30
0.0
11
-0.017407
21
0.301807
31
0.0
0
LINE
8
0
6
CONTINUOUS
10
-0.019857
20
0.301225
30
0.0
11
-0.019676
21
0.301977
31
0.0
0
LINE
8
0
6
CONTINUOUS
10
-0.019865
20
0.302069
30
0.0
11
-0.019857
21
0.301225
31
0.0
0
LINE
8
0
6
CONTINUOUS
10
-0.019676
20
0.301977
30
0.0
11
-0.019857
21
0.301225
31
0.0
0
LINE
8
0
6
CONTINUOUS
10
-0.018451
20
0.302268
30
0.0
11
-0.019676
21
0.301977
31
0.0
0
LINE
8
0
6
CONTINUOUS
10
-0.017407
20
0.301807
30
0.0
11
-0.018451
21
0.302268
31
0.0
0
LINE
8
0
6
CONTINUOUS
10
-0.017588
20
0.301055
30
0.0
11
-0.017407
21
0.301807
31
0.0
0
LINE
8
0
6
CONTINUOUS
10
-0.018813
20
0.300764
30
0.0
11
-0.017588
21
0.301055
31
0.0
0
LINE
8
0
6
CONTINUOUS
10
-0.019857
20
0.301225
30
0.0
11
-0.018813
21
0.300764
31
0.0
0
LINE
8
0
6
CONTINUOUS
10
-0.019561
20
0.308282
30
0.0
11
-0.018317
21
0.308545
31
0.0
0
LINE
8
0
6
CONTINUOUS
10
-0.017307
20
0.308060
30
0.0
11
-0.017313
21
0.308754
31
0.0
0
LINE
8
0
6
CONTINUOUS
10
-0.018317
20
0.308545
30
0.0
11
-0.017307
21
0.308060
31
0.0
0
LINE
8
0
6
CONTINUOUS
10
-0.019794
20
0.307534
30
0.0
11
-0.019561
21
0.308282
31
0.0
0
LINE
8
0
6
CONTINUOUS
10
-0.019802
20
0.308351
30
0.0
11
-0.019794
21
0.307534
31
0.0
0
LINE
8
0
6
CONTINUOUS
10
-0.019561
20
0.308282
30
0.0
11
-0.019794
21
0.307534
31
0.0
0
LINE
8
0
6
CONTINUOUS
10
-0.018317
20
0.308545
30
0.0
11
-0.019561
21
0.308282
31
0.0
0
LINE
8
0
6
CONTINUOUS
10
-0.017307
20
0.308060
30
0.0
11
-0.018317
21
0.308545
31
0.0
0
LINE
8
0
6
CONTINUOUS
10
-0.017539
20
0.307312
30
0.0
11
-0.017307
21
0.308060
31
0.0
0
LINE
8
0
6
CONTINUOUS
10
-0.018783
20
0.307049
30
0.0
11
-0.017539
21
0.307312
31
0.0
0
LINE
8
0
6
CONTINUOUS
10
-0.019794
20
0.307534
30
0.0
11
-0.018783
21
0.307049
31
0.0
0
LINE
8
0
6
CONTINUOUS
10
-0.015847
20
0.314131
30
0.0
11
-0.014603
21
0.314394
31
0.0
0
LINE
8
0
6
CONTINUOUS
10
-0.013592
20
0.313909
30
0.0
11
-0.013598
21
0.314619
31
0.0
0
LINE
8
0
6
CONTINUOUS
10
-0.014603
20
0.314394
30
0.0
11
-0.013592
21
0.313909
31
0.0
0
LINE
8
0
6
CONTINUOUS
10
-0.016080
20
0.313383
30
0.0
11
-0.015847
21
0.314131
31
0.0
0
LINE
8
0
6
CONTINUOUS
10
-0.016087
20
0.314178
30
0.0
11
-0.016080
21
0.313383
31
0.0
0
LINE
8
0
6
CONTINUOUS
10
-0.015847
20
0.314131
30
0.0
11
-0.016080
21
0.313383
31
0.0
0
LINE
8
0
6
CONTINUOUS
10
-0.014603
20
0.314394
30
0.0
11
-0.015847
21
0.314131
31
0.0
0
LINE
8
0
6
CONTINUOUS
10
-0.013592
20
0.313909
30
0.0
11
-0.014603
21
0.314394
31
0.0
0
LINE
8
0
6
CONTINUOUS
10
-0.013825
20
0.313161
30
0.0
11
-0.013592
21
0.313909
31
0.0
0
LINE
8
0
6
CONTINUOUS
10
-0.015069
20
0.312898
30
0.0
11
-0.013825
21
0.313161
31
0.0
0
LINE
8
0
6
CONTINUOUS
10
-0.016080
20
0.313383
30
0.0
11
-0.015069
21
0.312898
31
0.0
0
LINE
8
0
6
CONTINUOUS
10
-0.008914
20
0.318934
30
0.0
11
-0.007670
21
0.319197
31
0.0
0
LINE
8
0
6
CONTINUOUS
10
-0.006660
20
0.318712
30
0.0
11
-0.006666
21
0.319435
31
0.0
0
LINE
8
0
6
CONTINUOUS
10
-0.007670
20
0.319197
30
0.0
11
-0.006660
21
0.318712
31
0.0
0
LINE
8
0
6
CONTINUOUS
10
-0.009147
20
0.318186
30
0.0
11
-0.008914
21
0.318934
31
0.0
0
LINE
8
0
6
CONTINUOUS
10
-0.009155
20
0.318963
30
0.0
11
-0.009147
21
0.318186
31
0.0
0
LINE
8
0
6
CONTINUOUS
10
-0.008914
20
0.318934
30
0.0
11
-0.009147
21
0.318186
31
0.0
0
LINE
8
0
6
CONTINUOUS
10
-0.007670
20
0.319197
30
0.0
11
-0.008914
21
0.318934
31
0.0
0
LINE
8
0
6
CONTINUOUS
10
-0.006660
20
0.318712
30
0.0
11
-0.007670
21
0.319197
31
0.0
0
LINE
8
0
6
CONTINUOUS
10
-0.006892
20
0.317964
30
0.0
11
-0.006660
21
0.318712
31
0.0
0
LINE
8
0
6
CONTINUOUS
10
-0.008136
20
0.317701
30
0.0
11
-0.006892
21
0.317964
31
0.0
0
LINE
8
0
6
CONTINUOUS
10
-0.009147
20
0.318186
30
0.0
11
-0.008136
21
0.317701
31
0.0
0
LINE
8
0
6
CONTINUOUS
10
0.000502
20
0.322047
30
0.0
11
0.001746
21
0.322310
31
0.0
0
LINE
8
0
6
CONTINUOUS
10
0.002757
20
0.321825
30
0.0
11
0.002750
21
0.322563
31
0.0
0
LINE
8
0
6
CONTINUOUS
10
0.001746
20
0.322310
30
0.0
11
0.002757
21
0.321825
31
0.0
0
LINE
8
0
6
CONTINUOUS
10
0.000269
20
0.321299
30
0.0
11
0.000502
21
0.322047
31
0.0
0
LINE
8
0
6
CONTINUOUS
10
0.000262
20
0.322038
30
0.0
11
0.000269
21
0.321299
31
0.0
0
LINE
8
0
6
CONTINUOUS
10
0.000502
20
0.322047
30
0.0
11
0.000269
21
0.321299
31
0.0
0
LINE
8
0
6
CONTINUOUS
10
0.001746
20
0.322310
30
0.0
11
0.000502
21
0.322047
31
0.0
0
LINE
8
0
6
CONTINUOUS
10
0.002757
20
0.321825
30
0.0
11
0.001746
21
0.322310
31
0.0
0
LINE
8
0
6
CONTINUOUS
10
0.002524
20
0.321077
30
0.0
11
0.002757
21
0.321825
31
0.0
0
LINE
8
0
6
CONTINUOUS
10
0.001280
20
0.320814
30
0.0
11
0.002524
21
0.321077
31
0.0
0
LINE
8
0
6
CONTINUOUS
10
0.000269
20
0.321299
30
0.0
11
0.001280
21
0.320814
31
0.0
0
LINE
8
0
6
CONTINUOUS
10
0.011160
20
0.323151
30
0.0
11
0.012404
21
0.323414
31
0.0
0
LINE
8
0
6
CONTINUOUS
10
0.013415
20
0.322929
30
0.0
11
0.013408
21
0.323687
31
0.0
0
LINE
8
0
6
CONTINUOUS
10
0.012404
20
0.323414
30
0.0
11
0.013415
21
0.322929
31
0.0
0
LINE
8
0
6
CONTINUOUS
10
0.010927
20
0.322403
30
0.0
11
0.011160
21
0.323151
31
0.0
0
LINE
8
0
6
CONTINUOUS
10
0.010921
20
0.323117
30
0.0
11
0.010927
21
0.322403
31
0.0
0
LINE
8
0
6
CONTINUOUS
10
0.011160
20
0.323151
30
0.0
11
0.010927
21
0.322403
31
0.0
0
LINE
8
0
6
CONTINUOUS
10
0.012404
20
0.323414
30
0.0
11
0.011160
21
0.323151
31
0.0
0
LINE
8
0
6
CONTINUOUS
10
0.013415
20
0.322929
30
0.0
11
0.012404
21
0.323414
31
0.0
0
LINE
8
0
6
CONTINUOUS
10
0.013182
20
0.322181
30
0.0
11
0.013415
21
0.322929
31
0.0
0
LINE
8
0
6
CONTINUOUS
10
0.011938
20
0.321918
30
0.0
11
0.013182
21
0.322181
31
0.0
0
LINE
8
0
6
CONTINUOUS
10
0.010927
20
0.322403
30
0.0
11
0.011938
21
0.321918
31
0.0
0
LINE
8
0
6
CONTINUOUS
10
0.021833
20
0.322154
30
0.0
11
0.023076
21
0.322417
31
0.0
0
LINE
8
0
6
CONTINUOUS
10
0.024087
20
0.321932
30
0.0
11
0.024080
21
0.322692
31
0.0
0
LINE
8
0
6
CONTINUOUS
10
0.023076
20
0.322417
30
0.0
11
0.024087
21
0.321932
31
0.0
0
LINE
8
0
6
CONTINUOUS
10
0.021600
20
0.321405
30
0.0
11
0.021833
21
0.322154
31
0.0
0
LINE
8
0
6
CONTINUOUS
10
0.021593
20
0.322082
30
0.0
11
0.021600
21
0.321405
31
0.0
0
LINE
8
0
6
CONTINUOUS
10
0.021833
20
0.322154
30
0.0
11
0.021600
21
0.321405
31
0.0
0
LINE
8
0
6
CONTINUOUS
10
0.023076
20
0.322417
30
0.0
11
0.021833
21
0.322154
31
0.0
0
LINE
8
0
6
CONTINUOUS
10
0.024087
20
0.321932
30
0.0
11
0.023076
21
0.322417
31
0.0
0
LINE
8
0
6
CONTINUOUS
10
0.023854
20
0.321183
30
0.0
11
0.024087
21
0.321932
31
0.0
0
LINE
8
0
6
CONTINUOUS
10
0.022610
20
0.320920
30
0.0
11
0.023854
21
0.321183
31
0.0
0
LINE
8
0
6
CONTINUOUS
10
0.021600
20
0.321405
30
0.0
11
0.022610
21
0.320920
31
0.0
0
LINE
8
0
6
CONTINUOUS
10
0.031176
20
0.319040
30
0.0
11
0.032419
21
0.319303
31
0.0
0
LINE
8
0
6
CONTINUOUS
10
0.033430
20
0.318818
30
0.0
11
0.033423
21
0.319588
31
0.0
0
LINE
8
0
6
CONTINUOUS
10
0.032419
20
0.319303
30
0.0
11
0.033430
21
0.318818
31
0.0
0
LINE
8
0
6
CONTINUOUS
10
0.030943
20
0.318292
30
0.0
11
0.031176
21
0.319040
31
0.0
0
LINE
8
0
6
CONTINUOUS
10
0.030937
20
0.318941
30
0.0
11
0.030943
21
0.318292
31
0.0
0
LINE
8
0
6
CONTINUOUS
10
0.031176
20
0.319040
30
0.0
11
0.030943
21
0.318292
31
0.0
0
LINE
8
0
6
CONTINUOUS
10
0.032419
20
0.319303
30
0.0
11
0.031176
21
0.319040
31
0.0
0
LINE
8
0
6
CONTINUOUS
10
0.033430
20
0.318818
30
0.0
11
0.032419
21
0.319303
31
0.0
0
LINE
8
0
6
CONTINUOUS
10
0.033197
20
0.318070
30
0.0
11
0.033430
21
0.318818
31
0.0
0
LINE
8
0
6
CONTINUOUS
10
0.031954
20
0.317807
30
0.0
11
0.033197
21
0.318070
31
0.0
0
LINE
8
0
6
CONTINUOUS
10
0.030943
20
0.318292
30
0.0
11
0.031954
21
0.317807
31
0.0
0
LINE
8
0
6
CONTINUOUS
10
0.038114
20
0.314311
30
0.0
11
0.039358
21
0.314574
31
0.0
0
LINE
8
0
6
CONTINUOUS
10
0.040369
20
0.314089
30
0.0
11
0.040362
21
0.314858
31
0.0
0
LINE
8
0
6
CONTINUOUS
10
0.039358
20
0.314574
30
0.0
11
0.040369
21
0.314089
31
0.0
0
LINE
8
0
6
CONTINUOUS
10
0.037881
20
0.313563
30
0.0
11
0.038114
21
0.314311
31
0.0
0
LINE
8
0
6
CONTINUOUS
10
0.037876
20
0.314201
30
0.0
11
0.037881
21
0.313563
31
0.0
0
LINE
8
0
6
CONTINUOUS
10
0.038114
20
0.314311
30
0.0
11
0.037881
21
0.313563
31
0.0
0
LINE
8
0
6
CONTINUOUS
10
0.039358
20
0.314574
30
0.0
11
0.038114
21
0.314311
31
0.0
0
LINE
8
0
6
CONTINUOUS
10
0.040369
20
0.314089
30
0.0
11
0.039358
21
0.314574
31
0.0
0
LINE
8
0
6
CONTINUOUS
10
0.040136
20
0.313341
30
0.0
11
0.040369
21
0.314089
31
0.0
0
LINE
8
0
6
CONTINUOUS
10
0.038892
20
0.313078
30
0.0
11
0.040136
21
0.313341
31
0.0
0
LINE
8
0
6
CONTINUOUS
10
0.037881
20
0.313563
30
0.0
11
0.038892
21
0.313078
31
0.0
0
LINE
8
0
6
CONTINUOUS
10
0.035617
20
0.300674
30
0.0
11
0.037065
21
0.300980
31
0.0
0
LINE
8
0
6
CONTINUOUS
10
0.038243
20
0.300415
30
0.0
11
0.038235
21
0.301192
31
0.0
0
LINE
8
0
6
CONTINUOUS
10
0.037065
20
0.300980
30
0.0
11
0.038243
21
0.300415
31
0.0
0
LINE
8
0
6
CONTINUOUS
10
0.035346
20
0.299803
30
0.0
11
0.035617
21
0.300674
31
0.0
0
LINE
8
0
6
CONTINUOUS
10
0.035339
20
0.300431
30
0.0
11
0.035346
21
0.299803
31
0.0
0
LINE
8
0
6
CONTINUOUS
10
0.035617
20
0.300674
30
0.0
11
0.035346
21
0.299803
31
0.0
0
LINE
8
0
6
CONTINUOUS
10
0.037065
20
0.300980
30
0.0
11
0.035617
21
0.300674
31
0.0
0
LINE
8
0
6
CONTINUOUS
10
0.038243
20
0.300415
30
0.0
11
0.037065
21
0.300980
31
0.0
0
LINE
8
0
6
CONTINUOUS
10
0.037971
20
0.299544
30
0.0
11
0.038243
21
0.300415
31
0.0
0
LINE
8
0
6
CONTINUOUS
10
0.036523
20
0.299238
30
0.0
11
0.037971
21
0.299544
31
0.0
0
LINE
8
0
6
CONTINUOUS
10
0.035346
20
0.299803
30
0.0
11
0.036523
21
0.299238
31
0.0
0
LINE
8
0
6
CONTINUOUS
10
0.030275
20
0.295285
30
0.0
11
0.031723
21
0.295591
31
0.0
0
LINE
8
0
6
CONTINUOUS
10
0.032901
20
0.295027
30
0.0
11
0.032893
21
0.295776
31
0.0
0
LINE
8
0
6
CONTINUOUS
10
0.031723
20
0.295591
30
0.0
11
0.032901
21
0.295027
31
0.0
0
LINE
8
0
6
CONTINUOUS
10
0.030004
20
0.294414
30
0.0
11
0.030275
21
0.295285
31
0.0
0
LINE
8
0
6
CONTINUOUS
10
0.029997
20
0.295082
30
0.0
11
0.030004
21
0.294414
31
0.0
0
LINE
8
0
6
CONTINUOUS
10
0.030275
20
0.295285
30
0.0
11
0.030004
21
0.294414
31
0.0
0
LINE
8
0
6
CONTINUOUS
10
0.031723
20
0.295591
30
0.0
11
0.030275
21
0.295285
31
0.0
0
LINE
8
0
6
CONTINUOUS
10
0.032901
20
0.295027
30
0.0
11
0.031723
21
0.295591
31
0.0
0
LINE
8
0
6
CONTINUOUS
10
0.032629
20
0.294155
30
0.0
11
0.032901
21
0.295027
31
0.0
0
LINE
8
0
6
CONTINUOUS
10
0.031181
20
0.293849
30
0.0
11
0.032629
21
0.294155
31
0.0
0
LINE
8
0
6
CONTINUOUS
10
0.030004
20
0.294414
30
0.0
11
0.031181
21
0.293849
31
0.0
0
LINE
8
0
6
CONTINUOUS
10
0.021605
20
0.291587
30
0.0
11
0.023053
21
0.291894
31
0.0
0
LINE
8
0
6
CONTINUOUS
10
0.024230
20
0.291329
30
0.0
11
0.024223
21
0.292056
31
0.0
0
LINE
8
0
6
CONTINUOUS
10
0.023053
20
0.291894
30
0.0
11
0.024230
21
0.291329
31
0.0
0
LINE
8
0
6
CONTINUOUS
10
0.021333
20
0.290716
30
0.0
11
0.021605
21
0.291587
31
0.0
0
LINE
8
0
6
CONTINUOUS
10
0.021326
20
0.291435
30
0.0
11
0.021333
21
0.290716
31
0.0
0
LINE
8
0
6
CONTINUOUS
10
0.021605
20
0.291587
30
0.0
11
0.021333
21
0.290716
31
0.0
0
LINE
8
0
6
CONTINUOUS
10
0.023053
20
0.291894
30
0.0
11
0.021605
21
0.291587
31
0.0
0
LINE
8
0
6
CONTINUOUS
10
0.024230
20
0.291329
30
0.0
11
0.023053
21
0.291894
31
0.0
0
LINE
8
0
6
CONTINUOUS
10
0.023959
20
0.290458
30
0.0
11
0.024230
21
0.291329
31
0.0
0
LINE
8
0
6
CONTINUOUS
10
0.022511
20
0.290151
30
0.0
11
0.023959
21
0.290458
31
0.0
0
LINE
8
0
6
CONTINUOUS
10
0.021333
20
0.290716
30
0.0
11
0.022511
21
0.290151
31
0.0
0
LINE
8
0
6
CONTINUOUS
10
0.011092
20
0.290212
30
0.0
11
0.012541
21
0.290519
31
0.0
0
LINE
8
0
6
CONTINUOUS
10
0.013718
20
0.289954
30
0.0
11
0.013711
21
0.290655
31
0.0
0
LINE
8
0
6
CONTINUOUS
10
0.012541
20
0.290519
30
0.0
11
0.013718
21
0.289954
31
0.0
0
LINE
8
0
6
CONTINUOUS
10
0.010821
20
0.289341
30
0.0
11
0.011092
21
0.290212
31
0.0
0
LINE
8
0
6
CONTINUOUS
10
0.010813
20
0.290110
30
0.0
11
0.010821
21
0.289341
31
0.0
0
LINE
8
0
6
CONTINUOUS
10
0.011092
20
0.290212
30
0.0
11
0.010821
21
0.289341
31
0.0
0
LINE
8
0
6
CONTINUOUS
10
0.012541
20
0.290519
30
0.0
11
0.011092
21
0.290212
31
0.0
0
LINE
8
0
6
CONTINUOUS
10
0.013718
20
0.289954
30
0.0
11
0.012541
21
0.290519
31
0.0
0
LINE
8
0
6
CONTINUOUS
10
0.013447
20
0.289083
30
0.0
11
0.013718
21
0.289954
31
0.0
0
LINE
8
0
6
CONTINUOUS
10
0.011998
20
0.288776
30
0.0
11
0.013447
21
0.289083
31
0.0
0
LINE
8
0
6
CONTINUOUS
10
0.010821
20
0.289341
30
0.0
11
0.011998
21
0.288776
31
0.0
0
LINE
8
0
6
CONTINUOUS
10
0.000536
20
0.291406
30
0.0
11
0.001984
21
0.291713
31
0.0
0
LINE
8
0
6
CONTINUOUS
10
0.003162
20
0.291148
30
0.0
11
0.003155
21
0.291820
31
0.0
0
LINE
8
0
6
CONTINUOUS
10
0.001984
20
0.291713
30
0.0
11
0.003162
21
0.291148
31
0.0
0
LINE
8
0
6
CONTINUOUS
10
0.000264
20
0.290535
30
0.0
11
0.000536
21
0.291406
31
0.0
0
LINE
8
0
6
CONTINUOUS
10
0.000257
20
0.291337
30
0.0
11
0.000264
21
0.290535
31
0.0
0
LINE
8
0
6
CONTINUOUS
10
0.000536
20
0.291406
30
0.0
11
0.000264
21
0.290535
31
0.0
0
LINE
8
0
6
CONTINUOUS
10
0.001984
20
0.291713
30
0.0
11
0.000536
21
0.291406
31
0.0
0
LINE
8
0
6
CONTINUOUS
10
0.003162
20
0.291148
30
0.0
11
0.001984
21
0.291713
31
0.0
0
LINE
8
0
6
CONTINUOUS
10
0.002890
20
0.290277
30
0.0
11
0.003162
21
0.291148
31
0.0
0
LINE
8
0
6
CONTINUOUS
10
0.001442
20
0.289970
30
0.0
11
0.002890
21
0.290277
31
0.0
0
LINE
8
0
6
CONTINUOUS
10
0.000264
20
0.290535
30
0.0
11
0.001442
21
0.289970
31
0.0
0
LINE
8
0
6
CONTINUOUS
10
-0.008196
20
0.294992
30
0.0
11
-0.006747
21
0.295298
31
0.0
0
LINE
8
0
6
CONTINUOUS
10
-0.005570
20
0.294733
30
0.0
11
-0.005577
21
0.295387
31
0.0
0
LINE
8
0
6
CONTINUOUS
10
-0.006747
20
0.295298
30
0.0
11
-0.005570
21
0.294733
31
0.0
0
LINE
8
0
6
CONTINUOUS
10
-0.008467
20
0.294121
30
0.0
11
-0.008196
21
0.294992
31
0.0
0
LINE
8
0
6
CONTINUOUS
10
-0.008475
20
0.294950
30
0.0
11
-0.008467
21
0.294121
31
0.0
0
LINE
8
0
6
CONTINUOUS
10
-0.008196
20
0.294992
30
0.0
11
-0.008467
21
0.294121
31
0.0
0
LINE
8
0
6
CONTINUOUS
10
-0.006747
20
0.295298
30
0.0
11
-0.008196
21
0.294992
31
0.0
0
LINE
8
0
6
CONTINUOUS
10
-0.005570
20
0.294733
30
0.0
11
-0.006747
21
0.295298
31
0.0
0
LINE
8
0
6
CONTINUOUS
10
-0.005841
20
0.293862
30
0.0
11
-0.005570
21
0.294733
31
0.0
0
LINE
8
0
6
CONTINUOUS
10
-0.007290
20
0.293556
30
0.0
11
-0.005841
21
0.293862
31
0.0
0
LINE
8
0
6
CONTINUOUS
10
-0.008467
20
0.294121
30
0.0
11
-0.007290
21
0.293556
31
0.0
0
LINE
8
0
6
CONTINUOUS
10
-0.013615
20
0.300306
30
0.0
11
-0.012166
21
0.300612
31
0.0
0
LINE
8
0
6
CONTINUOUS
10
-0.010989
20
0.300047
30
0.0
11
-0.010995
21
0.300698
31
0.0
0
LINE
8
0
6
CONTINUOUS
10
-0.012166
20
0.300612
30
0.0
11
-0.010989
21
0.300047
31
0.0
0
LINE
8
0
6
CONTINUOUS
10
-0.013886
20
0.299434
30
0.0
11
-0.013615
21
0.300306
31
0.0
0
LINE
8
0
6
CONTINUOUS
10
-0.013894
20
0.300277
30
0.0
11
-0.013886
21
0.299434
31
0.0
0
LINE
8
0
6
CONTINUOUS
10
-0.013615
20
0.300306
30
0.0
11
-0.013886
21
0.299434
31
0.0
0
LINE
8
0
6
CONTINUOUS
10
-0.012166
20
0.300612
30
0.0
11
-0.013615
21
0.300306
31
0.0
0
LINE
8
0
6
CONTINUOUS
10
-0.010989
20
0.300047
30
0.0
11
-0.012166
21
0.300612
31
0.0
0
LINE
8
0
6
CONTINUOUS
10
-0.011260
20
0.299176
30
0.0
11
-0.010989
21
0.300047
31
0.0
0
LINE
8
0
6
CONTINUOUS
10
-0.012709
20
0.298870
30
0.0
11
-0.011260
21
0.299176
31
0.0
0
LINE
8
0
6
CONTINUOUS
10
-0.013886
20
0.299434
30
0.0
11
-0.012709
21
0.298870
31
0.0
0
LINE
8
0
6
CONTINUOUS
10
-0.014800
20
0.306439
30
0.0
11
-0.013352
21
0.306745
31
0.0
0
LINE
8
0
6
CONTINUOUS
10
-0.012175
20
0.306180
30
0.0
11
-0.012181
21
0.306843
31
0.0
0
LINE
8
0
6
CONTINUOUS
10
-0.013352
20
0.306745
30
0.0
11
-0.012175
21
0.306180
31
0.0
0
LINE
8
0
6
CONTINUOUS
10
-0.015072
20
0.305568
30
0.0
11
-0.014800
21
0.306439
31
0.0
0
LINE
8
0
6
CONTINUOUS
10
-0.015080
20
0.306403
30
0.0
11
-0.015072
21
0.305568
31
0.0
0
LINE
8
0
6
CONTINUOUS
10
-0.014800
20
0.306439
30
0.0
11
-0.015072
21
0.305568
31
0.0
0
LINE
8
0
6
CONTINUOUS
10
-0.013352
20
0.306745
30
0.0
11
-0.014800
21
0.306439
31
0.0
0
LINE
8
0
6
CONTINUOUS
10
-0.012175
20
0.306180
30
0.0
11
-0.013352
21
0.306745
31
0.0
0
LINE
8
0
6
CONTINUOUS
10
-0.012446
20
0.305309
30
0.0
11
-0.012175
21
0.306180
31
0.0
0
LINE
8
0
6
CONTINUOUS
10
-0.013894
20
0.305003
30
0.0
11
-0.012446
21
0.305309
31
0.0
0
LINE
8
0
6
CONTINUOUS
10
-0.015072
20
0.305568
30
0.0
11
-0.013894
21
0.305003
31
0.0
0
LINE
8
0
6
CONTINUOUS
10
-0.011549
20
0.312341
30
0.0
11
-0.010101
21
0.312647
31
0.0
0
LINE
8
0
6
CONTINUOUS
10
-0.008923
20
0.312082
30
0.0
11
-0.008930
21
0.312769
31
0.0
0
LINE
8
0
6
CONTINUOUS
10
-0.010101
20
0.312647
30
0.0
11
-0.008923
21
0.312082
31
0.0
0
LINE
8
0
6
CONTINUOUS
10
-0.011820
20
0.311469
30
0.0
11
-0.011549
21
0.312341
31
0.0
0
LINE
8
0
6
CONTINUOUS
10
-0.011828
20
0.312280
30
0.0
11
-0.011820
21
0.311469
31
0.0
0
LINE
8
0
6
CONTINUOUS
10
-0.011549
20
0.312341
30
0.0
11
-0.011820
21
0.311469
31
0.0
0
LINE
8
0
6
CONTINUOUS
10
-0.010101
20
0.312647
30
0.0
11
-0.011549
21
0.312341
31
0.0
0
LINE
8
0
6
CONTINUOUS
10
-0.008923
20
0.312082
30
0.0
11
-0.010101
21
0.312647
31
0.0
0
LINE
8
0
6
CONTINUOUS
10
-0.009195
20
0.311211
30
0.0
11
-0.008923
21
0.312082
31
0.0
0
LINE
8
0
6
CONTINUOUS
10
-0.010643
20
0.310905
30
0.0
11
-0.009195
21
0.311211
31
0.0
0
LINE
8
0
6
CONTINUOUS
10
-0.011820
20
0.311469
30
0.0
11
-0.010643
21
0.310905
31
0.0
0
LINE
8
0
6
CONTINUOUS
10
-0.004411
20
0.317001
30
0.0
11
-0.002963
21
0.317308
31
0.0
0
LINE
8
0
6
CONTINUOUS
10
-0.001785
20
0.316743
30
0.0
11
-0.001792
21
0.317463
31
0.0
0
LINE
8
0
6
CONTINUOUS
10
-0.002963
20
0.317308
30
0.0
11
-0.001785
21
0.316743
31
0.0
0
LINE
8
0
6
CONTINUOUS
10
-0.004683
20
0.316130
30
0.0
11
-0.004411
21
0.317001
31
0.0
0
LINE
8
0
6
CONTINUOUS
10
-0.004690
20
0.316902
30
0.0
11
-0.004683
21
0.316130
31
0.0
0
LINE
8
0
6
CONTINUOUS
10
-0.004411
20
0.317001
30
0.0
11
-0.004683
21
0.316130
31
0.0
0
LINE
8
0
6
CONTINUOUS
10
-0.002963
20
0.317308
30
0.0
11
-0.004411
21
0.317001
31
0.0
0
LINE
8
0
6
CONTINUOUS
10
-0.001785
20
0.316743
30
0.0
11
-0.002963
21
0.317308
31
0.0
0
LINE
8
0
6
CONTINUOUS
10
-0.002057
20
0.315872
30
0.0
11
-0.001785
21
0.316743
31
0.0
0
LINE
8
0
6
CONTINUOUS
10
-0.003505
20
0.315565
30
0.0
11
-0.002057
21
0.315872
31
0.0
0
LINE
8
0
6
CONTINUOUS
10
-0.004683
20
0.316130
30
0.0
11
-0.003505
21
0.315565
31
0.0
0
LINE
8
0
6
CONTINUOUS
10
0.005419
20
0.319566
30
0.0
11
0.006867
21
0.319872
31
0.0
0
LINE
8
0
6
CONTINUOUS
10
0.008045
20
0.319307
30
0.0
11
0.008037
21
0.320062
31
0.0
0
LINE
8
0
6
CONTINUOUS
10
0.006867
20
0.319872
30
0.0
11
0.008045
21
0.319307
31
0.0
0
LINE
8
0
6
CONTINUOUS
10
0.005147
20
0.318695
30
0.0
11
0.005419
21
0.319566
31
0.0
0
LINE
8
0
6
CONTINUOUS
10
0.005140
20
0.319425
30
0.0
11
0.005147
21
0.318695
31
0.0
0
LINE
8
0
6
CONTINUOUS
10
0.005419
20
0.319566
30
0.0
11
0.005147
21
0.318695
31
0.0
0
LINE
8
0
6
CONTINUOUS
10
0.006867
20
0.319872
30
0.0
11
0.005419
21
0.319566
31
0.0
0
LINE
8
0
6
CONTINUOUS
10
0.008045
20
0.319307
30
0.0
11
0.006867
21
0.319872
31
0.0
0
LINE
8
0
6
CONTINUOUS
10
0.007773
20
0.318436
30
0.0
11
0.008045
21
0.319307
31
0.0
0
LINE
8
0
6
CONTINUOUS
10
0.006325
20
0.318130
30
0.0
11
0.007773
21
0.318436
31
0.0
0
LINE
8
0
6
CONTINUOUS
10
0.005147
20
0.318695
30
0.0
11
0.006325
21
0.318130
31
0.0
0
LINE
8
0
6
CONTINUOUS
10
0.016183
20
0.319637
30
0.0
11
0.017632
21
0.319943
31
0.0
0
LINE
8
0
6
CONTINUOUS
10
0.018809
20
0.319378
30
0.0
11
0.018801
21
0.320155
31
0.0
0
LINE
8
0
6
CONTINUOUS
10
0.017632
20
0.319943
30
0.0
11
0.018809
21
0.319378
31
0.0
0
LINE
8
0
6
CONTINUOUS
10
0.015912
20
0.318766
30
0.0
11
0.016183
21
0.319637
31
0.0
0
LINE
8
0
6
CONTINUOUS
10
0.015905
20
0.319447
30
0.0
11
0.015912
21
0.318766
31
0.0
0
LINE
8
0
6
CONTINUOUS
10
0.016183
20
0.319637
30
0.0
11
0.015912
21
0.318766
31
0.0
0
LINE
8
0
6
CONTINUOUS
10
0.017632
20
0.319943
30
0.0
11
0.016183
21
0.319637
31
0.0
0
LINE
8
0
6
CONTINUOUS
10
0.018809
20
0.319378
30
0.0
11
0.017632
21
0.319943
31
0.0
0
LINE
8
0
6
CONTINUOUS
10
0.018538
20
0.318507
30
0.0
11
0.018809
21
0.319378
31
0.0
0
LINE
8
0
6
CONTINUOUS
10
0.017089
20
0.318201
30
0.0
11
0.018538
21
0.318507
31
0.0
0
LINE
8
0
6
CONTINUOUS
10
0.015912
20
0.318766
30
0.0
11
0.017089
21
0.318201
31
0.0
0
LINE
8
0
6
CONTINUOUS
10
0.026038
20
0.317204
30
0.0
11
0.027487
21
0.317511
31
0.0
0
LINE
8
0
6
CONTINUOUS
10
0.028664
20
0.316946
30
0.0
11
0.028656
21
0.317734
31
0.0
0
LINE
8
0
6
CONTINUOUS
10
0.027487
20
0.317511
30
0.0
11
0.028664
21
0.316946
31
0.0
0
LINE
8
0
6
CONTINUOUS
10
0.025767
20
0.316333
30
0.0
11
0.026038
21
0.317204
31
0.0
0
LINE
8
0
6
CONTINUOUS
10
0.025761
20
0.316971
30
0.0
11
0.025767
21
0.316333
31
0.0
0
LINE
8
0
6
CONTINUOUS
10
0.026038
20
0.317204
30
0.0
11
0.025767
21
0.316333
31
0.0
0
LINE
8
0
6
CONTINUOUS
10
0.027487
20
0.317511
30
0.0
11
0.026038
21
0.317204
31
0.0
0
LINE
8
0
6
CONTINUOUS
10
0.028664
20
0.316946
30
0.0
11
0.027487
21
0.317511
31
0.0
0
LINE
8
0
6
CONTINUOUS
10
0.028393
20
0.316075
30
0.0
11
0.028664
21
0.316946
31
0.0
0
LINE
8
0
6
CONTINUOUS
10
0.026944
20
0.315768
30
0.0
11
0.028393
21
0.316075
31
0.0
0
LINE
8
0
6
CONTINUOUS
10
0.025767
20
0.316333
30
0.0
11
0.026944
21
0.315768
31
0.0
0
LINE
8
0
6
CONTINUOUS
10
0.033297
20
0.312677
30
0.0
11
0.034745
21
0.312983
31
0.0
0
LINE
8
0
6
CONTINUOUS
10
0.035923
20
0.312419
30
0.0
11
0.035915
21
0.313214
31
0.0
0
LINE
8
0
6
CONTINUOUS
10
0.034745
20
0.312983
30
0.0
11
0.035923
21
0.312419
31
0.0
0
LINE
8
0
6
CONTINUOUS
10
0.033025
20
0.311806
30
0.0
11
0.033297
21
0.312677
31
0.0
0
LINE
8
0
6
CONTINUOUS
10
0.033020
20
0.312418
30
0.0
11
0.033025
21
0.311806
31
0.0
0
LINE
8
0
6
CONTINUOUS
10
0.033297
20
0.312677
30
0.0
11
0.033025
21
0.311806
31
0.0
0
LINE
8
0
6
CONTINUOUS
10
0.034745
20
0.312983
30
0.0
11
0.033297
21
0.312677
31
0.0
0
LINE
8
0
6
CONTINUOUS
10
0.035923
20
0.312419
30
0.0
11
0.034745
21
0.312983
31
0.0
0
LINE
8
0
6
CONTINUOUS
10
0.035651
20
0.311547
30
0.0
11
0.035923
21
0.312419
31
0.0
0
LINE
8
0
6
CONTINUOUS
10
0.034203
20
0.311241
30
0.0
11
0.035651
21
0.311547
31
0.0
0
LINE
8
0
6
CONTINUOUS
10
0.033025
20
0.311806
30
0.0
11
0.034203
21
0.311241
31
0.0
0
LINE
8
0
6
CONTINUOUS
10
0.028615
20
0.298952
30
0.0
11
0.030064
21
0.299259
31
0.0
0
LINE
8
0
6
CONTINUOUS
10
0.031241
20
0.298694
30
0.0
11
0.031234
21
0.299463
31
0.0
0
LINE
8
0
6
CONTINUOUS
10
0.030064
20
0.299259
30
0.0
11
0.031241
21
0.298694
31
0.0
0
LINE
8
0
6
CONTINUOUS
10
0.028344
20
0.298081
30
0.0
11
0.028615
21
0.298952
31
0.0
0
LINE
8
0
6
CONTINUOUS
10
0.028338
20
0.298732
30
0.0
11
0.028344
21
0.298081
31
0.0
0
LINE
8
0
6
CONTINUOUS
10
0.028615
20
0.298952
30
0.0
11
0.028344
21
0.298081
31
0.0
0
LINE
8
0
6
CONTINUOUS
10
0.030064
20
0.299259
30
0.0
11
0.028615
21
0.298952
31
0.0
0
LINE
8
0
6
CONTINUOUS
10
0.031241
20
0.298694
30
0.0
11
0.030064
21
0.299259
31
0.0
0
LINE
8
0
6
CONTINUOUS
10
0.030970
20
0.297823
30
0.0
11
0.031241
21
0.298694
31
0.0
0
LINE
8
0
6
CONTINUOUS
10
0.029521
20
0.297516
30
0.0
11
0.030970
21
0.297823
31
0.0
0
LINE
8
0
6
CONTINUOUS
10
0.028344
20
0.298081
30
0.0
11
0.029521
21
0.297516
31
0.0
0
LINE
8
0
6
CONTINUOUS
10
0.022934
20
0.295313
30
0.0
11
0.024383
21
0.295619
31
0.0
0
LINE
8
0
6
CONTINUOUS
10
0.025560
20
0.295054
30
0.0
11
0.025553
21
0.295797
31
0.0
0
LINE
8
0
6
CONTINUOUS
10
0.024383
20
0.295619
30
0.0
11
0.025560
21
0.295054
31
0.0
0
LINE
8
0
6
CONTINUOUS
10
0.022663
20
0.294442
30
0.0
11
0.022934
21
0.295313
31
0.0
0
LINE
8
0
6
CONTINUOUS
10
0.022656
20
0.295137
30
0.0
11
0.022663
21
0.294442
31
0.0
0
LINE
8
0
6
CONTINUOUS
10
0.022934
20
0.295313
30
0.0
11
0.022663
21
0.294442
31
0.0
0
LINE
8
0
6
CONTINUOUS
10
0.024383
20
0.295619
30
0.0
11
0.022934
21
0.295313
31
0.0
0
LINE
8
0
6
CONTINUOUS
10
0.025560
20
0.295054
30
0.0
11
0.024383
21
0.295619
31
0.0
0
LINE
8
0
6
CONTINUOUS
10
0.025289
20
0.294183
30
0.0
11
0.025560
21
0.295054
31
0.0
0
LINE
8
0
6
CONTINUOUS
10
0.023840
20
0.293877
30
0.0
11
0.025289
21
0.294183
31
0.0
0
LINE
8
0
6
CONTINUOUS
10
0.022663
20
0.294442
30
0.0
11
0.023840
21
0.293877
31
0.0
0
LINE
8
0
6
CONTINUOUS
10
0.015191
20
0.293298
30
0.0
11
0.016640
21
0.293604
31
0.0
0
LINE
8
0
6
CONTINUOUS
10
0.017817
20
0.293040
30
0.0
11
0.017810
21
0.293755
31
0.0
0
LINE
8
0
6
CONTINUOUS
10
0.016640
20
0.293604
30
0.0
11
0.017817
21
0.293040
31
0.0
0
LINE
8
0
6
CONTINUOUS
10
0.014920
20
0.292427
30
0.0
11
0.015191
21
0.293298
31
0.0
0
LINE
8
0
6
CONTINUOUS
10
0.014913
20
0.293173
30
0.0
11
0.014920
21
0.292427
31
0.0
0
LINE
8
0
6
CONTINUOUS
10
0.015191
20
0.293298
30
0.0
11
0.014920
21
0.292427
31
0.0
0
LINE
8
0
6
CONTINUOUS
10
0.016640
20
0.293604
30
0.0
11
0.015191
21
0.293298
31
0.0
0
LINE
8
0
6
CONTINUOUS
10
0.017817
20
0.293040
30
0.0
11
0.016640
21
0.293604
31
0.0
0
LINE
8
0
6
CONTINUOUS
10
0.017546
20
0.292168
30
0.0
11
0.017817
21
0.293040
31
0.0
0
LINE
8
0
6
CONTINUOUS
10
0.016097
20
0.291862
30
0.0
11
0.017546
21
0.292168
31
0.0
0
LINE
8
0
6
CONTINUOUS
10
0.014920
20
0.292427
30
0.0
11
0.016097
21
0.291862
31
0.0
0
LINE
8
0
6
CONTINUOUS
10
0.006712
20
0.293254
30
0.0
11
0.008160
21
0.293560
31
0.0
0
LINE
8
0
6
CONTINUOUS
10
0.009338
20
0.292995
30
0.0
11
0.009331
21
0.293681
31
0.0
0
LINE
8
0
6
CONTINUOUS
10
0.008160
20
0.293560
30
0.0
11
0.009338
21
0.292995
31
0.0
0
LINE
8
0
6
CONTINUOUS
10
0.006440
20
0.292383
30
0.0
11
0.006712
21
0.293254
31
0.0
0
LINE
8
0
6
CONTINUOUS
10
0.006433
20
0.293172
30
0.0
11
0.006440
21
0.292383
31
0.0
0
LINE
8
0
6
CONTINUOUS
10
0.006712
20
0.293254
30
0.0
11
0.006440
21
0.292383
31
0.0
0
LINE
8
0
6
CONTINUOUS
10
0.008160
20
0.293560
30
0.0
11
0.006712
21
0.293254
31
0.0
0
LINE
8
0
6
CONTINUOUS
10
0.009338
20
0.292995
30
0.0
11
0.008160
21
0.293560
31
0.0
0
LINE
8
0
6
CONTINUOUS
10
0.009066
20
0.292124
30
0.0
11
0.009338
21
0.292995
31
0.0
0
LINE
8
0
6
CONTINUOUS
10
0.007618
20
0.291818
30
0.0
11
0.009066
21
0.292124
31
0.0
0
LINE
8
0
6
CONTINUOUS
10
0.006440
20
0.292383
30
0.0
11
0.007618
21
0.291818
31
0.0
0
LINE
8
0
6
CONTINUOUS
10
-0.001052
20
0.295192
30
0.0
11
0.000397
21
0.295498
31
0.0
0
LINE
8
0
6
CONTINUOUS
10
0.001574
20
0.294933
30
0.0
11
0.001567
21
0.295592
31
0.0
0
LINE
8
0
6
CONTINUOUS
10
0.000397
20
0.295498
30
0.0
11
0.001574
21
0.294933
31
0.0
0
LINE
8
0
6
CONTINUOUS
10
-0.001323
20
0.294321
30
0.0
11
-0.001052
21
0.295192
31
0.0
0
LINE
8
0
6
CONTINUOUS
10
-0.001331
20
0.295137
30
0.0
11
-0.001323
21
0.294321
31
0.0
0
LINE
8
0
6
CONTINUOUS
10
-0.001052
20
0.295192
30
0.0
11
-0.001323
21
0.294321
31
0.0
0
LINE
8
0
6
CONTINUOUS
10
0.000397
20
0.295498
30
0.0
11
-0.001052
21
0.295192
31
0.0
0
LINE
8
0
6
CONTINUOUS
10
0.001574
20
0.294933
30
0.0
11
0.000397
21
0.295498
31
0.0
0
LINE
8
0
6
CONTINUOUS
10
0.001303
20
0.294062
30
0.0
11
0.001574
21
0.294933
31
0.0
0
LINE
8
0
6
CONTINUOUS
10
-0.000146
20
0.293756
30
0.0
11
0.001303
21
0.294062
31
0.0
0
LINE
8
0
6
CONTINUOUS
10
-0.001323
20
0.294321
30
0.0
11
-0.000146
21
0.293756
31
0.0
0
LINE
8
0
6
CONTINUOUS
10
-0.006712
20
0.298797
30
0.0
11
-0.005264
21
0.299103
31
0.0
0
LINE
8
0
6
CONTINUOUS
10
-0.004086
20
0.298538
30
0.0
11
-0.004093
21
0.299185
31
0.0
0
LINE
8
0
6
CONTINUOUS
10
-0.005264
20
0.299103
30
0.0
11
-0.004086
21
0.298538
31
0.0
0
LINE
8
0
6
CONTINUOUS
10
-0.006983
20
0.297926
30
0.0
11
-0.006712
21
0.298797
31
0.0
0
LINE
8
0
6
CONTINUOUS
10
-0.006992
20
0.298767
30
0.0
11
-0.006983
21
0.297926
31
0.0
0
LINE
8
0
6
CONTINUOUS
10
-0.006712
20
0.298797
30
0.0
11
-0.006983
21
0.297926
31
0.0
0
LINE
8
0
6
CONTINUOUS
10
-0.005264
20
0.299103
30
0.0
11
-0.006712
21
0.298797
31
0.0
0
LINE
8
0
6
CONTINUOUS
10
-0.004086
20
0.298538
30
0.0
11
-0.005264
21
0.299103
31
0.0
0
LINE
8
0
6
CONTINUOUS
10
-0.004358
20
0.297667
30
0.0
11
-0.004086
21
0.298538
31
0.0
0
LINE
8
0
6
CONTINUOUS
10
-0.005806
20
0.297361
30
0.0
11
-0.004358
21
0.297667
31
0.0
0
LINE
8
0
6
CONTINUOUS
10
-0.006983
20
0.297926
30
0.0
11
-0.005806
21
0.297361
31
0.0
0
LINE
8
0
6
CONTINUOUS
10
-0.009321
20
0.303415
30
0.0
11
-0.007872
21
0.303722
31
0.0
0
LINE
8
0
6
CONTINUOUS
10
-0.006695
20
0.303157
30
0.0
11
-0.006701
21
0.303807
31
0.0
0
LINE
8
0
6
CONTINUOUS
10
-0.007872
20
0.303722
30
0.0
11
-0.006695
21
0.303157
31
0.0
0
LINE
8
0
6
CONTINUOUS
10
-0.009592
20
0.302544
30
0.0
11
-0.009321
21
0.303415
31
0.0
0
LINE
8
0
6
CONTINUOUS
10
-0.009600
20
0.303388
30
0.0
11
-0.009592
21
0.302544
31
0.0
0
LINE
8
0
6
CONTINUOUS
10
-0.009321
20
0.303415
30
0.0
11
-0.009592
21
0.302544
31
0.0
0
LINE
8
0
6
CONTINUOUS
10
-0.007872
20
0.303722
30
0.0
11
-0.009321
21
0.303415
31
0.0
0
LINE
8
0
6
CONTINUOUS
10
-0.006695
20
0.303157
30
0.0
11
-0.007872
21
0.303722
31
0.0
0
LINE
8
0
6
CONTINUOUS
10
-0.006966
20
0.302286
30
0.0
11
-0.006695
21
0.303157
31
0.0
0
LINE
8
0
6
CONTINUOUS
10
-0.008415
20
0.301979
30
0.0
11
-0.006966
21
0.302286
31
0.0
0
LINE
8
0
6
CONTINUOUS
10
-0.009592
20
0.302544
30
0.0
11
-0.008415
21
0.301979
31
0.0
0
LINE
8
0
6
CONTINUOUS
10
-0.008436
20
0.308257
30
0.0
11
-0.006988
21
0.308563
31
0.0
0
LINE
8
0
6
CONTINUOUS
10
-0.005811
20
0.307999
30
0.0
11
-0.005817
21
0.308667
31
0.0
0
LINE
8
0
6
CONTINUOUS
10
-0.006988
20
0.308563
30
0.0
11
-0.005811
21
0.307999
31
0.0
0
LINE
8
0
6
CONTINUOUS
10
-0.008708
20
0.307386
30
0.0
11
-0.008436
21
0.308257
31
0.0
0
LINE
8
0
6
CONTINUOUS
10
-0.008716
20
0.308210
30
0.0
11
-0.008708
21
0.307386
31
0.0
0
LINE
8
0
6
CONTINUOUS
10
-0.008436
20
0.308257
30
0.0
11
-0.008708
21
0.307386
31
0.0
0
LINE
8
0
6
CONTINUOUS
10
-0.006988
20
0.308563
30
0.0
11
-0.008436
21
0.308257
31
0.0
0
LINE
8
0
6
CONTINUOUS
10
-0.005811
20
0.307999
30
0.0
11
-0.006988
21
0.308563
31
0.0
0
LINE
8
0
6
CONTINUOUS
10
-0.006082
20
0.307127
30
0.0
11
-0.005811
21
0.307999
31
0.0
0
LINE
8
0
6
CONTINUOUS
10
-0.007530
20
0.306821
30
0.0
11
-0.006082
21
0.307127
31
0.0
0
LINE
8
0
6
CONTINUOUS
10
-0.008708
20
0.307386
30
0.0
11
-0.007530
21
0.306821
31
0.0
0
LINE
8
0
6
CONTINUOUS
10
-0.004211
20
0.312493
30
0.0
11
-0.002762
21
0.312799
31
0.0
0
LINE
8
0
6
CONTINUOUS
10
-0.001585
20
0.312234
30
0.0
11
-0.001592
21
0.312934
31
0.0
0
LINE
8
0
6
CONTINUOUS
10
-0.002762
20
0.312799
30
0.0
11
-0.001585
21
0.312234
31
0.0
0
LINE
8
0
6
CONTINUOUS
10
-0.004482
20
0.311622
30
0.0
11
-0.004211
21
0.312493
31
0.0
0
LINE
8
0
6
CONTINUOUS
10
-0.004490
20
0.312409
30
0.0
11
-0.004482
21
0.311622
31
0.0
0
LINE
8
0
6
CONTINUOUS
10
-0.004211
20
0.312493
30
0.0
11
-0.004482
21
0.311622
31
0.0
0
LINE
8
0
6
CONTINUOUS
10
-0.002762
20
0.312799
30
0.0
11
-0.004211
21
0.312493
31
0.0
0
LINE
8
0
6
CONTINUOUS
10
-0.001585
20
0.312234
30
0.0
11
-0.002762
21
0.312799
31
0.0
0
LINE
8
0
6
CONTINUOUS
10
-0.001856
20
0.311363
30
0.0
11
-0.001585
21
0.312234
31
0.0
0
LINE
8
0
6
CONTINUOUS
10
-0.003305
20
0.311057
30
0.0
11
-0.001856
21
0.311363
31
0.0
0
LINE
8
0
6
CONTINUOUS
10
-0.004482
20
0.311622
30
0.0
11
-0.003305
21
0.311057
31
0.0
0
LINE
8
0
6
CONTINUOUS
10
0.002638
20
0.315397
30
0.0
11
0.004087
21
0.315703
31
0.0
0
LINE
8
0
6
CONTINUOUS
10
0.005264
20
0.315138
30
0.0
11
0.005257
21
0.315874
31
0.0
0
LINE
8
0
6
CONTINUOUS
10
0.004087
20
0.315703
30
0.0
11
0.005264
21
0.315138
31
0.0
0
LINE
8
0
6
CONTINUOUS
10
0.002367
20
0.314526
30
0.0
11
0.002638
21
0.315397
31
0.0
0
LINE
8
0
6
CONTINUOUS
10
0.002359
20
0.315276
30
0.0
11
0.002367
21
0.314526
31
0.0
0
LINE
8
0
6
CONTINUOUS
10
0.002638
20
0.315397
30
0.0
11
0.002367
21
0.314526
31
0.0
0
LINE
8
0
6
CONTINUOUS
10
0.004087
20
0.315703
30
0.0
11
0.002638
21
0.315397
31
0.0
0
LINE
8
0
6
CONTINUOUS
10
0.005264
20
0.315138
30
0.0
11
0.004087
21
0.315703
31
0.0
0
LINE
8
0
6
CONTINUOUS
10
0.004992
20
0.314267
30
0.0
11
0.005264
21
0.315138
31
0.0
0
LINE
8
0
6
CONTINUOUS
10
0.003544
20
0.313961
30
0.0
11
0.004992
21
0.314267
31
0.0
0
LINE
8
0
6
CONTINUOUS
10
0.002367
20
0.314526
30
0.0
11
0.003544
21
0.313961
31
0.0
0
LINE
8
0
6
CONTINUOUS
10
0.010944
20
0.316426
30
0.0
11
0.012392
21
0.316732
31
0.0
0
LINE
8
0
6
CONTINUOUS
10
0.013569
20
0.316167
30
0.0
11
0.013562
21
0.316938
31
0.0
0
LINE
8
0
6
CONTINUOUS
10
0.012392
20
0.316732
30
0.0
11
0.013569
21
0.316167
31
0.0
0
LINE
8
0
6
CONTINUOUS
10
0.010672
20
0.315555
30
0.0
11
0.010944
21
0.316426
31
0.0
0
LINE
8
0
6
CONTINUOUS
10
0.010665
20
0.316262
30
0.0
11
0.010672
21
0.315555
31
0.0
0
LINE
8
0
6
CONTINUOUS
10
0.010944
20
0.316426
30
0.0
11
0.010672
21
0.315555
31
0.0
0
LINE
8
0
6
CONTINUOUS
10
0.012392
20
0.316732
30
0.0
11
0.010944
21
0.316426
31
0.0
0
LINE
8
0
6
CONTINUOUS
10
0.013569
20
0.316167
30
0.0
11
0.012392
21
0.316732
31
0.0
0
LINE
8
0
6
CONTINUOUS
10
0.013298
20
0.315296
30
0.0
11
0.013569
21
0.316167
31
0.0
0
LINE
8
0
6
CONTINUOUS
10
0.011849
20
0.314990
30
0.0
11
0.013298
21
0.315296
31
0.0
0
LINE
8
0
6
CONTINUOUS
10
0.010672
20
0.315555
30
0.0
11
0.011849
21
0.314990
31
0.0
0
LINE
8
0
6
CONTINUOUS
10
0.019235
20
0.315445
30
0.0
11
0.020684
21
0.315752
31
0.0
0
LINE
8
0
6
CONTINUOUS
10
0.021861
20
0.315187
30
0.0
11
0.021853
21
0.315974
31
0.0
0
LINE
8
0
6
CONTINUOUS
10
0.020684
20
0.315752
30
0.0
11
0.021861
21
0.315187
31
0.0
0
LINE
8
0
6
CONTINUOUS
10
0.018964
20
0.314574
30
0.0
11
0.019235
21
0.315445
31
0.0
0
LINE
8
0
6
CONTINUOUS
10
0.018957
20
0.315234
30
0.0
11
0.018964
21
0.314574
31
0.0
0
LINE
8
0
6
CONTINUOUS
10
0.019235
20
0.315445
30
0.0
11
0.018964
21
0.314574
31
0.0
0
LINE
8
0
6
CONTINUOUS
10
0.020684
20
0.315752
30
0.0
11
0.019235
21
0.315445
31
0.0
0
LINE
8
0
6
CONTINUOUS
10
0.021861
20
0.315187
30
0.0
11
0.020684
21
0.315752
31
0.0
0
LINE
8
0
6
CONTINUOUS
10
0.021590
20
0.314316
30
0.0
11
0.021861
21
0.315187
31
0.0
0
LINE
8
0
6
CONTINUOUS
10
0.020141
20
0.314009
30
0.0
11
0.021590
21
0.314316
31
0.0
0
LINE
8
0
6
CONTINUOUS
10
0.018964
20
0.314574
30
0.0
11
0.020141
21
0.314009
31
0.0
0
LINE
8
0
6
CONTINUOUS
10
0.026095
20
0.312620
30
0.0
11
0.027543
21
0.312926
31
0.0
0
LINE
8
0
6
CONTINUOUS
10
0.028720
20
0.312361
30
0.0
11
0.028712
21
0.313162
31
0.0
0
LINE
8
0
6
CONTINUOUS
10
0.027543
20
0.312926
30
0.0
11
0.028720
21
0.312361
31
0.0
0
LINE
8
0
6
CONTINUOUS
10
0.025823
20
0.311748
30
0.0
11
0.026095
21
0.312620
31
0.0
0
LINE
8
0
6
CONTINUOUS
10
0.025817
20
0.312374
30
0.0
11
0.025823
21
0.311748
31
0.0
0
LINE
8
0
6
CONTINUOUS
10
0.026095
20
0.312620
30
0.0
11
0.025823
21
0.311748
31
0.0
0
LINE
8
0
6
CONTINUOUS
10
0.027543
20
0.312926
30
0.0
11
0.026095
21
0.312620
31
0.0
0
LINE
8
0
6
CONTINUOUS
10
0.028720
20
0.312361
30
0.0
11
0.027543
21
0.312926
31
0.0
0
LINE
8
0
6
CONTINUOUS
10
0.028449
20
0.311490
30
0.0
11
0.028720
21
0.312361
31
0.0
0
LINE
8
0
6
CONTINUOUS
10
0.027000
20
0.311184
30
0.0
11
0.028449
21
0.311490
31
0.0
0
LINE
8
0
6
CONTINUOUS
10
0.025823
20
0.311748
30
0.0
11
0.027000
21
0.311184
31
0.0
0
LINE
8
0
6
CONTINUOUS
10
0.030346
20
0.308430
30
0.0
11
0.031794
21
0.308736
31
0.0
0
LINE
8
0
6
CONTINUOUS
10
0.032972
20
0.308171
30
0.0
11
0.032964
21
0.308977
31
0.0
0
LINE
8
0
6
CONTINUOUS
10
0.031794
20
0.308736
30
0.0
11
0.032972
21
0.308171
31
0.0
0
LINE
8
0
6
CONTINUOUS
10
0.030074
20
0.307559
30
0.0
11
0.030346
21
0.308430
31
0.0
0
LINE
8
0
6
CONTINUOUS
10
0.030068
20
0.308170
30
0.0
11
0.030074
21
0.307559
31
0.0
0
LINE
8
0
6
CONTINUOUS
10
0.030346
20
0.308430
30
0.0
11
0.030074
21
0.307559
31
0.0
0
LINE
8
0
6
CONTINUOUS
10
0.031794
20
0.308736
30
0.0
11
0.030346
21
0.308430
31
0.0
0
LINE
8
0
6
CONTINUOUS
10
0.032972
20
0.308171
30
0.0
11
0.031794
21
0.308736
31
0.0
0
LINE
8
0
6
CONTINUOUS
10
0.032700
20
0.307300
30
0.0
11
0.032972
21
0.308171
31
0.0
0
LINE
8
0
6
CONTINUOUS
10
0.031252
20
0.306994
30
0.0
11
0.032700
21
0.307300
31
0.0
0
LINE
8
0
6
CONTINUOUS
10
0.030074
20
0.307559
30
0.0
11
0.031252
21
0.306994
31
0.0
0
LINE
8
0
6
CONTINUOUS
10
0.047696
20
0.305698
30
0.0
11
0.048940
21
0.305962
31
0.0
0
LINE
8
0
6
CONTINUOUS
10
0.049951
20
0.305476
30
0.0
11
0.049944
21
0.306258
31
0.0
0
LINE
8
0
6
CONTINUOUS
10
0.048940
20
0.305962
30
0.0
11
0.049951
21
0.305476
31
0.0
0
LINE
8
0
6
CONTINUOUS
10
0.047463
20
0.304950
30
0.0
11
0.047696
21
0.305698
31
0.0
0
LINE
8
0
6
CONTINUOUS
10
0.047457
20
0.305586
30
0.0
11
0.047463
21
0.304950
31
0.0
0
LINE
8
0
6
CONTINUOUS
10
0.047696
20
0.305698
30
0.0
11
0.047463
21
0.304950
31
0.0
0
LINE
8
0
6
CONTINUOUS
10
0.048940
20
0.305962
30
0.0
11
0.047696
21
0.305698
31
0.0
0
LINE
8
0
6
CONTINUOUS
10
0.049951
20
0.305476
30
0.0
11
0.048940
21
0.305962
31
0.0
0
LINE
8
0
6
CONTINUOUS
10
0.049718
20
0.304728
30
0.0
11
0.049951
21
0.305476
31
0.0
0
LINE
8
0
6
CONTINUOUS
10
0.048474
20
0.304465
30
0.0
11
0.049718
21
0.304728
31
0.0
0
LINE
8
0
6
CONTINUOUS
10
0.047463
20
0.304950
30
0.0
11
0.048474
21
0.304465
31
0.0
0
LINE
8
0
6
CONTINUOUS
10
0.013855
20
0.305147
30
0.0
11
0.015099
21
0.305410
31
0.0
0
LINE
8
0
6
CONTINUOUS
10
0.016110
20
0.304925
30
0.0
11
0.016105
21
0.305471
31
0.0
0
LINE
8
0
6
CONTINUOUS
10
0.015099
20
0.305410
30
0.0
11
0.016110
21
0.304925
31
0.0
0
LINE
8
0
6
CONTINUOUS
10
0.013622
20
0.304399
30
0.0
11
0.013855
21
0.305147
31
0.0
0
LINE
8
0
6
CONTINUOUS
10
0.013618
20
0.304905
30
0.0
11
0.013622
21
0.304399
31
0.0
0
LINE
8
0
6
CONTINUOUS
10
0.013855
20
0.305147
30
0.0
11
0.013622
21
0.304399
31
0.0
0
LINE
8
0
6
CONTINUOUS
10
0.015099
20
0.305410
30
0.0
11
0.013855
21
0.305147
31
0.0
0
LINE
8
0
6
CONTINUOUS
10
0.016110
20
0.304925
30
0.0
11
0.015099
21
0.305410
31
0.0
0
LINE
8
0
6
CONTINUOUS
10
0.015877
20
0.304177
30
0.0
11
0.016110
21
0.304925
31
0.0
0
LINE
8
0
6
CONTINUOUS
10
0.014633
20
0.303914
30
0.0
11
0.015877
21
0.304177
31
0.0
0
LINE
8
0
6
CONTINUOUS
10
0.013622
20
0.304399
30
0.0
11
0.014633
21
0.303914
31
0.0
0
LINE
8
0
6
CONTINUOUS
10
0.011172
20
0.306063
30
0.0
11
0.012416
21
0.306326
31
0.0
0
LINE
8
0
6
CONTINUOUS
10
0.013427
20
0.305841
30
0.0
11
0.013422
21
0.306376
31
0.0
0
LINE
8
0
6
CONTINUOUS
10
0.012416
20
0.306326
30
0.0
11
0.013427
21
0.305841
31
0.0
0
LINE
8
0
6
CONTINUOUS
10
0.010939
20
0.305315
30
0.0
11
0.011172
21
0.306063
31
0.0
0
LINE
8
0
6
CONTINUOUS
10
0.010934
20
0.305832
30
0.0
11
0.010939
21
0.305315
31
0.0
0
LINE
8
0
6
CONTINUOUS
10
0.011172
20
0.306063
30
0.0
11
0.010939
21
0.305315
31
0.0
0
LINE
8
0
6
CONTINUOUS
10
0.012416
20
0.306326
30
0.0
11
0.011172
21
0.306063
31
0.0
0
LINE
8
0
6
CONTINUOUS
10
0.013427
20
0.305841
30
0.0
11
0.012416
21
0.306326
31
0.0
0
LINE
8
0
6
CONTINUOUS
10
0.013194
20
0.305093
30
0.0
11
0.013427
21
0.305841
31
0.0
0
LINE
8
0
6
CONTINUOUS
10
0.011950
20
0.304830
30
0.0
11
0.013194
21
0.305093
31
0.0
0
LINE
8
0
6
CONTINUOUS
10
0.010939
20
0.305315
30
0.0
11
0.011950
21
0.304830
31
0.0
0
LINE
8
0
6
CONTINUOUS
10
0.008432
20
0.305180
30
0.0
11
0.009676
21
0.305443
31
0.0
0
LINE
8
0
6
CONTINUOUS
10
0.010687
20
0.304958
30
0.0
11
0.010682
21
0.305467
31
0.0
0
LINE
8
0
6
CONTINUOUS
10
0.009676
20
0.305443
30
0.0
11
0.010687
21
0.304958
31
0.0
0
LINE
8
0
6
CONTINUOUS
10
0.008199
20
0.304432
30
0.0
11
0.008432
21
0.305180
31
0.0
0
LINE
8
0
6
CONTINUOUS
10
0.008194
20
0.304978
30
0.0
11
0.008199
21
0.304432
31
0.0
0
LINE
8
0
6
CONTINUOUS
10
0.008432
20
0.305180
30
0.0
11
0.008199
21
0.304432
31
0.0
0
LINE
8
0
6
CONTINUOUS
10
0.009676
20
0.305443
30
0.0
11
0.008432
21
0.305180
31
0.0
0
LINE
8
0
6
CONTINUOUS
10
0.010687
20
0.304958
30
0.0
11
0.009676
21
0.305443
31
0.0
0
LINE
8
0
6
CONTINUOUS
10
0.010454
20
0.304210
30
0.0
11
0.010687
21
0.304958
31
0.0
0
LINE
8
0
6
CONTINUOUS
10
0.009210
20
0.303947
30
0.0
11
0.010454
21
0.304210
31
0.0
0
LINE
8
0
6
CONTINUOUS
10
0.008199
20
0.304432
30
0.0
11
0.009210
21
0.303947
31
0.0
0
LINE
8
0
6
CONTINUOUS
10
0.008378
20
0.303383
30
0.0
11
0.009622
21
0.303646
31
0.0
0
LINE
8
0
6
CONTINUOUS
10
0.010633
20
0.303161
30
0.0
11
0.010628
21
0.303670
31
0.0
0
LINE
8
0
6
CONTINUOUS
10
0.009622
20
0.303646
30
0.0
11
0.010633
21
0.303161
31
0.0
0
LINE
8
0
6
CONTINUOUS
10
0.008145
20
0.302635
30
0.0
11
0.008378
21
0.303383
31
0.0
0
LINE
8
0
6
CONTINUOUS
10
0.008140
20
0.303189
30
0.0
11
0.008145
21
0.302635
31
0.0
0
LINE
8
0
6
CONTINUOUS
10
0.008378
20
0.303383
30
0.0
11
0.008145
21
0.302635
31
0.0
0
LINE
8
0
6
CONTINUOUS
10
0.009622
20
0.303646
30
0.0
11
0.008378
21
0.303383
31
0.0
0
LINE
8
0
6
CONTINUOUS
10
0.010633
20
0.303161
30
0.0
11
0.009622
21
0.303646
31
0.0
0
LINE
8
0
6
CONTINUOUS
10
0.010400
20
0.302413
30
0.0
11
0.010633
21
0.303161
31
0.0
0
LINE
8
0
6
CONTINUOUS
10
0.009156
20
0.302150
30
0.0
11
0.010400
21
0.302413
31
0.0
0
LINE
8
0
6
CONTINUOUS
10
0.008145
20
0.302635
30
0.0
11
0.009156
21
0.302150
31
0.0
0
LINE
8
0
6
CONTINUOUS
10
0.011061
20
0.302467
30
0.0
11
0.012305
21
0.302731
31
0.0
0
LINE
8
0
6
CONTINUOUS
10
0.013316
20
0.302245
30
0.0
11
0.013311
21
0.302759
31
0.0
0
LINE
8
0
6
CONTINUOUS
10
0.012305
20
0.302731
30
0.0
11
0.013316
21
0.302245
31
0.0
0
LINE
8
0
6
CONTINUOUS
10
0.010828
20
0.301719
30
0.0
11
0.011061
21
0.302467
31
0.0
0
LINE
8
0
6
CONTINUOUS
10
0.010823
20
0.302256
30
0.0
11
0.010828
21
0.301719
31
0.0
0
LINE
8
0
6
CONTINUOUS
10
0.011061
20
0.302467
30
0.0
11
0.010828
21
0.301719
31
0.0
0
LINE
8
0
6
CONTINUOUS
10
0.012305
20
0.302731
30
0.0
11
0.011061
21
0.302467
31
0.0
0
LINE
8
0
6
CONTINUOUS
10
0.013316
20
0.302245
30
0.0
11
0.012305
21
0.302731
31
0.0
0
LINE
8
0
6
CONTINUOUS
10
0.013083
20
0.301497
30
0.0
11
0.013316
21
0.302245
31
0.0
0
LINE
8
0
6
CONTINUOUS
10
0.011839
20
0.301234
30
0.0
11
0.013083
21
0.301497
31
0.0
0
LINE
8
0
6
CONTINUOUS
10
0.010828
20
0.301719
30
0.0
11
0.011839
21
0.301234
31
0.0
0
LINE
8
0
6
CONTINUOUS
10
0.015483
20
0.306775
30
0.0
11
0.016727
21
0.307038
31
0.0
0
LINE
8
0
6
CONTINUOUS
10
0.017738
20
0.306553
30
0.0
11
0.017732
21
0.307168
31
0.0
0
LINE
8
0
6
CONTINUOUS
10
0.016727
20
0.307038
30
0.0
11
0.017738
21
0.306553
31
0.0
0
LINE
8
0
6
CONTINUOUS
10
0.015250
20
0.306027
30
0.0
11
0.015483
21
0.306775
31
0.0
0
LINE
8
0
6
CONTINUOUS
10
0.015245
20
0.306586
30
0.0
11
0.015250
21
0.306027
31
0.0
0
LINE
8
0
6
CONTINUOUS
10
0.015483
20
0.306775
30
0.0
11
0.015250
21
0.306027
31
0.0
0
LINE
8
0
6
CONTINUOUS
10
0.016727
20
0.307038
30
0.0
11
0.015483
21
0.306775
31
0.0
0
LINE
8
0
6
CONTINUOUS
10
0.017738
20
0.306553
30
0.0
11
0.016727
21
0.307038
31
0.0
0
LINE
8
0
6
CONTINUOUS
10
0.017505
20
0.305805
30
0.0
11
0.017738
21
0.306553
31
0.0
0
LINE
8
0
6
CONTINUOUS
10
0.016261
20
0.305542
30
0.0
11
0.017505
21
0.305805
31
0.0
0
LINE
8
0
6
CONTINUOUS
10
0.015250
20
0.306027
30
0.0
11
0.016261
21
0.305542
31
0.0
0
LINE
8
0
6
CONTINUOUS
10
0.012727
20
0.307683
30
0.0
11
0.013971
21
0.307946
31
0.0
0
LINE
8
0
6
CONTINUOUS
10
0.014982
20
0.307461
30
0.0
11
0.014977
21
0.308068
31
0.0
0
LINE
8
0
6
CONTINUOUS
10
0.013971
20
0.307946
30
0.0
11
0.014982
21
0.307461
31
0.0
0
LINE
8
0
6
CONTINUOUS
10
0.012494
20
0.306934
30
0.0
11
0.012727
21
0.307683
31
0.0
0
LINE
8
0
6
CONTINUOUS
10
0.012489
20
0.307509
30
0.0
11
0.012494
21
0.306934
31
0.0
0
LINE
8
0
6
CONTINUOUS
10
0.012727
20
0.307683
30
0.0
11
0.012494
21
0.306934
31
0.0
0
LINE
8
0
6
CONTINUOUS
10
0.013971
20
0.307946
30
0.0
11
0.012727
21
0.307683
31
0.0
0
LINE
8
0
6
CONTINUOUS
10
0.014982
20
0.307461
30
0.0
11
0.013971
21
0.307946
31
0.0
0
LINE
8
0
6
CONTINUOUS
10
0.014749
20
0.306712
30
0.0
11
0.014982
21
0.307461
31
0.0
0
LINE
8
0
6
CONTINUOUS
10
0.013505
20
0.306449
30
0.0
11
0.014749
21
0.306712
31
0.0
0
LINE
8
0
6
CONTINUOUS
10
0.012494
20
0.306934
30
0.0
11
0.013505
21
0.306449
31
0.0
0
LINE
8
0
6
CONTINUOUS
10
0.009540
20
0.307675
30
0.0
11
0.010784
21
0.307938
31
0.0
0
LINE
8
0
6
CONTINUOUS
10
0.011795
20
0.307453
30
0.0
11
0.011789
21
0.308049
31
0.0
0
LINE
8
0
6
CONTINUOUS
10
0.010784
20
0.307938
30
0.0
11
0.011795
21
0.307453
31
0.0
0
LINE
8
0
6
CONTINUOUS
10
0.009307
20
0.306927
30
0.0
11
0.009540
21
0.307675
31
0.0
0
LINE
8
0
6
CONTINUOUS
10
0.009301
20
0.307520
30
0.0
11
0.009307
21
0.306927
31
0.0
0
LINE
8
0
6
CONTINUOUS
10
0.009540
20
0.307675
30
0.0
11
0.009307
21
0.306927
31
0.0
0
LINE
8
0
6
CONTINUOUS
10
0.010784
20
0.307938
30
0.0
11
0.009540
21
0.307675
31
0.0
0
LINE
8
0
6
CONTINUOUS
10
0.011795
20
0.307453
30
0.0
11
0.010784
21
0.307938
31
0.0
0
LINE
8
0
6
CONTINUOUS
10
0.011562
20
0.306705
30
0.0
11
0.011795
21
0.307453
31
0.0
0
LINE
8
0
6
CONTINUOUS
10
0.010318
20
0.306442
30
0.0
11
0.011562
21
0.306705
31
0.0
0
LINE
8
0
6
CONTINUOUS
10
0.009307
20
0.306927
30
0.0
11
0.010318
21
0.306442
31
0.0
0
LINE
8
0
6
CONTINUOUS
10
0.006776
20
0.306753
30
0.0
11
0.008019
21
0.307016
31
0.0
0
LINE
8
0
6
CONTINUOUS
10
0.009030
20
0.306531
30
0.0
11
0.009025
21
0.307114
31
0.0
0
LINE
8
0
6
CONTINUOUS
10
0.008019
20
0.307016
30
0.0
11
0.009030
21
0.306531
31
0.0
0
LINE
8
0
6
CONTINUOUS
10
0.006543
20
0.306005
30
0.0
11
0.006776
21
0.306753
31
0.0
0
LINE
8
0
6
CONTINUOUS
10
0.006537
20
0.306616
30
0.0
11
0.006543
21
0.306005
31
0.0
0
LINE
8
0
6
CONTINUOUS
10
0.006776
20
0.306753
30
0.0
11
0.006543
21
0.306005
31
0.0
0
LINE
8
0
6
CONTINUOUS
10
0.008019
20
0.307016
30
0.0
11
0.006776
21
0.306753
31
0.0
0
LINE
8
0
6
CONTINUOUS
10
0.009030
20
0.306531
30
0.0
11
0.008019
21
0.307016
31
0.0
0
LINE
8
0
6
CONTINUOUS
10
0.008797
20
0.305783
30
0.0
11
0.009030
21
0.306531
31
0.0
0
LINE
8
0
6
CONTINUOUS
10
0.007553
20
0.305519
30
0.0
11
0.008797
21
0.305783
31
0.0
0
LINE
8
0
6
CONTINUOUS
10
0.006543
20
0.306005
30
0.0
11
0.007553
21
0.305519
31
0.0
0
LINE
8
0
6
CONTINUOUS
10
0.005174
20
0.305164
30
0.0
11
0.006418
21
0.305427
31
0.0
0
LINE
8
0
6
CONTINUOUS
10
0.007429
20
0.304942
30
0.0
11
0.007423
21
0.305513
31
0.0
0
LINE
8
0
6
CONTINUOUS
10
0.006418
20
0.305427
30
0.0
11
0.007429
21
0.304942
31
0.0
0
LINE
8
0
6
CONTINUOUS
10
0.004941
20
0.304416
30
0.0
11
0.005174
21
0.305164
31
0.0
0
LINE
8
0
6
CONTINUOUS
10
0.004935
20
0.305041
30
0.0
11
0.004941
21
0.304416
31
0.0
0
LINE
8
0
6
CONTINUOUS
10
0.005174
20
0.305164
30
0.0
11
0.004941
21
0.304416
31
0.0
0
LINE
8
0
6
CONTINUOUS
10
0.006418
20
0.305427
30
0.0
11
0.005174
21
0.305164
31
0.0
0
LINE
8
0
6
CONTINUOUS
10
0.007429
20
0.304942
30
0.0
11
0.006418
21
0.305427
31
0.0
0
LINE
8
0
6
CONTINUOUS
10
0.007196
20
0.304194
30
0.0
11
0.007429
21
0.304942
31
0.0
0
LINE
8
0
6
CONTINUOUS
10
0.005952
20
0.303931
30
0.0
11
0.007196
21
0.304194
31
0.0
0
LINE
8
0
6
CONTINUOUS
10
0.004941
20
0.304416
30
0.0
11
0.005952
21
0.303931
31
0.0
0
LINE
8
0
6
CONTINUOUS
10
0.005163
20
0.303335
30
0.0
11
0.006407
21
0.303598
31
0.0
0
LINE
8
0
6
CONTINUOUS
10
0.007418
20
0.303113
30
0.0
11
0.007413
21
0.303677
31
0.0
0
LINE
8
0
6
CONTINUOUS
10
0.006407
20
0.303598
30
0.0
11
0.007418
21
0.303113
31
0.0
0
LINE
8
0
6
CONTINUOUS
10
0.004930
20
0.302587
30
0.0
11
0.005163
21
0.303335
31
0.0
0
LINE
8
0
6
CONTINUOUS
10
0.004924
20
0.303217
30
0.0
11
0.004930
21
0.302587
31
0.0
0
LINE
8
0
6
CONTINUOUS
10
0.005163
20
0.303335
30
0.0
11
0.004930
21
0.302587
31
0.0
0
LINE
8
0
6
CONTINUOUS
10
0.006407
20
0.303598
30
0.0
11
0.005163
21
0.303335
31
0.0
0
LINE
8
0
6
CONTINUOUS
10
0.007418
20
0.303113
30
0.0
11
0.006407
21
0.303598
31
0.0
0
LINE
8
0
6
CONTINUOUS
10
0.007185
20
0.302365
30
0.0
11
0.007418
21
0.303113
31
0.0
0
LINE
8
0
6
CONTINUOUS
10
0.005941
20
0.302102
30
0.0
11
0.007185
21
0.302365
31
0.0
0
LINE
8
0
6
CONTINUOUS
10
0.004930
20
0.302587
30
0.0
11
0.005941
21
0.302102
31
0.0
0
LINE
8
0
6
CONTINUOUS
10
0.006750
20
0.301755
30
0.0
11
0.007994
21
0.302018
31
0.0
0
LINE
8
0
6
CONTINUOUS
10
0.009005
20
0.301533
30
0.0
11
0.009000
21
0.302099
31
0.0
0
LINE
8
0
6
CONTINUOUS
10
0.007994
20
0.302018
30
0.0
11
0.009005
21
0.301533
31
0.0
0
LINE
8
0
6
CONTINUOUS
10
0.006517
20
0.301007
30
0.0
11
0.006750
21
0.301755
31
0.0
0
LINE
8
0
6
CONTINUOUS
10
0.006511
20
0.301633
30
0.0
11
0.006517
21
0.301007
31
0.0
0
LINE
8
0
6
CONTINUOUS
10
0.006750
20
0.301755
30
0.0
11
0.006517
21
0.301007
31
0.0
0
LINE
8
0
6
CONTINUOUS
10
0.007994
20
0.302018
30
0.0
11
0.006750
21
0.301755
31
0.0
0
LINE
8
0
6
CONTINUOUS
10
0.009005
20
0.301533
30
0.0
11
0.007994
21
0.302018
31
0.0
0
LINE
8
0
6
CONTINUOUS
10
0.008772
20
0.300785
30
0.0
11
0.009005
21
0.301533
31
0.0
0
LINE
8
0
6
CONTINUOUS
10
0.007528
20
0.300522
30
0.0
11
0.008772
21
0.300785
31
0.0
0
LINE
8
0
6
CONTINUOUS
10
0.006517
20
0.301007
30
0.0
11
0.007528
21
0.300522
31
0.0
0
LINE
8
0
6
CONTINUOUS
10
0.009506
20
0.300848
30
0.0
11
0.010750
21
0.301111
31
0.0
0
LINE
8
0
6
CONTINUOUS
10
0.011761
20
0.300626
30
0.0
11
0.011755
21
0.301201
31
0.0
0
LINE
8
0
6
CONTINUOUS
10
0.010750
20
0.301111
30
0.0
11
0.011761
21
0.300626
31
0.0
0
LINE
8
0
6
CONTINUOUS
10
0.009273
20
0.300100
30
0.0
11
0.009506
21
0.300848
31
0.0
0
LINE
8
0
6
CONTINUOUS
10
0.009267
20
0.300712
30
0.0
11
0.009273
21
0.300100
31
0.0
0
LINE
8
0
6
CONTINUOUS
10
0.009506
20
0.300848
30
0.0
11
0.009273
21
0.300100
31
0.0
0
LINE
8
0
6
CONTINUOUS
10
0.010750
20
0.301111
30
0.0
11
0.009506
21
0.300848
31
0.0
0
LINE
8
0
6
CONTINUOUS
10
0.011761
20
0.300626
30
0.0
11
0.010750
21
0.301111
31
0.0
0
LINE
8
0
6
CONTINUOUS
10
0.011528
20
0.299878
30
0.0
11
0.011761
21
0.300626
31
0.0
0
LINE
8
0
6
CONTINUOUS
10
0.010284
20
0.299615
30
0.0
11
0.011528
21
0.299878
31
0.0
0
LINE
8
0
6
CONTINUOUS
10
0.009273
20
0.300100
30
0.0
11
0.010284
21
0.299615
31
0.0
0
LINE
8
0
6
CONTINUOUS
10
0.012693
20
0.300855
30
0.0
11
0.013937
21
0.301118
31
0.0
0
LINE
8
0
6
CONTINUOUS
10
0.014948
20
0.300633
30
0.0
11
0.014943
21
0.301220
31
0.0
0
LINE
8
0
6
CONTINUOUS
10
0.013937
20
0.301118
30
0.0
11
0.014948
21
0.300633
31
0.0
0
LINE
8
0
6
CONTINUOUS
10
0.012460
20
0.300107
30
0.0
11
0.012693
21
0.300855
31
0.0
0
LINE
8
0
6
CONTINUOUS
10
0.012455
20
0.300702
30
0.0
11
0.012460
21
0.300107
31
0.0
0
LINE
8
0
6
CONTINUOUS
10
0.012693
20
0.300855
30
0.0
11
0.012460
21
0.300107
31
0.0
0
LINE
8
0
6
CONTINUOUS
10
0.013937
20
0.301118
30
0.0
11
0.012693
21
0.300855
31
0.0
0
LINE
8
0
6
CONTINUOUS
10
0.014948
20
0.300633
30
0.0
11
0.013937
21
0.301118
31
0.0
0
LINE
8
0
6
CONTINUOUS
10
0.014715
20
0.299885
30
0.0
11
0.014948
21
0.300633
31
0.0
0
LINE
8
0
6
CONTINUOUS
10
0.013471
20
0.299622
30
0.0
11
0.014715
21
0.299885
31
0.0
0
LINE
8
0
6
CONTINUOUS
10
0.012460
20
0.300107
30
0.0
11
0.013471
21
0.299622
31
0.0
0
LINE
8
0
6
CONTINUOUS
10
0.015458
20
0.301778
30
0.0
11
0.016702
21
0.302041
31
0.0
0
LINE
8
0
6
CONTINUOUS
10
0.017712
20
0.301556
30
0.0
11
0.017707
21
0.302155
31
0.0
0
LINE
8
0
6
CONTINUOUS
10
0.016702
20
0.302041
30
0.0
11
0.017712
21
0.301556
31
0.0
0
LINE
8
0
6
CONTINUOUS
10
0.015225
20
0.301030
30
0.0
11
0.015458
21
0.301778
31
0.0
0
LINE
8
0
6
CONTINUOUS
10
0.015219
20
0.301606
30
0.0
11
0.015225
21
0.301030
31
0.0
0
LINE
8
0
6
CONTINUOUS
10
0.015458
20
0.301778
30
0.0
11
0.015225
21
0.301030
31
0.0
0
LINE
8
0
6
CONTINUOUS
10
0.016702
20
0.302041
30
0.0
11
0.015458
21
0.301778
31
0.0
0
LINE
8
0
6
CONTINUOUS
10
0.017712
20
0.301556
30
0.0
11
0.016702
21
0.302041
31
0.0
0
LINE
8
0
6
CONTINUOUS
10
0.017480
20
0.300808
30
0.0
11
0.017712
21
0.301556
31
0.0
0
LINE
8
0
6
CONTINUOUS
10
0.016236
20
0.300545
30
0.0
11
0.017480
21
0.300808
31
0.0
0
LINE
8
0
6
CONTINUOUS
10
0.015225
20
0.301030
30
0.0
11
0.016236
21
0.300545
31
0.0
0
LINE
8
0
6
CONTINUOUS
10
0.017059
20
0.303366
30
0.0
11
0.018303
21
0.303629
31
0.0
0
LINE
8
0
6
CONTINUOUS
10
0.019314
20
0.303144
30
0.0
11
0.019308
21
0.303755
31
0.0
0
LINE
8
0
6
CONTINUOUS
10
0.018303
20
0.303629
30
0.0
11
0.019314
21
0.303144
31
0.0
0
LINE
8
0
6
CONTINUOUS
10
0.016826
20
0.302618
30
0.0
11
0.017059
21
0.303366
31
0.0
0
LINE
8
0
6
CONTINUOUS
10
0.016821
20
0.303179
30
0.0
11
0.016826
21
0.302618
31
0.0
0
LINE
8
0
6
CONTINUOUS
10
0.017059
20
0.303366
30
0.0
11
0.016826
21
0.302618
31
0.0
0
LINE
8
0
6
CONTINUOUS
10
0.018303
20
0.303629
30
0.0
11
0.017059
21
0.303366
31
0.0
0
LINE
8
0
6
CONTINUOUS
10
0.019314
20
0.303144
30
0.0
11
0.018303
21
0.303629
31
0.0
0
LINE
8
0
6
CONTINUOUS
10
0.019081
20
0.302396
30
0.0
11
0.019314
21
0.303144
31
0.0
0
LINE
8
0
6
CONTINUOUS
10
0.017837
20
0.302133
30
0.0
11
0.019081
21
0.302396
31
0.0
0
LINE
8
0
6
CONTINUOUS
10
0.016826
20
0.302618
30
0.0
11
0.017837
21
0.302133
31
0.0
0
LINE
8
0
6
CONTINUOUS
10
0.013801
20
0.303350
30
0.0
11
0.015045
21
0.303613
31
0.0
0
LINE
8
0
6
CONTINUOUS
10
0.016056
20
0.303128
30
0.0
11
0.016051
21
0.303666
31
0.0
0
LINE
8
0
6
CONTINUOUS
10
0.015045
20
0.303613
30
0.0
11
0.016056
21
0.303128
31
0.0
0
LINE
8
0
6
CONTINUOUS
10
0.013568
20
0.302602
30
0.0
11
0.013801
21
0.303350
31
0.0
0
LINE
8
0
6
CONTINUOUS
10
0.013563
20
0.303109
30
0.0
11
0.013568
21
0.302602
31
0.0
0
LINE
8
0
6
CONTINUOUS
10
0.017070
20
0.305195
30
0.0
11
0.018314
21
0.305458
31
0.0
0
LINE
8
0
6
CONTINUOUS
10
0.019325
20
0.304973
30
0.0
11
0.019319
21
0.305589
31
0.0
0
LINE
8
0
6
CONTINUOUS
10
0.018314
20
0.305458
30
0.0
11
0.019325
21
0.304973
31
0.0
0
LINE
8
0
6
CONTINUOUS
10
0.016837
20
0.304447
30
0.0
11
0.017070
21
0.305195
31
0.0
0
LINE
8
0
6
CONTINUOUS
10
0.016832
20
0.305002
30
0.0
11
0.016837
21
0.304447
31
0.0
0
LINE
8
0
6
CONTINUOUS
10
0.017070
20
0.305195
30
0.0
11
0.016837
21
0.304447
31
0.0
0
LINE
8
0
6
CONTINUOUS
10
0.018314
20
0.305458
30
0.0
11
0.017070
21
0.305195
31
0.0
0
LINE
8
0
6
CONTINUOUS
10
0.019325
20
0.304973
30
0.0
11
0.018314
21
0.305458
31
0.0
0
LINE
8
0
6
CONTINUOUS
10
0.019092
20
0.304225
30
0.0
11
0.019325
21
0.304973
31
0.0
0
LINE
8
0
6
CONTINUOUS
10
0.017848
20
0.303962
30
0.0
11
0.019092
21
0.304225
31
0.0
0
LINE
8
0
6
CONTINUOUS
10
0.016837
20
0.304447
30
0.0
11
0.017848
21
0.303962
31
0.0
0
LINE
8
0
6
CONTINUOUS
10
0.001452
20
0.296493
30
0.0
11
0.002856
21
0.296715
31
0.0
0
LINE
8
0
6
CONTINUOUS
10
0.000193
20
0.296905
30
0.0
11
0.001452
21
0.296493
31
0.0
0
LINE
8
0
6
CONTINUOUS
10
0.001666
20
0.299151
30
0.0
11
0.003206
21
0.298245
31
0.0
0
LINE
8
0
6
CONTINUOUS
10
-0.004229
20
0.301282
30
0.0
11
-0.004067
21
0.302111
31
0.0
0
LINE
8
0
6
CONTINUOUS
10
-0.004235
20
0.302181
30
0.0
11
-0.004229
21
0.301282
31
0.0
0
LINE
8
0
6
CONTINUOUS
10
-0.002932
20
0.302637
30
0.0
11
-0.004067
21
0.302111
31
0.0
0
LINE
8
0
6
CONTINUOUS
10
-0.004067
20
0.302111
30
0.0
11
-0.004229
21
0.301282
31
0.0
0
LINE
8
0
6
CONTINUOUS
10
-0.004067
20
0.302111
30
0.0
11
-0.002932
21
0.302637
31
0.0
0
LINE
8
0
6
CONTINUOUS
10
-0.001488
20
0.302550
30
0.0
11
-0.002932
21
0.302637
31
0.0
0
LINE
8
0
6
CONTINUOUS
10
-0.000581
20
0.301902
30
0.0
11
-0.001488
21
0.302550
31
0.0
0
LINE
8
0
6
CONTINUOUS
10
-0.002932
20
0.302637
30
0.0
11
-0.001488
21
0.302550
31
0.0
0
LINE
8
0
6
CONTINUOUS
10
-0.000180
20
0.300971
30
0.0
11
0.000533
21
0.300041
31
0.0
0
LINE
8
0
6
CONTINUOUS
10
-0.001488
20
0.302550
30
0.0
11
-0.000581
21
0.301902
31
0.0
0
LINE
8
0
6
CONTINUOUS
10
0.003206
20
0.298245
30
0.0
11
0.001666
21
0.299151
31
0.0
0
LINE
8
0
6
CONTINUOUS
10
0.003206
20
0.298245
30
0.0
11
0.003582
21
0.297441
31
0.0
0
LINE
8
0
6
CONTINUOUS
10
0.000533
20
0.300041
30
0.0
11
-0.000180
21
0.300971
31
0.0
0
LINE
8
0
6
CONTINUOUS
10
-0.001469
20
0.297951
30
0.0
11
0.000193
21
0.296905
31
0.0
0
LINE
8
0
6
CONTINUOUS
10
0.003582
20
0.297441
30
0.0
11
0.003206
21
0.298245
31
0.0
0
LINE
8
0
6
CONTINUOUS
10
0.002856
20
0.296715
30
0.0
11
0.003582
21
0.297441
31
0.0
0
LINE
8
0
6
CONTINUOUS
10
-0.003632
20
0.300129
30
0.0
11
-0.002722
21
0.298977
31
0.0
0
LINE
8
0
6
CONTINUOUS
10
0.000533
20
0.300041
30
0.0
11
0.001666
21
0.299151
31
0.0
0
LINE
8
0
6
CONTINUOUS
10
0.001666
20
0.299151
30
0.0
11
0.000533
21
0.300041
31
0.0
0
LINE
8
0
6
CONTINUOUS
10
-0.002722
20
0.298977
30
0.0
11
-0.001469
21
0.297951
31
0.0
0
LINE
8
0
6
CONTINUOUS
10
-0.000581
20
0.301902
30
0.0
11
-0.000180
21
0.300971
31
0.0
0
LINE
8
0
6
CONTINUOUS
10
-0.000180
20
0.300971
30
0.0
11
-0.000581
21
0.301902
31
0.0
0
LINE
8
0
6
CONTINUOUS
10
-0.004229
20
0.301282
30
0.0
11
-0.003632
21
0.300129
31
0.0
0
LINE
8
0
6
CONTINUOUS
10
0.006546
20
0.312667
30
0.0
11
0.006170
21
0.311860
31
0.0
0
LINE
8
0
6
CONTINUOUS
10
0.007805
20
0.313089
30
0.0
11
0.006546
21
0.312667
31
0.0
0
LINE
8
0
6
CONTINUOUS
10
0.016649
20
0.313125
30
0.0
11
0.017819
21
0.312635
31
0.0
0
LINE
8
0
6
CONTINUOUS
10
0.018036
20
0.311811
30
0.0
11
0.017819
21
0.312635
31
0.0
0
LINE
8
0
6
CONTINUOUS
10
0.017819
20
0.312635
30
0.0
11
0.016649
21
0.313125
31
0.0
0
LINE
8
0
6
CONTINUOUS
10
0.017819
20
0.312635
30
0.0
11
0.018036
21
0.311811
31
0.0
0
LINE
8
0
6
CONTINUOUS
10
0.017173
20
0.311136
30
0.0
11
0.018036
21
0.311811
31
0.0
0
LINE
8
0
6
CONTINUOUS
10
0.015736
20
0.311006
30
0.0
11
0.017173
21
0.311136
31
0.0
0
LINE
8
0
6
CONTINUOUS
10
0.007805
20
0.313089
30
0.0
11
0.010225
21
0.313399
31
0.0
0
LINE
8
0
6
CONTINUOUS
10
0.012409
20
0.313514
30
0.0
11
0.014607
21
0.313397
31
0.0
0
LINE
8
0
6
CONTINUOUS
10
0.008299
20
0.310930
30
0.0
11
0.010447
21
0.311248
31
0.0
0
LINE
8
0
6
CONTINUOUS
10
0.012364
20
0.311371
30
0.0
11
0.014129
21
0.311266
31
0.0
0
LINE
8
0
6
CONTINUOUS
10
0.010225
20
0.313399
30
0.0
11
0.007805
21
0.313089
31
0.0
0
LINE
8
0
6
CONTINUOUS
10
0.006896
20
0.311140
30
0.0
11
0.008299
21
0.310930
31
0.0
0
LINE
8
0
6
CONTINUOUS
10
0.006170
20
0.311860
30
0.0
11
0.006896
21
0.311140
31
0.0
0
LINE
8
0
6
CONTINUOUS
10
0.006546
20
0.312667
30
0.0
11
0.007805
21
0.313089
31
0.0
0
LINE
8
0
6
CONTINUOUS
10
0.006170
20
0.311860
30
0.0
11
0.006546
21
0.312667
31
0.0
0
LINE
8
0
6
CONTINUOUS
10
0.006164
20
0.312705
30
0.0
11
0.006170
21
0.311860
31
0.0
0
LINE
8
0
6
CONTINUOUS
10
0.014607
20
0.313397
30
0.0
11
0.012409
21
0.313514
31
0.0
0
LINE
8
0
6
CONTINUOUS
10
0.010225
20
0.313399
30
0.0
11
0.012409
21
0.313514
31
0.0
0
LINE
8
0
6
CONTINUOUS
10
0.010447
20
0.311248
30
0.0
11
0.012364
21
0.311371
31
0.0
0
LINE
8
0
6
CONTINUOUS
10
0.012409
20
0.313514
30
0.0
11
0.010225
21
0.313399
31
0.0
0
LINE
8
0
6
CONTINUOUS
10
0.014607
20
0.313397
30
0.0
11
0.016649
21
0.313125
31
0.0
0
LINE
8
0
6
CONTINUOUS
10
0.014129
20
0.311266
30
0.0
11
0.015736
21
0.311006
31
0.0
0
LINE
8
0
6
CONTINUOUS
10
0.016649
20
0.313125
30
0.0
11
0.014607
21
0.313397
31
0.0
0
LINE
8
0
6
CONTINUOUS
10
0.028369
20
0.302158
30
0.0
11
0.027341
21
0.302743
31
0.0
0
LINE
8
0
6
CONTINUOUS
10
0.028369
20
0.301324
30
0.0
11
0.028369
21
0.302158
31
0.0
0
LINE
8
0
6
CONTINUOUS
10
0.024254
20
0.300918
30
0.0
11
0.024861
21
0.302142
31
0.0
0
LINE
8
0
6
CONTINUOUS
10
0.021266
20
0.296866
30
0.0
11
0.022619
21
0.296568
31
0.0
0
LINE
8
0
6
CONTINUOUS
10
0.022619
20
0.296568
30
0.0
11
0.023951
21
0.296908
31
0.0
0
LINE
8
0
6
CONTINUOUS
10
0.020683
20
0.297628
30
0.0
11
0.021266
21
0.296866
31
0.0
0
LINE
8
0
6
CONTINUOUS
10
0.021213
20
0.298407
30
0.0
11
0.020683
21
0.297628
31
0.0
0
LINE
8
0
6
CONTINUOUS
10
0.022420
20
0.299078
30
0.0
11
0.023470
21
0.299904
31
0.0
0
LINE
8
0
6
CONTINUOUS
10
0.020683
20
0.297628
30
0.0
11
0.021213
21
0.298407
31
0.0
0
LINE
8
0
6
CONTINUOUS
10
0.020678
20
0.298415
30
0.0
11
0.020683
21
0.297628
31
0.0
0
LINE
8
0
6
CONTINUOUS
10
0.024861
20
0.302142
30
0.0
11
0.024254
21
0.300918
31
0.0
0
LINE
8
0
6
CONTINUOUS
10
0.024861
20
0.302142
30
0.0
11
0.025888
21
0.302737
31
0.0
0
LINE
8
0
6
CONTINUOUS
10
0.023470
20
0.299904
30
0.0
11
0.022420
21
0.299078
31
0.0
0
LINE
8
0
6
CONTINUOUS
10
0.027613
20
0.299968
30
0.0
11
0.028369
21
0.301324
31
0.0
0
LINE
8
0
6
CONTINUOUS
10
0.025888
20
0.302737
30
0.0
11
0.027341
21
0.302743
31
0.0
0
LINE
8
0
6
CONTINUOUS
10
0.025888
20
0.302737
30
0.0
11
0.024861
21
0.302142
31
0.0
0
LINE
8
0
6
CONTINUOUS
10
0.027341
20
0.302743
30
0.0
11
0.025888
21
0.302737
31
0.0
0
LINE
8
0
6
CONTINUOUS
10
0.027341
20
0.302743
30
0.0
11
0.028369
21
0.302158
31
0.0
0
LINE
8
0
6
CONTINUOUS
10
0.025395
20
0.297789
30
0.0
11
0.026683
21
0.298825
31
0.0
0
LINE
8
0
6
CONTINUOUS
10
0.023470
20
0.299904
30
0.0
11
0.024254
21
0.300918
31
0.0
0
LINE
8
0
6
CONTINUOUS
10
0.024254
20
0.300918
30
0.0
11
0.023470
21
0.299904
31
0.0
0
LINE
8
0
6
CONTINUOUS
10
0.026683
20
0.298825
30
0.0
11
0.027613
21
0.299968
31
0.0
0
LINE
8
0
6
CONTINUOUS
10
0.021213
20
0.298407
30
0.0
11
0.022420
21
0.299078
31
0.0
0
LINE
8
0
6
CONTINUOUS
10
0.013801
20
0.303350
30
0.0
11
0.013568
21
0.302602
31
0.0
0
LINE
8
0
6
CONTINUOUS
10
0.015045
20
0.303613
30
0.0
11
0.013801
21
0.303350
31
0.0
0
LINE
8
0
6
CONTINUOUS
10
0.016056
20
0.303128
30
0.0
11
0.015045
21
0.303613
31
0.0
0
LINE
8
0
6
CONTINUOUS
10
0.015823
20
0.302380
30
0.0
11
0.016056
21
0.303128
31
0.0
0
LINE
8
0
6
CONTINUOUS
10
0.014579
20
0.302117
30
0.0
11
0.015823
21
0.302380
31
0.0
0
LINE
8
0
6
CONTINUOUS
10
0.013568
20
0.302602
30
0.0
11
0.014579
21
0.302117
31
0.0
0
LINE
8
0
6
CONTINUOUS
10
0.022420
20
0.299078
30
0.0
11
0.021213
21
0.298407
31
0.0
0
LINE
8
0
6
CONTINUOUS
10
0.023951
20
0.296908
30
0.0
11
0.025395
21
0.297789
31
0.0
0
LINE
8
0
6
CONTINUOUS
10
0.000742
20
0.184848
30
0.0
11
0.000819
21
0.183617
31
0.0
0
LINE
8
0
6
CONTINUOUS
10
0.022474
20
0.163708
30
0.0
11
0.023804
21
0.184913
31
0.0
0
LINE
8
0
6
CONTINUOUS
10
0.020073
20
0.160034
30
0.0
11
0.021119
21
0.160727
31
0.0
0
LINE
8
0
6
CONTINUOUS
10
0.021119
20
0.160727
30
0.0
11
0.022119
21
0.161961
31
0.0
0
LINE
8
0
6
CONTINUOUS
10
0.022448
20
0.163284
30
0.0
11
0.022474
21
0.163708
31
0.0
0
LINE
8
0
6
CONTINUOUS
10
0.022119
20
0.161961
30
0.0
11
0.022448
21
0.163284
31
0.0
0
LINE
8
0
6
CONTINUOUS
10
0.025119
20
0.279470
30
0.0
11
0.025134
21
0.282428
31
0.0
0
LINE
8
0
6
CONTINUOUS
10
0.026713
20
0.276667
30
0.0
11
0.026712
21
0.276986
31
0.0
0
LINE
8
0
6
CONTINUOUS
10
0.026919
20
0.187727
30
0.0
11
0.026917
21
0.188346
31
0.0
0
LINE
8
0
6
CONTINUOUS
10
0.026398
20
0.186075
30
0.0
11
0.026919
21
0.187727
31
0.0
0
LINE
8
0
6
CONTINUOUS
10
0.023925
20
0.184941
30
0.0
11
0.026398
21
0.186075
31
0.0
0
LINE
8
0
6
CONTINUOUS
10
0.020247
20
0.184084
30
0.0
11
0.023427
21
0.184825
31
0.0
0
LINE
8
0
6
CONTINUOUS
10
0.012320
20
0.183355
30
0.0
11
0.016358
21
0.183527
31
0.0
0
LINE
8
0
6
CONTINUOUS
10
0.016358
20
0.183527
30
0.0
11
0.020247
21
0.184084
31
0.0
0
LINE
8
0
6
CONTINUOUS
10
0.026712
20
0.276986
30
0.0
11
0.026710
21
0.277989
31
0.0
0
LINE
8
0
6
CONTINUOUS
10
0.025117
20
0.279123
30
0.0
11
0.025119
21
0.279470
31
0.0
0
LINE
8
0
6
CONTINUOUS
10
0.026710
20
0.277989
30
0.0
11
0.026677
21
0.278585
31
0.0
0
LINE
8
0
6
CONTINUOUS
10
0.026677
20
0.278585
30
0.0
11
0.026447
21
0.282696
31
0.0
0
LINE
8
0
6
CONTINUOUS
10
0.023427
20
0.184825
30
0.0
11
0.023925
21
0.184941
31
0.0
0
LINE
8
0
6
CONTINUOUS
10
0.026917
20
0.188346
30
0.0
11
0.026713
21
0.276667
31
0.0
0
LINE
8
0
6
CONTINUOUS
10
-0.000908
20
0.282359
30
0.0
11
-0.000884
21
0.279379
31
0.0
0
LINE
8
0
6
CONTINUOUS
10
-0.002465
20
0.276883
30
0.0
11
-0.002465
21
0.276564
31
0.0
0
LINE
8
0
6
CONTINUOUS
10
-0.002343
20
0.187624
30
0.0
11
-0.001798
21
0.185976
31
0.0
0
LINE
8
0
6
CONTINUOUS
10
-0.002344
20
0.188243
30
0.0
11
-0.002343
21
0.187624
31
0.0
0
LINE
8
0
6
CONTINUOUS
10
-0.001798
20
0.185976
30
0.0
11
0.000692
21
0.184859
31
0.0
0
LINE
8
0
6
CONTINUOUS
10
0.001192
20
0.184747
30
0.0
11
0.004382
21
0.184028
31
0.0
0
LINE
8
0
6
CONTINUOUS
10
0.008280
20
0.183498
30
0.0
11
0.012320
21
0.183355
31
0.0
0
LINE
8
0
6
CONTINUOUS
10
0.004382
20
0.184028
30
0.0
11
0.008280
21
0.183498
31
0.0
0
LINE
8
0
6
CONTINUOUS
10
-0.002466
20
0.277886
30
0.0
11
-0.002465
21
0.276883
31
0.0
0
LINE
8
0
6
CONTINUOUS
10
-0.000884
20
0.279379
30
0.0
11
-0.000881
21
0.279031
31
0.0
0
LINE
8
0
6
CONTINUOUS
10
-0.002439
20
0.278482
30
0.0
11
-0.002466
21
0.277886
31
0.0
0
LINE
8
0
6
CONTINUOUS
10
-0.002250
20
0.282622
30
0.0
11
-0.002439
21
0.278482
31
0.0
0
LINE
8
0
6
CONTINUOUS
10
0.000692
20
0.184859
30
0.0
11
0.001192
21
0.184747
31
0.0
0
LINE
8
0
6
CONTINUOUS
10
-0.002465
20
0.276564
30
0.0
11
-0.002344
21
0.188243
31
0.0
0
LINE
8
0
6
CONTINUOUS
10
0.031455
20
0.329744
30
0.0
11
0.039894
21
0.326730
31
0.0
0
LINE
8
0
6
CONTINUOUS
10
0.022047
20
0.331600
30
0.0
11
0.031455
21
0.329744
31
0.0
0
LINE
8
0
6
CONTINUOUS
10
0.012142
20
0.332288
30
0.0
11
0.022047
21
0.331600
31
0.0
0
LINE
8
0
6
CONTINUOUS
10
0.002239
20
0.331531
30
0.0
11
0.012142
21
0.332288
31
0.0
0
LINE
8
0
6
CONTINUOUS
10
-0.007224
20
0.329766
30
0.0
11
0.002239
21
0.331531
31
0.0
0
LINE
8
0
6
CONTINUOUS
10
-0.027951
20
0.317603
30
0.0
11
-0.022651
21
0.322465
31
0.0
0
LINE
8
0
6
CONTINUOUS
10
-0.031241
20
0.312193
30
0.0
11
-0.027951
21
0.317603
31
0.0
0
LINE
8
0
6
CONTINUOUS
10
-0.032355
20
0.306505
30
0.0
11
-0.031241
21
0.312193
31
0.0
0
LINE
8
0
6
CONTINUOUS
10
0.056657
20
0.306819
30
0.0
11
0.055606
21
0.301166
31
0.0
0
LINE
8
0
6
CONTINUOUS
10
-0.037680
20
0.319866
30
0.0
11
-0.037907
21
0.314286
31
0.0
0
LINE
8
0
6
CONTINUOUS
10
0.061386
20
0.322902
30
0.0
11
0.060147
21
0.329196
31
0.0
0
LINE
8
0
6
CONTINUOUS
10
0.061847
20
0.320216
30
0.0
11
0.061386
21
0.322902
31
0.0
0
LINE
8
0
6
CONTINUOUS
10
0.059518
20
0.331796
30
0.0
11
0.058691
21
0.334337
31
0.0
0
LINE
8
0
6
CONTINUOUS
10
0.041256
20
0.351160
30
0.0
11
0.041197
21
0.351188
31
0.0
0
LINE
8
0
6
CONTINUOUS
10
0.040771
20
0.351348
30
0.0
11
0.032028
21
0.354470
31
0.0
0
LINE
8
0
6
CONTINUOUS
10
0.041197
20
0.351188
30
0.0
11
0.040771
21
0.351348
31
0.0
0
LINE
8
0
6
CONTINUOUS
10
0.031882
20
0.354501
30
0.0
11
0.022206
21
0.356410
31
0.0
0
LINE
8
0
6
CONTINUOUS
10
0.032028
20
0.354470
30
0.0
11
0.031882
21
0.354501
31
0.0
0
LINE
8
0
6
CONTINUOUS
10
0.022206
20
0.356410
30
0.0
11
0.012020
21
0.357033
31
0.0
0
LINE
8
0
6
CONTINUOUS
10
0.012020
20
0.357033
30
0.0
11
0.001834
21
0.356338
31
0.0
0
LINE
8
0
6
CONTINUOUS
10
0.001834
20
0.356338
30
0.0
11
-0.007840
21
0.354361
31
0.0
0
LINE
8
0
6
CONTINUOUS
10
-0.007840
20
0.354361
30
0.0
11
-0.007984
21
0.354329
31
0.0
0
LINE
8
0
6
CONTINUOUS
10
-0.017147
20
0.350982
30
0.0
11
-0.017205
21
0.350954
31
0.0
0
LINE
8
0
6
CONTINUOUS
10
-0.007984
20
0.354329
30
0.0
11
-0.016726
21
0.351145
31
0.0
0
LINE
8
0
6
CONTINUOUS
10
-0.016726
20
0.351145
30
0.0
11
-0.017147
21
0.350982
31
0.0
0
LINE
8
0
6
CONTINUOUS
10
-0.034611
20
0.334008
30
0.0
11
-0.035410
21
0.331461
31
0.0
0
LINE
8
0
6
CONTINUOUS
10
-0.036013
20
0.328857
30
0.0
11
-0.037247
21
0.322555
31
0.0
0
LINE
8
0
6
CONTINUOUS
10
-0.037247
20
0.322555
30
0.0
11
-0.037680
21
0.319866
31
0.0
0
LINE
8
0
6
CONTINUOUS
10
0.062130
20
0.314638
30
0.0
11
0.061847
21
0.320216
31
0.0
0
LINE
8
0
6
CONTINUOUS
10
0.060147
20
0.329196
30
0.0
11
0.059518
21
0.331796
31
0.0
0
LINE
8
0
6
CONTINUOUS
10
-0.035410
20
0.331461
30
0.0
11
-0.036013
21
0.328857
31
0.0
0
LINE
8
0
6
CONTINUOUS
10
0.062131
20
0.314438
30
0.0
11
0.062130
21
0.314638
31
0.0
0
LINE
8
0
6
CONTINUOUS
10
-0.037907
20
0.314286
30
0.0
11
-0.037906
21
0.314085
31
0.0
0
LINE
8
0
6
CONTINUOUS
10
0.062137
20
0.313347
30
0.0
11
0.062133
21
0.314156
31
0.0
0
LINE
8
0
6
CONTINUOUS
10
-0.037905
20
0.313803
30
0.0
11
-0.037901
21
0.312995
31
0.0
0
LINE
8
0
6
CONTINUOUS
10
0.055603
20
0.312548
30
0.0
11
0.056657
21
0.306819
31
0.0
0
LINE
8
0
6
CONTINUOUS
10
0.056282
20
0.301565
30
0.0
11
0.052936
21
0.296062
31
0.0
0
LINE
8
0
6
CONTINUOUS
10
-0.015696
20
0.286647
30
0.0
11
-0.016068
21
0.286780
31
0.0
0
LINE
8
0
6
CONTINUOUS
10
-0.008298
20
0.283902
30
0.0
11
-0.007484
21
0.283715
31
0.0
0
LINE
8
0
6
CONTINUOUS
10
-0.017235
20
0.287093
30
0.0
11
-0.008298
21
0.283902
31
0.0
0
LINE
8
0
6
CONTINUOUS
10
-0.032514
20
0.298993
30
0.0
11
-0.031515
21
0.297406
31
0.0
0
LINE
8
0
6
CONTINUOUS
10
-0.036181
20
0.304990
30
0.0
11
-0.032514
21
0.298993
31
0.0
0
LINE
8
0
6
CONTINUOUS
10
-0.025740
20
0.292154
30
0.0
11
-0.024699
21
0.291349
31
0.0
0
LINE
8
0
6
CONTINUOUS
10
-0.031515
20
0.297406
30
0.0
11
-0.025740
21
0.292154
31
0.0
0
LINE
8
0
6
CONTINUOUS
10
0.050024
20
0.292421
30
0.0
11
0.055795
21
0.297713
31
0.0
0
LINE
8
0
6
CONTINUOUS
10
0.048996
20
0.291609
30
0.0
11
0.050024
21
0.292421
31
0.0
0
LINE
8
0
6
CONTINUOUS
10
0.056776
20
0.299307
30
0.0
11
0.060439
21
0.305331
31
0.0
0
LINE
8
0
6
CONTINUOUS
10
0.055795
20
0.297713
30
0.0
11
0.056776
21
0.299307
31
0.0
0
LINE
8
0
6
CONTINUOUS
10
-0.036644
20
0.306611
30
0.0
11
-0.036181
21
0.304990
31
0.0
0
LINE
8
0
6
CONTINUOUS
10
-0.037901
20
0.312995
30
0.0
11
-0.036644
21
0.306611
31
0.0
0
LINE
8
0
6
CONTINUOUS
10
-0.019080
20
0.336415
30
0.0
11
-0.026999
21
0.331842
31
0.0
0
LINE
8
0
6
CONTINUOUS
10
0.057175
20
0.326696
30
0.0
11
0.051214
21
0.332117
31
0.0
0
LINE
8
0
6
CONTINUOUS
10
0.023234
20
0.342107
30
0.0
11
0.012104
21
0.342788
31
0.0
0
LINE
8
0
6
CONTINUOUS
10
0.033807
20
0.340021
30
0.0
11
0.023234
21
0.342107
31
0.0
0
LINE
8
0
6
CONTINUOUS
10
-0.009598
20
0.339868
30
0.0
11
-0.019080
21
0.336415
31
0.0
0
LINE
8
0
6
CONTINUOUS
10
-0.037905
20
0.313905
30
0.0
11
-0.037905
21
0.313803
31
0.0
0
LINE
8
0
6
CONTINUOUS
10
-0.036653
20
0.320298
30
0.0
11
-0.037905
21
0.313905
31
0.0
0
LINE
8
0
6
CONTINUOUS
10
0.060876
20
0.320641
30
0.0
11
0.057175
21
0.326696
31
0.0
0
LINE
8
0
6
CONTINUOUS
10
0.062132
20
0.314258
30
0.0
11
0.060876
21
0.320641
31
0.0
0
LINE
8
0
6
CONTINUOUS
10
0.062133
20
0.314156
30
0.0
11
0.062132
21
0.314258
31
0.0
0
LINE
8
0
6
CONTINUOUS
10
0.043292
20
0.336635
30
0.0
11
0.033807
21
0.340021
31
0.0
0
LINE
8
0
6
CONTINUOUS
10
0.000974
20
0.342029
30
0.0
11
-0.009598
21
0.339868
31
0.0
0
LINE
8
0
6
CONTINUOUS
10
-0.032956
20
0.326378
30
0.0
11
-0.036653
21
0.320298
31
0.0
0
LINE
8
0
6
CONTINUOUS
10
0.051214
20
0.332117
30
0.0
11
0.043292
21
0.336635
31
0.0
0
LINE
8
0
6
CONTINUOUS
10
0.012104
20
0.342788
30
0.0
11
0.000974
21
0.342029
31
0.0
0
LINE
8
0
6
CONTINUOUS
10
-0.026999
20
0.331842
30
0.0
11
-0.032956
21
0.326378
31
0.0
0
LINE
8
0
6
CONTINUOUS
10
-0.037906
20
0.314085
30
0.0
11
-0.037888
21
0.313993
31
0.0
0
LINE
8
0
6
CONTINUOUS
10
0.062114
20
0.314350
30
0.0
11
0.062131
21
0.314438
31
0.0
0
LINE
8
0
6
CONTINUOUS
10
0.054267
20
0.341845
30
0.0
11
0.048680
21
0.346926
31
0.0
0
LINE
8
0
6
CONTINUOUS
10
0.054708
20
0.341141
30
0.0
11
0.054267
21
0.341845
31
0.0
0
LINE
8
0
6
CONTINUOUS
10
0.048680
20
0.346926
30
0.0
11
0.041256
21
0.351160
31
0.0
0
LINE
8
0
6
CONTINUOUS
10
-0.017205
20
0.350954
30
0.0
11
-0.024627
21
0.346668
31
0.0
0
LINE
8
0
6
CONTINUOUS
10
-0.024627
20
0.346668
30
0.0
11
-0.030210
21
0.341547
31
0.0
0
LINE
8
0
6
CONTINUOUS
10
-0.030210
20
0.341547
30
0.0
11
-0.030643
21
0.340840
31
0.0
0
LINE
8
0
6
CONTINUOUS
10
-0.030643
20
0.340840
30
0.0
11
-0.034144
21
0.335083
31
0.0
0
LINE
8
0
6
CONTINUOUS
10
-0.034144
20
0.335083
30
0.0
11
-0.034611
21
0.334008
31
0.0
0
LINE
8
0
6
CONTINUOUS
10
0.058213
20
0.335408
30
0.0
11
0.054708
21
0.341141
31
0.0
0
LINE
8
0
6
CONTINUOUS
10
0.058691
20
0.334337
30
0.0
11
0.058213
21
0.335408
31
0.0
0
LINE
8
0
6
CONTINUOUS
10
0.052929
20
0.318606
30
0.0
11
0.047534
21
0.323512
31
0.0
0
LINE
8
0
6
CONTINUOUS
10
-0.023248
20
0.323263
30
0.0
11
-0.028639
21
0.318318
31
0.0
0
LINE
8
0
6
CONTINUOUS
10
-0.028632
20
0.295775
30
0.0
11
-0.023237
21
0.290868
31
0.0
0
LINE
8
0
6
CONTINUOUS
10
0.040016
20
0.286847
30
0.0
11
0.040379
21
0.286979
31
0.0
0
LINE
8
0
6
CONTINUOUS
10
0.040379
20
0.286979
30
0.0
11
0.047545
21
0.291117
31
0.0
0
LINE
8
0
6
CONTINUOUS
10
0.046994
20
0.322772
30
0.0
11
0.052305
21
0.317942
31
0.0
0
LINE
8
0
6
CONTINUOUS
10
0.039894
20
0.326730
30
0.0
11
0.046994
21
0.322772
31
0.0
0
LINE
8
0
6
CONTINUOUS
10
-0.015605
20
0.326534
30
0.0
11
-0.007224
21
0.329766
31
0.0
0
LINE
8
0
6
CONTINUOUS
10
-0.022651
20
0.322465
30
0.0
11
-0.015605
21
0.326534
31
0.0
0
LINE
8
0
6
CONTINUOUS
10
0.040379
20
0.286979
30
0.0
11
0.040016
21
0.286847
31
0.0
0
LINE
8
0
6
CONTINUOUS
10
0.032600
20
0.284046
30
0.0
11
0.041535
21
0.287300
31
0.0
0
LINE
8
0
6
CONTINUOUS
10
0.031797
20
0.283853
30
0.0
11
0.032600
21
0.284046
31
0.0
0
LINE
8
0
6
CONTINUOUS
10
0.040365
20
0.327601
30
0.0
11
0.047534
21
0.323512
31
0.0
0
LINE
8
0
6
CONTINUOUS
10
-0.028632
20
0.295775
30
0.0
11
-0.031971
21
0.301237
31
0.0
0
LINE
8
0
6
CONTINUOUS
10
-0.028639
20
0.318318
30
0.0
11
-0.023248
21
0.323263
31
0.0
0
LINE
8
0
6
CONTINUOUS
10
0.002067
20
0.332482
30
0.0
11
0.012140
21
0.333169
31
0.0
0
LINE
8
0
6
CONTINUOUS
10
0.047545
20
0.291117
30
0.0
11
0.040379
21
0.286979
31
0.0
0
LINE
8
0
6
CONTINUOUS
10
0.041535
20
0.287300
30
0.0
11
0.048996
21
0.291609
31
0.0
0
LINE
8
0
6
CONTINUOUS
10
-0.023237
20
0.290868
30
0.0
11
-0.028632
21
0.295775
31
0.0
0
LINE
8
0
6
CONTINUOUS
10
-0.007500
20
0.330527
30
0.0
11
0.002067
21
0.332482
31
0.0
0
LINE
8
0
6
CONTINUOUS
10
0.031781
20
0.330665
30
0.0
11
0.040365
21
0.327601
31
0.0
0
LINE
8
0
6
CONTINUOUS
10
0.056278
20
0.313126
30
0.0
11
0.057415
21
0.307350
31
0.0
0
LINE
8
0
6
CONTINUOUS
10
-0.031985
20
0.312815
30
0.0
11
-0.028639
21
0.318318
31
0.0
0
LINE
8
0
6
CONTINUOUS
10
0.052936
20
0.296062
30
0.0
11
0.047545
21
0.291117
31
0.0
0
LINE
8
0
6
CONTINUOUS
10
-0.016068
20
0.286780
30
0.0
11
-0.023237
21
0.290868
31
0.0
0
LINE
8
0
6
CONTINUOUS
10
-0.024699
20
0.291349
30
0.0
11
-0.017235
21
0.287093
31
0.0
0
LINE
8
0
6
CONTINUOUS
10
-0.033118
20
0.307031
30
0.0
11
-0.031985
21
0.312815
31
0.0
0
LINE
8
0
6
CONTINUOUS
10
-0.016082
20
0.327402
30
0.0
11
-0.007500
21
0.330527
31
0.0
0
LINE
8
0
6
CONTINUOUS
10
0.022213
20
0.332553
30
0.0
11
0.031781
21
0.330665
31
0.0
0
LINE
8
0
6
CONTINUOUS
10
0.052929
20
0.318606
30
0.0
11
0.056278
21
0.313126
31
0.0
0
LINE
8
0
6
CONTINUOUS
10
-0.031981
20
0.301254
30
0.0
11
-0.033118
21
0.307031
31
0.0
0
LINE
8
0
6
CONTINUOUS
10
-0.023248
20
0.323263
30
0.0
11
-0.016082
21
0.327402
31
0.0
0
LINE
8
0
6
CONTINUOUS
10
0.012140
20
0.333169
30
0.0
11
0.022213
21
0.332553
31
0.0
0
LINE
8
0
6
CONTINUOUS
10
0.047534
20
0.323512
30
0.0
11
0.052929
21
0.318606
31
0.0
0
LINE
8
0
6
CONTINUOUS
10
0.056278
20
0.313126
30
0.0
11
0.052929
21
0.318606
31
0.0
0
LINE
8
0
6
CONTINUOUS
10
-0.028639
20
0.318318
30
0.0
11
-0.031985
21
0.312815
31
0.0
0
LINE
8
0
6
CONTINUOUS
10
-0.031985
20
0.312815
30
0.0
11
-0.033118
21
0.307031
31
0.0
0
LINE
8
0
6
CONTINUOUS
10
-0.033118
20
0.307031
30
0.0
11
-0.031981
21
0.301254
31
0.0
0
LINE
8
0
6
CONTINUOUS
10
-0.031981
20
0.301254
30
0.0
11
-0.028632
21
0.295775
31
0.0
0
LINE
8
0
6
CONTINUOUS
10
-0.023237
20
0.290868
30
0.0
11
-0.016068
21
0.286780
31
0.0
0
LINE
8
0
6
CONTINUOUS
10
-0.016068
20
0.286780
30
0.0
11
-0.015696
21
0.286647
31
0.0
0
LINE
8
0
6
CONTINUOUS
10
0.047545
20
0.291117
30
0.0
11
0.052936
21
0.296062
31
0.0
0
LINE
8
0
6
CONTINUOUS
10
0.052936
20
0.296062
30
0.0
11
0.056282
21
0.301565
31
0.0
0
LINE
8
0
6
CONTINUOUS
10
0.056282
20
0.301565
30
0.0
11
0.057415
21
0.307350
31
0.0
0
LINE
8
0
6
CONTINUOUS
10
0.057415
20
0.307350
30
0.0
11
0.056282
21
0.301565
31
0.0
0
LINE
8
0
6
CONTINUOUS
10
0.057415
20
0.307350
30
0.0
11
0.056278
21
0.313126
31
0.0
0
LINE
8
0
6
CONTINUOUS
10
0.060439
20
0.305331
30
0.0
11
0.060885
21
0.306955
31
0.0
0
LINE
8
0
6
CONTINUOUS
10
0.060885
20
0.306955
30
0.0
11
0.062137
21
0.313347
31
0.0
0
LINE
8
0
6
CONTINUOUS
10
0.052305
20
0.317942
30
0.0
11
0.055603
21
0.312548
31
0.0
0
LINE
8
0
6
CONTINUOUS
10
0.014716
20
0.275713
30
0.0
11
0.014715
21
0.276326
31
0.0
0
LINE
8
0
6
CONTINUOUS
10
0.009626
20
0.273325
30
0.0
11
0.009634
21
0.271324
31
0.0
0
LINE
8
0
6
CONTINUOUS
10
0.009609
20
0.277536
30
0.0
11
0.009626
21
0.273325
31
0.0
0
LINE
8
0
6
CONTINUOUS
10
0.009596
20
0.281286
30
0.0
11
0.009609
21
0.277536
31
0.0
0
LINE
8
0
6
CONTINUOUS
10
0.009635
20
0.271186
30
0.0
11
0.009879
21
0.269429
31
0.0
0
LINE
8
0
6
CONTINUOUS
10
0.014717
20
0.271885
30
0.0
11
0.014716
21
0.275713
31
0.0
0
LINE
8
0
6
CONTINUOUS
10
0.014717
20
0.271204
30
0.0
11
0.014717
21
0.271885
31
0.0
0
LINE
8
0
6
CONTINUOUS
10
0.014488
20
0.269445
30
0.0
11
0.014717
21
0.271204
31
0.0
0
LINE
8
0
6
CONTINUOUS
10
0.009879
20
0.269429
30
0.0
11
0.011060
21
0.268719
31
0.0
0
LINE
8
0
6
CONTINUOUS
10
0.011060
20
0.268719
30
0.0
11
0.012187
21
0.268472
31
0.0
0
LINE
8
0
6
CONTINUOUS
10
0.012187
20
0.268472
30
0.0
11
0.013434
21
0.268727
31
0.0
0
LINE
8
0
6
CONTINUOUS
10
0.013434
20
0.268727
30
0.0
11
0.014488
21
0.269445
31
0.0
0
LINE
8
0
6
CONTINUOUS
10
0.014715
20
0.276492
30
0.0
11
0.014706
21
0.278898
31
0.0
0
LINE
8
0
6
CONTINUOUS
10
0.014706
20
0.278898
30
0.0
11
0.014702
21
0.280097
31
0.0
0
LINE
8
0
6
CONTINUOUS
10
0.014702
20
0.280097
30
0.0
11
0.014698
21
0.281247
31
0.0
0
LINE
8
0
6
CONTINUOUS
10
0.014715
20
0.276326
30
0.0
11
0.014715
21
0.276492
31
0.0
0
LINE
8
0
6
CONTINUOUS
10
0.014698
20
0.281247
30
0.0
11
0.014698
21
0.281300
31
0.0
0
LINE
8
0
6
CONTINUOUS
10
0.055603
20
0.312548
30
0.0
11
0.052305
21
0.317942
31
0.0
0
LINE
8
0
6
CONTINUOUS
10
0.039894
20
0.326730
30
0.0
11
0.031455
21
0.329744
31
0.0
0
LINE
8
0
6
CONTINUOUS
10
0.031455
20
0.329744
30
0.0
11
0.022047
21
0.331600
31
0.0
0
LINE
8
0
6
CONTINUOUS
10
0.022047
20
0.331600
30
0.0
11
0.012142
21
0.332288
31
0.0
0
LINE
8
0
6
CONTINUOUS
10
0.012142
20
0.332288
30
0.0
11
0.002239
21
0.331531
31
0.0
0
LINE
8
0
6
CONTINUOUS
10
0.002239
20
0.331531
30
0.0
11
-0.007224
21
0.329766
31
0.0
0
LINE
8
0
6
CONTINUOUS
10
-0.022651
20
0.322465
30
0.0
11
-0.027951
21
0.317603
31
0.0
0
LINE
8
0
6
CONTINUOUS
10
-0.027951
20
0.317603
30
0.0
11
-0.031241
21
0.312193
31
0.0
0
LINE
8
0
6
CONTINUOUS
10
-0.031241
20
0.312193
30
0.0
11
-0.032355
21
0.306505
31
0.0
0
LINE
8
0
6
CONTINUOUS
10
-0.022741
20
0.290658
30
0.0
11
-0.015634
21
0.286611
31
0.0
0
LINE
8
0
6
CONTINUOUS
10
-0.015634
20
0.286611
30
0.0
11
-0.007184
21
0.283592
31
0.0
0
LINE
8
0
6
CONTINUOUS
10
-0.007184
20
0.283592
30
0.0
11
0.002227
21
0.281742
31
0.0
0
LINE
8
0
6
CONTINUOUS
10
0.002227
20
0.281742
30
0.0
11
0.012160
21
0.281127
31
0.0
0
LINE
8
0
6
CONTINUOUS
10
0.012160
20
0.281127
30
0.0
11
0.022071
21
0.281803
31
0.0
0
LINE
8
0
6
CONTINUOUS
10
0.022071
20
0.281803
30
0.0
11
0.031494
21
0.283727
31
0.0
0
LINE
8
0
6
CONTINUOUS
10
-0.015605
20
0.326534
30
0.0
11
-0.022651
21
0.322465
31
0.0
0
LINE
8
0
6
CONTINUOUS
10
0.056657
20
0.306819
30
0.0
11
0.055603
21
0.312548
31
0.0
0
LINE
8
0
6
CONTINUOUS
10
0.052305
20
0.317942
30
0.0
11
0.046994
21
0.322772
31
0.0
0
LINE
8
0
6
CONTINUOUS
10
0.046994
20
0.322772
30
0.0
11
0.039894
21
0.326730
31
0.0
0
LINE
8
0
6
CONTINUOUS
10
-0.032355
20
0.306505
30
0.0
11
-0.031364
21
0.300899
31
0.0
0
LINE
8
0
6
CONTINUOUS
10
-0.031364
20
0.300899
30
0.0
11
-0.028061
21
0.295496
31
0.0
0
LINE
8
0
6
CONTINUOUS
10
-0.028061
20
0.295496
30
0.0
11
-0.022741
21
0.290658
31
0.0
0
LINE
8
0
6
CONTINUOUS
10
0.031494
20
0.283727
30
0.0
11
0.039944
21
0.286805
31
0.0
0
LINE
8
0
6
CONTINUOUS
10
0.039944
20
0.286805
30
0.0
11
0.047054
21
0.290904
31
0.0
0
LINE
8
0
6
CONTINUOUS
10
0.047054
20
0.290904
30
0.0
11
0.052311
21
0.295748
31
0.0
0
LINE
8
0
6
CONTINUOUS
10
0.052311
20
0.295748
30
0.0
11
0.055606
21
0.301166
31
0.0
0
LINE
8
0
6
CONTINUOUS
10
0.055606
20
0.301166
30
0.0
11
0.056657
21
0.306819
31
0.0
0
LINE
8
0
6
CONTINUOUS
10
-0.007224
20
0.329766
30
0.0
11
-0.015605
21
0.326534
31
0.0
0
LINE
8
0
6
CONTINUOUS
10
-0.009638
20
0.187438
30
0.0
11
-0.009313
21
0.187505
31
0.0
0
LINE
8
0
6
CONTINUOUS
10
0.002412
20
0.180386
30
0.0
11
0.001761
21
0.181577
31
0.0
0
LINE
8
0
6
CONTINUOUS
10
0.012583
20
0.174834
30
0.0
11
0.015262
21
0.175226
31
0.0
0
LINE
8
0
6
CONTINUOUS
10
0.041858
20
0.309150
30
0.0
11
0.043102
21
0.309478
31
0.0
0
LINE
8
0
6
CONTINUOUS
10
0.043102
20
0.309478
30
0.0
11
0.044112
21
0.309039
31
0.0
0
LINE
8
0
6
CONTINUOUS
10
0.036716
20
0.307469
30
0.0
11
0.038164
21
0.307870
31
0.0
0
LINE
8
0
6
CONTINUOUS
10
0.038164
20
0.307870
30
0.0
11
0.038741
21
0.307625
31
0.0
0
LINE
8
0
6
CONTINUOUS
10
0.031260
20
0.304221
30
0.0
11
0.032708
21
0.304614
31
0.0
0
LINE
8
0
6
CONTINUOUS
10
0.032708
20
0.304614
30
0.0
11
0.033884
21
0.304130
31
0.0
0
LINE
8
0
6
CONTINUOUS
10
0.046650
20
0.299478
30
0.0
11
0.046746
21
0.299438
31
0.0
0
LINE
8
0
6
CONTINUOUS
10
0.046746
20
0.299438
30
0.0
11
0.047660
21
0.299076
31
0.0
0
LINE
8
0
6
CONTINUOUS
10
0.040309
20
0.293124
30
0.0
11
0.040882
21
0.292887
31
0.0
0
LINE
8
0
6
CONTINUOUS
10
0.040882
20
0.292887
30
0.0
11
0.041319
21
0.292715
31
0.0
0
LINE
8
0
6
CONTINUOUS
10
0.039066
20
0.292831
30
0.0
11
0.038832
21
0.292122
31
0.0
0
LINE
8
0
6
CONTINUOUS
10
0.031290
20
0.288100
30
0.0
11
0.031636
21
0.287965
31
0.0
0
LINE
8
0
6
CONTINUOUS
10
0.029382
20
0.288100
30
0.0
11
0.029148
21
0.287403
31
0.0
0
LINE
8
0
6
CONTINUOUS
10
0.017431
20
0.285618
30
0.0
11
0.018675
21
0.285864
31
0.0
0
LINE
8
0
6
CONTINUOUS
10
0.017431
20
0.285618
30
0.0
11
0.017263
21
0.285128
31
0.0
0
LINE
8
0
6
CONTINUOUS
10
0.017263
20
0.285128
30
0.0
11
0.017197
21
0.284944
31
0.0
0
LINE
8
0
6
CONTINUOUS
10
0.004751
20
0.285589
30
0.0
11
0.004631
21
0.285241
31
0.0
0
LINE
8
0
6
CONTINUOUS
10
0.004631
20
0.285241
30
0.0
11
0.004517
21
0.284924
31
0.0
0
LINE
8
0
6
CONTINUOUS
10
-0.007184
20
0.288042
30
0.0
11
-0.005953
21
0.288248
31
0.0
0
LINE
8
0
6
CONTINUOUS
10
-0.007198
20
0.288037
30
0.0
11
-0.007432
21
0.287382
31
0.0
0
LINE
8
0
6
CONTINUOUS
10
-0.016999
20
0.292382
30
0.0
11
-0.017110
21
0.292065
31
0.0
0
LINE
8
0
6
CONTINUOUS
10
-0.022415
20
0.299168
30
0.0
11
-0.021966
21
0.299238
31
0.0
0
LINE
8
0
6
CONTINUOUS
10
-0.023211
20
0.299056
30
0.0
11
-0.022415
21
0.299168
31
0.0
0
LINE
8
0
6
CONTINUOUS
10
-0.021966
20
0.299238
30
0.0
11
-0.020955
21
0.298718
31
0.0
0
LINE
8
0
6
CONTINUOUS
10
-0.023211
20
0.299056
30
0.0
11
-0.023444
21
0.298351
31
0.0
0
LINE
8
0
6
CONTINUOUS
10
-0.024298
20
0.306411
30
0.0
11
-0.024242
21
0.306420
31
0.0
0
LINE
8
0
6
CONTINUOUS
10
-0.025487
20
0.306241
30
0.0
11
-0.024298
21
0.306411
31
0.0
0
LINE
8
0
6
CONTINUOUS
10
-0.024242
20
0.306420
30
0.0
11
-0.023231
21
0.305877
31
0.0
0
LINE
8
0
6
CONTINUOUS
10
-0.025645
20
0.305737
30
0.0
11
-0.025720
21
0.305503
31
0.0
0
LINE
8
0
6
CONTINUOUS
10
-0.023203
20
0.313433
30
0.0
11
-0.021959
21
0.313624
31
0.0
0
LINE
8
0
6
CONTINUOUS
10
-0.021639
20
0.313444
30
0.0
11
-0.020947
21
0.313068
31
0.0
0
LINE
8
0
6
CONTINUOUS
10
-0.021959
20
0.313624
30
0.0
11
-0.021639
21
0.313444
31
0.0
0
LINE
8
0
6
CONTINUOUS
10
-0.016862
20
0.319745
30
0.0
11
-0.015618
21
0.319970
31
0.0
0
LINE
8
0
6
CONTINUOUS
10
-0.015006
20
0.319625
30
0.0
11
-0.014606
21
0.319407
31
0.0
0
LINE
8
0
6
CONTINUOUS
10
-0.015618
20
0.319970
30
0.0
11
-0.015006
21
0.319625
31
0.0
0
LINE
8
0
6
CONTINUOUS
10
-0.017054
20
0.319088
30
0.0
11
-0.017095
21
0.318953
31
0.0
0
LINE
8
0
6
CONTINUOUS
10
-0.016862
20
0.319745
30
0.0
11
-0.017054
21
0.319088
31
0.0
0
LINE
8
0
6
CONTINUOUS
10
-0.005935
20
0.324743
30
0.0
11
-0.004977
21
0.324202
31
0.0
0
LINE
8
0
6
CONTINUOUS
10
-0.007179
20
0.324500
30
0.0
11
-0.007411
21
0.323688
31
0.0
0
LINE
8
0
6
CONTINUOUS
10
0.006016
20
0.327258
30
0.0
11
0.007028
21
0.326700
31
0.0
0
LINE
8
0
6
CONTINUOUS
10
0.004581
20
0.326276
30
0.0
11
0.004540
21
0.326134
31
0.0
0
LINE
8
0
6
CONTINUOUS
10
0.004773
20
0.326973
30
0.0
11
0.004581
21
0.326276
31
0.0
0
LINE
8
0
6
CONTINUOUS
10
0.017310
20
0.326476
30
0.0
11
0.017220
21
0.326160
31
0.0
0
LINE
8
0
6
CONTINUOUS
10
0.017452
20
0.326995
30
0.0
11
0.017310
21
0.326476
31
0.0
0
LINE
8
0
6
CONTINUOUS
10
0.029401
20
0.324541
30
0.0
11
0.030644
21
0.324882
31
0.0
0
LINE
8
0
6
CONTINUOUS
10
0.029334
20
0.324302
30
0.0
11
0.029169
21
0.323726
31
0.0
0
LINE
8
0
6
CONTINUOUS
10
0.029401
20
0.324541
30
0.0
11
0.029334
21
0.324302
31
0.0
0
LINE
8
0
6
CONTINUOUS
10
0.039080
20
0.319831
30
0.0
11
0.039219
21
0.319867
31
0.0
0
LINE
8
0
6
CONTINUOUS
10
0.045414
20
0.313528
30
0.0
11
0.045952
21
0.313670
31
0.0
0
LINE
8
0
6
CONTINUOUS
10
0.045952
20
0.313670
30
0.0
11
0.046657
21
0.313868
31
0.0
0
LINE
8
0
6
CONTINUOUS
10
0.041776
20
0.302920
30
0.0
11
0.043019
21
0.303243
31
0.0
0
LINE
8
0
6
CONTINUOUS
10
0.038061
20
0.297068
30
0.0
11
0.039304
21
0.297372
31
0.0
0
LINE
8
0
6
CONTINUOUS
10
0.039304
20
0.297372
30
0.0
11
0.040315
21
0.296953
31
0.0
0
LINE
8
0
6
CONTINUOUS
10
0.032372
20
0.292556
30
0.0
11
0.033383
21
0.292138
31
0.0
0
LINE
8
0
6
CONTINUOUS
10
0.022956
20
0.289438
30
0.0
11
0.023966
21
0.289010
31
0.0
0
LINE
8
0
6
CONTINUOUS
10
0.021712
20
0.289176
30
0.0
11
0.021478
21
0.288488
31
0.0
0
LINE
8
0
6
CONTINUOUS
10
0.011054
20
0.288084
30
0.0
11
0.010820
21
0.287403
31
0.0
0
LINE
8
0
6
CONTINUOUS
10
0.000381
20
0.289130
30
0.0
11
0.000148
21
0.288449
31
0.0
0
LINE
8
0
6
CONTINUOUS
10
-0.008962
20
0.292265
30
0.0
11
-0.007718
21
0.292466
31
0.0
0
LINE
8
0
6
CONTINUOUS
10
-0.008962
20
0.292265
30
0.0
11
-0.009196
21
0.291573
31
0.0
0
LINE
8
0
6
CONTINUOUS
10
-0.015901
20
0.297024
30
0.0
11
-0.014657
21
0.297220
31
0.0
0
LINE
8
0
6
CONTINUOUS
10
-0.019684
20
0.302804
30
0.0
11
-0.018458
21
0.303027
31
0.0
0
LINE
8
0
6
CONTINUOUS
10
-0.014610
20
0.315172
30
0.0
11
-0.013598
21
0.314619
31
0.0
0
LINE
8
0
6
CONTINUOUS
10
-0.007678
20
0.319985
30
0.0
11
-0.006666
21
0.319435
31
0.0
0
LINE
8
0
6
CONTINUOUS
10
0.000495
20
0.322845
30
0.0
11
0.000262
21
0.322038
31
0.0
0
LINE
8
0
6
CONTINUOUS
10
0.011153
20
0.323930
30
0.0
11
0.010921
21
0.323117
31
0.0
0
LINE
8
0
6
CONTINUOUS
10
0.021826
20
0.322897
30
0.0
11
0.021593
21
0.322082
31
0.0
0
LINE
8
0
6
CONTINUOUS
10
0.038108
20
0.314995
30
0.0
11
0.039351
21
0.315323
31
0.0
0
LINE
8
0
6
CONTINUOUS
10
0.038088
20
0.301254
30
0.0
11
0.038235
21
0.301192
31
0.0
0
LINE
8
0
6
CONTINUOUS
10
0.037059
20
0.301668
30
0.0
11
0.038088
21
0.301254
31
0.0
0
LINE
8
0
6
CONTINUOUS
10
0.031717
20
0.296243
30
0.0
11
0.032893
21
0.295776
31
0.0
0
LINE
8
0
6
CONTINUOUS
10
0.030269
20
0.295897
30
0.0
11
0.029997
21
0.295082
31
0.0
0
LINE
8
0
6
CONTINUOUS
10
0.021598
20
0.292220
30
0.0
11
0.021326
21
0.291435
31
0.0
0
LINE
8
0
6
CONTINUOUS
10
0.011086
20
0.290883
30
0.0
11
0.010813
21
0.290110
31
0.0
0
LINE
8
0
6
CONTINUOUS
10
0.000529
20
0.292117
30
0.0
11
0.000260
21
0.291347
31
0.0
0
LINE
8
0
6
CONTINUOUS
10
-0.008384
20
0.295222
30
0.0
11
-0.008475
21
0.294950
31
0.0
0
LINE
8
0
6
CONTINUOUS
10
-0.013681
20
0.300929
30
0.0
11
-0.013894
21
0.300277
31
0.0
0
LINE
8
0
6
CONTINUOUS
10
-0.014808
20
0.307269
30
0.0
11
-0.014448
21
0.307327
31
0.0
0
LINE
8
0
6
CONTINUOUS
10
-0.013359
20
0.307490
30
0.0
11
-0.012181
21
0.306843
31
0.0
0
LINE
8
0
6
CONTINUOUS
10
-0.011557
20
0.313181
30
0.0
11
-0.010666
21
0.313338
31
0.0
0
LINE
8
0
6
CONTINUOUS
10
-0.010108
20
0.313433
30
0.0
11
-0.008930
21
0.312769
31
0.0
0
LINE
8
0
6
CONTINUOUS
10
-0.004419
20
0.317832
30
0.0
11
-0.002971
21
0.318121
31
0.0
0
LINE
8
0
6
CONTINUOUS
10
-0.002971
20
0.318121
30
0.0
11
-0.002827
21
0.318043
31
0.0
0
LINE
8
0
6
CONTINUOUS
10
0.006859
20
0.320694
30
0.0
11
0.007278
21
0.320473
31
0.0
0
LINE
8
0
6
CONTINUOUS
10
0.005370
20
0.320238
30
0.0
11
0.005140
21
0.319425
31
0.0
0
LINE
8
0
6
CONTINUOUS
10
0.016175
20
0.320416
30
0.0
11
0.016651
21
0.320531
31
0.0
0
LINE
8
0
6
CONTINUOUS
10
0.016175
20
0.320416
30
0.0
11
0.015905
21
0.319447
31
0.0
0
LINE
8
0
6
CONTINUOUS
10
0.026031
20
0.317933
30
0.0
11
0.027012
21
0.318192
31
0.0
0
LINE
8
0
6
CONTINUOUS
10
0.033290
20
0.313355
30
0.0
11
0.034705
21
0.313747
31
0.0
0
LINE
8
0
6
CONTINUOUS
10
0.028609
20
0.299566
30
0.0
11
0.030057
21
0.299931
31
0.0
0
LINE
8
0
6
CONTINUOUS
10
0.030057
20
0.299931
30
0.0
11
0.031234
21
0.299463
31
0.0
0
LINE
8
0
6
CONTINUOUS
10
0.015185
20
0.293950
30
0.0
11
0.014913
21
0.293173
31
0.0
0
LINE
8
0
6
CONTINUOUS
10
0.006705
20
0.293946
30
0.0
11
0.006433
21
0.293172
31
0.0
0
LINE
8
0
6
CONTINUOUS
10
-0.002770
20
0.313598
30
0.0
11
-0.001592
21
0.312934
31
0.0
0
LINE
8
0
6
CONTINUOUS
10
0.010936
20
0.317227
30
0.0
11
0.010665
21
0.316262
31
0.0
0
LINE
8
0
6
CONTINUOUS
10
0.019228
20
0.316202
30
0.0
11
0.018957
21
0.315234
31
0.0
0
LINE
8
0
6
CONTINUOUS
10
0.026088
20
0.313326
30
0.0
11
0.027535
21
0.313720
31
0.0
0
LINE
8
0
6
CONTINUOUS
10
0.030339
20
0.309090
30
0.0
11
0.031787
21
0.309493
31
0.0
0
LINE
8
0
6
CONTINUOUS
10
0.049255
20
0.306544
30
0.0
11
0.049944
21
0.306258
31
0.0
0
LINE
8
0
6
CONTINUOUS
10
0.047690
20
0.306348
30
0.0
11
0.047539
21
0.305849
31
0.0
0
LINE
8
0
6
CONTINUOUS
10
0.008373
20
0.303923
30
0.0
11
0.009593
21
0.304151
31
0.0
0
LINE
8
0
6
CONTINUOUS
10
0.009617
20
0.304156
30
0.0
11
0.010391
21
0.303784
31
0.0
0
LINE
8
0
6
CONTINUOUS
10
0.011056
20
0.302976
30
0.0
11
0.011699
21
0.303111
31
0.0
0
LINE
8
0
6
CONTINUOUS
10
0.013026
20
0.302889
30
0.0
11
0.013311
21
0.302759
31
0.0
0
LINE
8
0
6
CONTINUOUS
10
0.012300
20
0.303238
30
0.0
11
0.012645
21
0.303072
31
0.0
0
LINE
8
0
6
CONTINUOUS
10
0.012645
20
0.303072
30
0.0
11
0.013026
21
0.302889
31
0.0
0
LINE
8
0
6
CONTINUOUS
10
0.011056
20
0.302976
30
0.0
11
0.011038
21
0.302935
31
0.0
0
LINE
8
0
6
CONTINUOUS
10
0.015478
20
0.307362
30
0.0
11
0.016095
21
0.307504
31
0.0
0
LINE
8
0
6
CONTINUOUS
10
0.012722
20
0.308288
30
0.0
11
0.012697
21
0.308206
31
0.0
0
LINE
8
0
6
CONTINUOUS
10
0.012697
20
0.308206
30
0.0
11
0.012489
21
0.307509
31
0.0
0
LINE
8
0
6
CONTINUOUS
10
0.010778
20
0.308560
30
0.0
11
0.011502
21
0.308194
31
0.0
0
LINE
8
0
6
CONTINUOUS
10
0.008014
20
0.307630
30
0.0
11
0.008277
21
0.307495
31
0.0
0
LINE
8
0
6
CONTINUOUS
10
0.005168
20
0.305792
30
0.0
11
0.006054
21
0.305959
31
0.0
0
LINE
8
0
6
CONTINUOUS
10
0.005158
20
0.303952
30
0.0
11
0.005498
21
0.304015
31
0.0
0
LINE
8
0
6
CONTINUOUS
10
0.006745
20
0.302356
30
0.0
11
0.007989
21
0.302588
31
0.0
0
LINE
8
0
6
CONTINUOUS
10
0.009319
20
0.300869
30
0.0
11
0.009267
21
0.300712
31
0.0
0
LINE
8
0
6
CONTINUOUS
10
0.012688
20
0.301421
30
0.0
11
0.012455
21
0.300702
31
0.0
0
LINE
8
0
6
CONTINUOUS
10
0.017643
20
0.302184
30
0.0
11
0.017707
21
0.302155
31
0.0
0
LINE
8
0
6
CONTINUOUS
10
0.016696
20
0.302611
30
0.0
11
0.017643
21
0.302184
31
0.0
0
LINE
8
0
6
CONTINUOUS
10
0.018298
20
0.304213
30
0.0
11
0.018812
21
0.303979
31
0.0
0
LINE
8
0
6
CONTINUOUS
10
0.013796
20
0.303857
30
0.0
11
0.014710
21
0.304049
31
0.0
0
LINE
8
0
6
CONTINUOUS
10
0.013606
20
0.303247
30
0.0
11
0.013563
21
0.303109
31
0.0
0
LINE
8
0
6
CONTINUOUS
10
0.013790
20
0.303837
30
0.0
11
0.013606
21
0.303247
31
0.0
0
LINE
8
0
6
CONTINUOUS
10
0.018246
20
0.306042
30
0.0
11
0.018308
21
0.306057
31
0.0
0
LINE
8
0
6
CONTINUOUS
10
-0.002937
20
0.303486
30
0.0
11
-0.001493
21
0.303360
31
0.0
0
LINE
8
0
6
CONTINUOUS
10
0.014602
20
0.314285
30
0.0
11
0.015800
21
0.314114
31
0.0
0
ENDSEC
0
EOF
