999
unknown String-ID: 20550
0
SECTION
2
HEADER
9
$ACADVER
1
AC1009
9
$DWGCODEPAGE
3
unknown String-ID: 20561
0
ENDSEC
0
SECTION
2
TABLES
0
TABLE
2
LAYER
70
1
0
LAYER
2
0
70
0
62
7
6
CONTINUOUS
0
ENDTAB
0
ENDSEC
0
SECTION
2
ENTITIES
0
LINE
8
0
6
CONTINUOUS
10
-0.078432
20
0.224214
30
0.0
11
-0.077789
21
0.229098
31
0.0
0
LINE
8
0
6
CONTINUOUS
10
-0.077789
20
0.219329
30
0.0
11
-0.078432
21
0.224214
31
0.0
0
LINE
8
0
6
CONTINUOUS
10
-0.078245
20
0.224206
30
0.0
11
-0.077789
21
0.219329
31
0.0
0
LINE
8
0
6
CONTINUOUS
10
-0.077789
20
0.219329
30
0.0
11
-0.075903
21
0.214778
31
0.0
0
LINE
8
0
6
CONTINUOUS
10
-0.075903
20
0.214778
30
0.0
11
-0.072904
21
0.210869
31
0.0
0
LINE
8
0
6
CONTINUOUS
10
-0.072904
20
0.210869
30
0.0
11
-0.068995
21
0.207870
31
0.0
0
LINE
8
0
6
CONTINUOUS
10
-0.068995
20
0.207870
30
0.0
11
-0.064443
21
0.205985
31
0.0
0
LINE
8
0
6
CONTINUOUS
10
-0.064443
20
0.205985
30
0.0
11
-0.059558
21
0.205341
31
0.0
0
LINE
8
0
6
CONTINUOUS
10
-0.059558
20
0.205341
30
0.0
11
-0.054674
21
0.205985
31
0.0
0
LINE
8
0
6
CONTINUOUS
10
-0.054674
20
0.205985
30
0.0
11
-0.050122
21
0.207870
31
0.0
0
LINE
8
0
6
CONTINUOUS
10
-0.050122
20
0.207870
30
0.0
11
-0.046213
21
0.210869
31
0.0
0
LINE
8
0
6
CONTINUOUS
10
-0.046213
20
0.210869
30
0.0
11
-0.043214
21
0.214778
31
0.0
0
LINE
8
0
6
CONTINUOUS
10
-0.043214
20
0.214778
30
0.0
11
-0.041328
21
0.219329
31
0.0
0
LINE
8
0
6
CONTINUOUS
10
-0.041328
20
0.219329
30
0.0
11
-0.040685
21
0.224214
31
0.0
0
LINE
8
0
6
CONTINUOUS
10
-0.040685
20
0.224214
30
0.0
11
-0.041328
21
0.229098
31
0.0
0
LINE
8
0
6
CONTINUOUS
10
-0.041328
20
0.229098
30
0.0
11
-0.043214
21
0.233650
31
0.0
0
LINE
8
0
6
CONTINUOUS
10
-0.043214
20
0.233650
30
0.0
11
-0.046213
21
0.237559
31
0.0
0
LINE
8
0
6
CONTINUOUS
10
-0.046213
20
0.237559
30
0.0
11
-0.050122
21
0.240558
31
0.0
0
LINE
8
0
6
CONTINUOUS
10
-0.050122
20
0.240558
30
0.0
11
-0.054674
21
0.242443
31
0.0
0
LINE
8
0
6
CONTINUOUS
10
-0.054674
20
0.242443
30
0.0
11
-0.059558
21
0.243086
31
0.0
0
LINE
8
0
6
CONTINUOUS
10
-0.059558
20
0.243086
30
0.0
11
-0.064443
21
0.242443
31
0.0
0
LINE
8
0
6
CONTINUOUS
10
-0.064443
20
0.242443
30
0.0
11
-0.068995
21
0.240558
31
0.0
0
LINE
8
0
6
CONTINUOUS
10
-0.068995
20
0.240558
30
0.0
11
-0.072904
21
0.237559
31
0.0
0
LINE
8
0
6
CONTINUOUS
10
-0.072904
20
0.237559
30
0.0
11
-0.075903
21
0.233650
31
0.0
0
LINE
8
0
6
CONTINUOUS
10
-0.075903
20
0.233650
30
0.0
11
-0.077789
21
0.229098
31
0.0
0
LINE
8
0
6
CONTINUOUS
10
-0.047409
20
0.248168
30
0.0
11
-0.047572
21
0.247401
31
0.0
0
LINE
8
0
6
CONTINUOUS
10
-0.047451
20
0.248951
30
0.0
11
-0.047409
21
0.248168
31
0.0
0
LINE
8
0
6
CONTINUOUS
10
-0.047694
20
0.249697
30
0.0
11
-0.047451
21
0.248951
31
0.0
0
LINE
8
0
6
CONTINUOUS
10
-0.048122
20
0.250354
30
0.0
11
-0.047694
21
0.249697
31
0.0
0
LINE
8
0
6
CONTINUOUS
10
-0.048705
20
0.250878
30
0.0
11
-0.048122
21
0.250354
31
0.0
0
LINE
8
0
6
CONTINUOUS
10
-0.049403
20
0.251233
30
0.0
11
-0.048724
21
0.250888
31
0.0
0
LINE
8
0
6
CONTINUOUS
10
-0.050170
20
0.251395
30
0.0
11
-0.049403
21
0.251233
31
0.0
0
LINE
8
0
6
CONTINUOUS
10
-0.047594
20
0.247401
30
0.0
11
-0.047433
21
0.248167
31
0.0
0
LINE
8
0
6
CONTINUOUS
10
-0.047433
20
0.248167
30
0.0
11
-0.047477
21
0.248948
31
0.0
0
LINE
8
0
6
CONTINUOUS
10
-0.047477
20
0.248948
30
0.0
11
-0.047721
21
0.249693
31
0.0
0
LINE
8
0
6
CONTINUOUS
10
-0.047721
20
0.249693
30
0.0
11
-0.048150
21
0.250349
31
0.0
0
LINE
8
0
6
CONTINUOUS
10
-0.048150
20
0.250349
30
0.0
11
-0.048724
21
0.250863
31
0.0
0
LINE
8
0
6
CONTINUOUS
10
-0.048734
20
0.250872
30
0.0
11
-0.049433
21
0.251226
31
0.0
0
LINE
8
0
6
CONTINUOUS
10
-0.049433
20
0.251226
30
0.0
11
-0.050201
21
0.251388
31
0.0
0
LINE
8
0
6
CONTINUOUS
10
-0.050201
20
0.251388
30
0.0
11
-0.050983
21
0.251345
31
0.0
0
LINE
8
0
6
CONTINUOUS
10
-0.050983
20
0.251345
30
0.0
11
-0.051728
21
0.251103
31
0.0
0
LINE
8
0
6
CONTINUOUS
10
-0.051728
20
0.251103
30
0.0
11
-0.052384
21
0.250675
31
0.0
0
LINE
8
0
6
CONTINUOUS
10
-0.052384
20
0.250675
30
0.0
11
-0.052907
21
0.250093
31
0.0
0
LINE
8
0
6
CONTINUOUS
10
-0.052907
20
0.250093
30
0.0
11
-0.053261
21
0.249395
31
0.0
0
LINE
8
0
6
CONTINUOUS
10
-0.050015
20
0.240476
30
0.0
11
-0.047572
21
0.247401
31
0.0
0
LINE
8
0
6
CONTINUOUS
10
-0.050956
20
0.251353
30
0.0
11
-0.050174
21
0.251395
31
0.0
0
LINE
8
0
6
CONTINUOUS
10
-0.050025
20
0.240483
30
0.0
11
-0.047594
21
0.247401
31
0.0
0
LINE
8
0
6
CONTINUOUS
10
-0.041029
20
0.228175
30
0.0
11
-0.041579
21
0.230202
31
0.0
0
LINE
8
0
6
CONTINUOUS
10
-0.041858
20
0.231048
30
0.0
11
-0.041835
21
0.231005
31
0.0
0
LINE
8
0
6
CONTINUOUS
10
-0.041029
20
0.228175
30
0.0
11
-0.041858
21
0.231048
31
0.0
0
LINE
8
0
6
CONTINUOUS
10
-0.042158
20
0.231714
30
0.0
11
-0.041858
21
0.231048
31
0.0
0
LINE
8
0
6
CONTINUOUS
10
-0.078088
20
0.220253
30
0.0
11
-0.077267
21
0.217405
31
0.0
0
LINE
8
0
6
CONTINUOUS
10
-0.077267
20
0.217405
30
0.0
11
-0.077227
21
0.217273
31
0.0
0
LINE
8
0
6
CONTINUOUS
10
-0.078088
20
0.220253
30
0.0
11
-0.077163
21
0.217168
31
0.0
0
LINE
8
0
6
CONTINUOUS
10
-0.076959
20
0.216714
30
0.0
11
-0.077163
21
0.217168
31
0.0
0
LINE
8
0
6
CONTINUOUS
10
-0.077079
20
0.217006
30
0.0
11
-0.077227
21
0.217273
31
0.0
0
LINE
8
0
6
CONTINUOUS
10
-0.040613
20
0.224484
30
0.0
11
-0.041029
21
0.228175
31
0.0
0
LINE
8
0
6
CONTINUOUS
10
-0.041644
20
0.230102
30
0.0
11
-0.042158
21
0.231714
31
0.0
0
LINE
8
0
6
CONTINUOUS
10
-0.070309
20
0.239816
30
0.0
11
-0.073146
21
0.237419
31
0.0
0
LINE
8
0
6
CONTINUOUS
10
-0.043656
20
0.213913
30
0.0
11
-0.041951
21
0.217214
31
0.0
0
LINE
8
0
6
CONTINUOUS
10
-0.040924
20
0.220783
30
0.0
11
-0.040613
21
0.224484
31
0.0
0
LINE
8
0
6
CONTINUOUS
10
-0.062990
20
0.205580
30
0.0
11
-0.059289
21
0.205269
31
0.0
0
LINE
8
0
6
CONTINUOUS
10
-0.046352
20
0.237801
30
0.0
11
-0.049257
21
0.240116
31
0.0
0
LINE
8
0
6
CONTINUOUS
10
-0.059828
20
0.243159
30
0.0
11
-0.063519
21
0.242742
31
0.0
0
LINE
8
0
6
CONTINUOUS
10
-0.055598
20
0.205685
30
0.0
11
-0.052059
21
0.206814
31
0.0
0
LINE
8
0
6
CONTINUOUS
10
-0.077165
20
0.231214
30
0.0
11
-0.078193
21
0.227645
31
0.0
0
LINE
8
0
6
CONTINUOUS
10
-0.073146
20
0.237419
30
0.0
11
-0.075461
21
0.234514
31
0.0
0
LINE
8
0
6
CONTINUOUS
10
-0.042158
20
0.231714
30
0.0
11
-0.043955
21
0.234964
31
0.0
0
LINE
8
0
6
CONTINUOUS
10
-0.066559
20
0.206607
30
0.0
11
-0.062990
21
0.205580
31
0.0
0
LINE
8
0
6
CONTINUOUS
10
-0.041951
20
0.217214
30
0.0
11
-0.040924
21
0.220783
31
0.0
0
LINE
8
0
6
CONTINUOUS
10
-0.069860
20
0.208311
30
0.0
11
-0.066559
21
0.206607
31
0.0
0
LINE
8
0
6
CONTINUOUS
10
-0.045971
20
0.211009
30
0.0
11
-0.043656
21
0.213913
31
0.0
0
LINE
8
0
6
CONTINUOUS
10
-0.067058
20
0.241613
30
0.0
11
-0.070309
21
0.239816
31
0.0
0
LINE
8
0
6
CONTINUOUS
10
-0.072765
20
0.210626
30
0.0
11
-0.069860
21
0.208311
31
0.0
0
LINE
8
0
6
CONTINUOUS
10
-0.078504
20
0.223943
30
0.0
11
-0.078088
21
0.220253
31
0.0
0
LINE
8
0
6
CONTINUOUS
10
-0.075162
20
0.213464
30
0.0
11
-0.072765
21
0.210626
31
0.0
0
LINE
8
0
6
CONTINUOUS
10
-0.075461
20
0.234514
30
0.0
11
-0.077165
21
0.231214
31
0.0
0
LINE
8
0
6
CONTINUOUS
10
-0.049257
20
0.240116
30
0.0
11
-0.050005
21
0.240503
31
0.0
0
LINE
8
0
6
CONTINUOUS
10
-0.078088
20
0.220253
30
0.0
11
-0.076959
21
0.216714
31
0.0
0
LINE
8
0
6
CONTINUOUS
10
-0.078193
20
0.227645
30
0.0
11
-0.078504
21
0.223943
31
0.0
0
LINE
8
0
6
CONTINUOUS
10
-0.056127
20
0.242848
30
0.0
11
-0.059828
21
0.243159
31
0.0
0
LINE
8
0
6
CONTINUOUS
10
-0.043955
20
0.234964
30
0.0
11
-0.046352
21
0.237801
31
0.0
0
LINE
8
0
6
CONTINUOUS
10
-0.063519
20
0.242742
30
0.0
11
-0.067058
21
0.241613
31
0.0
0
LINE
8
0
6
CONTINUOUS
10
-0.059289
20
0.205269
30
0.0
11
-0.055598
21
0.205685
31
0.0
0
LINE
8
0
6
CONTINUOUS
10
-0.076959
20
0.216714
30
0.0
11
-0.075162
21
0.213464
31
0.0
0
LINE
8
0
6
CONTINUOUS
10
-0.048808
20
0.208612
30
0.0
11
-0.045971
21
0.211009
31
0.0
0
LINE
8
0
6
CONTINUOUS
10
-0.052059
20
0.206814
30
0.0
11
-0.048808
21
0.208612
31
0.0
0
LINE
8
0
6
CONTINUOUS
10
-0.055600
20
0.242696
30
0.0
11
-0.056127
21
0.242848
31
0.0
0
LINE
8
0
6
CONTINUOUS
10
-0.049124
20
-0.427500
30
0.0
11
-0.048724
21
-0.427500
31
0.0
0
LINE
8
0
6
CONTINUOUS
10
-0.059725
20
-0.479500
30
0.0
11
-0.121250
21
-0.479500
31
0.0
0
LINE
8
0
6
CONTINUOUS
10
-0.056925
20
-0.479500
30
0.0
11
-0.059725
21
-0.479500
31
0.0
0
LINE
8
0
6
CONTINUOUS
10
-0.054225
20
-0.479500
30
0.0
11
-0.056925
21
-0.479500
31
0.0
0
LINE
8
0
6
CONTINUOUS
10
-0.051925
20
-0.479500
30
0.0
11
-0.054225
21
-0.479500
31
0.0
0
LINE
8
0
6
CONTINUOUS
10
-0.050224
20
-0.479500
30
0.0
11
-0.051925
21
-0.479500
31
0.0
0
LINE
8
0
6
CONTINUOUS
10
-0.049124
20
-0.479500
30
0.0
11
-0.050224
21
-0.479500
31
0.0
0
LINE
8
0
6
CONTINUOUS
10
-0.048724
20
-0.479500
30
0.0
11
-0.049124
21
-0.479500
31
0.0
0
LINE
8
0
6
CONTINUOUS
10
-0.049124
20
-0.427500
30
0.0
11
-0.050224
21
-0.427500
31
0.0
0
LINE
8
0
6
CONTINUOUS
10
-0.050224
20
-0.427500
30
0.0
11
-0.051925
21
-0.427500
31
0.0
0
LINE
8
0
6
CONTINUOUS
10
-0.054225
20
-0.427500
30
0.0
11
-0.056925
21
-0.427500
31
0.0
0
LINE
8
0
6
CONTINUOUS
10
-0.048724
20
-0.478946
30
0.0
11
-0.048724
21
-0.479500
31
0.0
0
LINE
8
0
6
CONTINUOUS
10
-0.056925
20
-0.427500
30
0.0
11
-0.059725
21
-0.427500
31
0.0
0
LINE
8
0
6
CONTINUOUS
10
-0.051925
20
-0.427500
30
0.0
11
-0.054225
21
-0.427500
31
0.0
0
LINE
8
0
6
CONTINUOUS
10
-0.048724
20
0.478792
30
0.0
11
-0.048724
21
0.479500
31
0.0
0
LINE
8
0
6
CONTINUOUS
10
-0.059725
20
0.479500
30
0.0
11
-0.056925
21
0.479500
31
0.0
0
LINE
8
0
6
CONTINUOUS
10
-0.056925
20
0.479500
30
0.0
11
-0.054225
21
0.479500
31
0.0
0
LINE
8
0
6
CONTINUOUS
10
-0.054225
20
0.479500
30
0.0
11
-0.051925
21
0.479500
31
0.0
0
LINE
8
0
6
CONTINUOUS
10
-0.051925
20
0.479500
30
0.0
11
-0.050224
21
0.479500
31
0.0
0
LINE
8
0
6
CONTINUOUS
10
-0.050224
20
0.479500
30
0.0
11
-0.049124
21
0.479500
31
0.0
0
LINE
8
0
6
CONTINUOUS
10
-0.049124
20
0.479500
30
0.0
11
-0.048724
21
0.479500
31
0.0
0
LINE
8
0
6
CONTINUOUS
10
-0.048724
20
-0.427000
30
0.0
11
-0.049224
21
-0.427500
31
0.0
0
LINE
8
0
6
CONTINUOUS
10
-0.048724
20
0.427000
30
0.0
11
-0.048724
21
0.426687
31
0.0
0
LINE
8
0
6
CONTINUOUS
10
-0.049224
20
0.427500
30
0.0
11
-0.048724
21
0.427000
31
0.0
0
LINE
8
0
6
CONTINUOUS
10
-0.070726
20
0.427000
30
0.0
11
-0.070225
21
0.427500
31
0.0
0
LINE
8
0
6
CONTINUOUS
10
-0.070726
20
-0.427000
30
0.0
11
-0.070225
21
-0.427500
31
0.0
0
LINE
8
0
6
CONTINUOUS
10
-0.070726
20
0.427000
30
0.0
11
-0.070726
21
0.426687
31
0.0
0
LINE
8
0
6
CONTINUOUS
10
-0.059725
20
0.427500
30
0.0
11
-0.056925
21
0.427500
31
0.0
0
LINE
8
0
6
CONTINUOUS
10
-0.056925
20
0.427500
30
0.0
11
-0.054225
21
0.427500
31
0.0
0
LINE
8
0
6
CONTINUOUS
10
-0.054225
20
0.427500
30
0.0
11
-0.051925
21
0.427500
31
0.0
0
LINE
8
0
6
CONTINUOUS
10
-0.051925
20
0.427500
30
0.0
11
-0.050224
21
0.427500
31
0.0
0
LINE
8
0
6
CONTINUOUS
10
-0.050224
20
0.427500
30
0.0
11
-0.049124
21
0.427500
31
0.0
0
LINE
8
0
6
CONTINUOUS
10
-0.048724
20
0.427500
30
0.0
11
-0.048724
21
0.428208
31
0.0
0
LINE
8
0
6
CONTINUOUS
10
-0.049124
20
0.427500
30
0.0
11
-0.048724
21
0.427500
31
0.0
0
LINE
8
0
6
CONTINUOUS
10
-0.048724
20
0.428208
30
0.0
11
-0.048724
21
0.478792
31
0.0
0
LINE
8
0
6
CONTINUOUS
10
-0.121750
20
0.479500
30
0.0
11
-0.121750
21
0.478792
31
0.0
0
LINE
8
0
6
CONTINUOUS
10
-0.059725
20
0.427500
30
0.0
11
-0.121250
21
0.427500
31
0.0
0
LINE
8
0
6
CONTINUOUS
10
-0.121750
20
0.428208
30
0.0
11
-0.121750
21
0.427500
31
0.0
0
LINE
8
0
6
CONTINUOUS
10
-0.121750
20
0.478792
30
0.0
11
-0.121750
21
0.428208
31
0.0
0
LINE
8
0
6
CONTINUOUS
10
-0.048724
20
0.426687
30
0.0
11
-0.048724
21
0.426145
31
0.0
0
LINE
8
0
6
CONTINUOUS
10
-0.070726
20
0.426687
30
0.0
11
-0.070726
21
0.426145
31
0.0
0
LINE
8
0
6
CONTINUOUS
10
-0.048724
20
-0.427500
30
0.0
11
-0.048724
21
-0.428054
31
0.0
0
LINE
8
0
6
CONTINUOUS
10
-0.048724
20
-0.428054
30
0.0
11
-0.048724
21
-0.478946
31
0.0
0
LINE
8
0
6
CONTINUOUS
10
-0.121750
20
-0.427500
30
0.0
11
-0.121750
21
-0.428054
31
0.0
0
LINE
8
0
6
CONTINUOUS
10
-0.121750
20
-0.428054
30
0.0
11
-0.121750
21
-0.478946
31
0.0
0
LINE
8
0
6
CONTINUOUS
10
-0.121750
20
-0.479500
30
0.0
11
-0.121250
21
-0.479500
31
0.0
0
LINE
8
0
6
CONTINUOUS
10
-0.121750
20
-0.478946
30
0.0
11
-0.121750
21
-0.479500
31
0.0
0
LINE
8
0
6
CONTINUOUS
10
-0.121250
20
-0.427500
30
0.0
11
-0.059725
21
-0.427500
31
0.0
0
LINE
8
0
6
CONTINUOUS
10
-0.121750
20
-0.427500
30
0.0
11
-0.121250
21
-0.427500
31
0.0
0
LINE
8
0
6
CONTINUOUS
10
-0.048724
20
-0.427000
30
0.0
11
-0.048724
21
-0.426786
31
0.0
0
LINE
8
0
6
CONTINUOUS
10
-0.070726
20
-0.427000
30
0.0
11
-0.070726
21
-0.426786
31
0.0
0
LINE
8
0
6
CONTINUOUS
10
-0.048724
20
0.426145
30
0.0
11
-0.048724
21
0.250888
31
0.0
0
LINE
8
0
6
CONTINUOUS
10
-0.048724
20
0.244134
30
0.0
11
-0.048724
21
0.239692
31
0.0
0
LINE
8
0
6
CONTINUOUS
10
-0.048724
20
0.208683
30
0.0
11
-0.048724
21
-0.426206
31
0.0
0
LINE
8
0
6
CONTINUOUS
10
-0.070726
20
0.426145
30
0.0
11
-0.070726
21
0.239464
31
0.0
0
LINE
8
0
6
CONTINUOUS
10
-0.070726
20
0.209001
30
0.0
11
-0.070726
21
-0.426206
31
0.0
0
LINE
8
0
6
CONTINUOUS
10
-0.048724
20
-0.426206
30
0.0
11
-0.048724
21
-0.426786
31
0.0
0
LINE
8
0
6
CONTINUOUS
10
-0.070726
20
-0.426206
30
0.0
11
-0.070726
21
-0.426786
31
0.0
0
LINE
8
0
6
CONTINUOUS
10
-0.121250
20
0.427500
30
0.0
11
-0.121750
21
0.427500
31
0.0
0
LINE
8
0
6
CONTINUOUS
10
-0.121250
20
0.479500
30
0.0
11
-0.059725
21
0.479500
31
0.0
0
LINE
8
0
6
CONTINUOUS
10
-0.121750
20
0.479500
30
0.0
11
-0.121250
21
0.479500
31
0.0
0
LINE
8
0
6
CONTINUOUS
10
-0.074741
20
0.212966
30
0.0
11
-0.077733
21
0.207415
31
0.0
0
LINE
8
0
6
CONTINUOUS
10
-0.071915
20
0.182081
30
0.0
11
-0.070726
21
0.184627
31
0.0
0
LINE
8
0
6
CONTINUOUS
10
-0.077733
20
0.207415
30
0.0
11
-0.086635
21
0.188350
31
0.0
0
LINE
8
0
6
CONTINUOUS
10
-0.078394
20
0.165299
30
0.0
11
-0.071915
21
0.182081
31
0.0
0
LINE
8
0
6
CONTINUOUS
10
-0.086635
20
0.188350
30
0.0
11
-0.093530
21
0.170482
31
0.0
0
LINE
8
0
6
CONTINUOUS
10
-0.083154
20
0.149438
30
0.0
11
-0.078394
21
0.165299
31
0.0
0
LINE
8
0
6
CONTINUOUS
10
-0.093530
20
0.170482
30
0.0
11
-0.098649
21
0.153424
31
0.0
0
LINE
8
0
6
CONTINUOUS
10
-0.086471
20
0.134028
30
0.0
11
-0.083154
21
0.149438
31
0.0
0
LINE
8
0
6
CONTINUOUS
10
-0.098649
20
0.153424
30
0.0
11
-0.102227
21
0.136810
31
0.0
0
LINE
8
0
6
CONTINUOUS
10
-0.088606
20
0.118589
30
0.0
11
-0.086471
21
0.134028
31
0.0
0
LINE
8
0
6
CONTINUOUS
10
-0.102227
20
0.136810
30
0.0
11
-0.104515
21
0.120287
31
0.0
0
LINE
8
0
6
CONTINUOUS
10
-0.089803
20
0.102652
30
0.0
11
-0.088606
21
0.118589
31
0.0
0
LINE
8
0
6
CONTINUOUS
10
-0.104515
20
0.120287
30
0.0
11
-0.105781
21
0.103488
31
0.0
0
LINE
8
0
6
CONTINUOUS
10
-0.090300
20
0.085771
30
0.0
11
-0.089803
21
0.102652
31
0.0
0
LINE
8
0
6
CONTINUOUS
10
-0.105781
20
0.103488
30
0.0
11
-0.106298
21
0.086024
31
0.0
0
LINE
8
0
6
CONTINUOUS
10
-0.090337
20
0.067530
30
0.0
11
-0.090300
21
0.085771
31
0.0
0
LINE
8
0
6
CONTINUOUS
10
-0.106298
20
0.086024
30
0.0
11
-0.106336
21
0.067477
31
0.0
0
LINE
8
0
6
CONTINUOUS
10
-0.090162
20
0.047558
30
0.0
11
-0.090337
21
0.067530
31
0.0
0
LINE
8
0
6
CONTINUOUS
10
-0.106336
20
0.067477
30
0.0
11
-0.106161
21
0.047384
31
0.0
0
LINE
8
0
6
CONTINUOUS
10
-0.089557
20
0.000857
30
0.0
11
-0.090162
21
0.047558
31
0.0
0
LINE
8
0
6
CONTINUOUS
10
-0.106161
20
0.047384
30
0.0
11
-0.105555
21
0.000614
31
0.0
0
LINE
8
0
6
CONTINUOUS
10
-0.088575
20
-0.055465
30
0.0
11
-0.089557
21
0.000857
31
0.0
0
LINE
8
0
6
CONTINUOUS
10
-0.105555
20
0.000614
30
0.0
11
-0.104572
21
-0.055764
31
0.0
0
LINE
8
0
6
CONTINUOUS
10
-0.087320
20
-0.118305
30
0.0
11
-0.088575
21
-0.055465
31
0.0
0
LINE
8
0
6
CONTINUOUS
10
-0.104572
20
-0.055764
30
0.0
11
-0.103317
21
-0.118637
31
0.0
0
LINE
8
0
6
CONTINUOUS
10
-0.085896
20
-0.184549
30
0.0
11
-0.087320
21
-0.118305
31
0.0
0
LINE
8
0
6
CONTINUOUS
10
-0.103317
20
-0.118637
30
0.0
11
-0.101892
21
-0.184900
31
0.0
0
LINE
8
0
6
CONTINUOUS
10
-0.084406
20
-0.251086
30
0.0
11
-0.085896
21
-0.184549
31
0.0
0
LINE
8
0
6
CONTINUOUS
10
-0.101892
20
-0.184900
30
0.0
11
-0.100402
21
-0.251448
31
0.0
0
LINE
8
0
6
CONTINUOUS
10
-0.082954
20
-0.314807
30
0.0
11
-0.084406
21
-0.251086
31
0.0
0
LINE
8
0
6
CONTINUOUS
10
-0.100402
20
-0.251448
30
0.0
11
-0.098949
21
-0.315171
31
0.0
0
LINE
8
0
6
CONTINUOUS
10
-0.081644
20
-0.372604
30
0.0
11
-0.082954
21
-0.314807
31
0.0
0
LINE
8
0
6
CONTINUOUS
10
-0.098949
20
-0.315171
30
0.0
11
-0.097640
21
-0.372960
31
0.0
0
LINE
8
0
6
CONTINUOUS
10
-0.080579
20
-0.421372
30
0.0
11
-0.081644
21
-0.372604
31
0.0
0
LINE
8
0
6
CONTINUOUS
10
-0.097640
20
-0.372960
30
0.0
11
-0.096576
21
-0.421703
31
0.0
0
LINE
8
0
6
CONTINUOUS
10
-0.080459
20
-0.427500
30
0.0
11
-0.080579
21
-0.421372
31
0.0
0
LINE
8
0
6
CONTINUOUS
10
-0.096576
20
-0.421703
30
0.0
11
-0.096463
21
-0.427500
31
0.0
0
LINE
8
0
6
CONTINUOUS
10
-0.041579
20
0.230202
30
0.0
11
-0.036843
21
0.237434
31
0.0
0
LINE
8
0
6
CONTINUOUS
10
-0.035837
20
0.239169
30
0.0
11
-0.035790
21
0.239249
31
0.0
0
LINE
8
0
6
CONTINUOUS
10
-0.036843
20
0.237434
30
0.0
11
-0.035837
21
0.239169
31
0.0
0
LINE
8
0
6
CONTINUOUS
10
0.028524
20
0.331305
30
0.0
11
0.037363
21
0.341716
31
0.0
0
LINE
8
0
6
CONTINUOUS
10
0.021678
20
0.340343
30
0.0
11
0.019431
21
0.343553
31
0.0
0
LINE
8
0
6
CONTINUOUS
10
0.027142
20
0.332524
30
0.0
11
0.026960
21
0.332784
31
0.0
0
LINE
8
0
6
CONTINUOUS
10
0.028387
20
0.326581
30
0.0
11
0.028614
21
0.326897
31
0.0
0
LINE
8
0
6
CONTINUOUS
10
0.029540
20
0.357575
30
0.0
11
0.018453
21
0.345715
31
0.0
0
LINE
8
0
6
CONTINUOUS
10
-0.043108
20
0.243428
30
0.0
11
-0.042428
21
0.243034
31
0.0
0
LINE
8
0
6
CONTINUOUS
10
-0.042428
20
0.243034
30
0.0
11
-0.039582
21
0.241385
31
0.0
0
LINE
8
0
6
CONTINUOUS
10
-0.039582
20
0.241385
30
0.0
11
-0.037638
21
0.240269
31
0.0
0
LINE
8
0
6
CONTINUOUS
10
-0.037440
20
0.240156
30
0.0
11
-0.036176
21
0.239438
31
0.0
0
LINE
8
0
6
CONTINUOUS
10
-0.034955
20
0.238765
30
0.0
11
-0.034516
21
0.239374
31
0.0
0
LINE
8
0
6
CONTINUOUS
10
-0.035233
20
0.238908
30
0.0
11
-0.034955
21
0.238765
31
0.0
0
LINE
8
0
6
CONTINUOUS
10
-0.036176
20
0.239438
30
0.0
11
-0.035233
21
0.238908
31
0.0
0
LINE
8
0
6
CONTINUOUS
10
0.017800
20
0.345592
30
0.0
11
0.016659
21
0.345995
31
0.0
0
LINE
8
0
6
CONTINUOUS
10
0.016659
20
0.345995
30
0.0
11
0.015874
21
0.344986
31
0.0
0
LINE
8
0
6
CONTINUOUS
10
0.028614
20
0.326897
30
0.0
11
0.029342
21
0.327906
31
0.0
0
LINE
8
0
6
CONTINUOUS
10
0.028852
20
0.330055
30
0.0
11
0.028737
21
0.330224
31
0.0
0
LINE
8
0
6
CONTINUOUS
10
0.028940
20
0.329665
30
0.0
11
0.028852
21
0.330055
31
0.0
0
LINE
8
0
6
CONTINUOUS
10
0.015874
20
0.344986
30
0.0
11
0.015613
21
0.344652
31
0.0
0
LINE
8
0
6
CONTINUOUS
10
0.028224
20
0.330952
30
0.0
11
0.028524
21
0.331305
31
0.0
0
LINE
8
0
6
CONTINUOUS
10
0.018453
20
0.345715
30
0.0
11
0.018140
21
0.345379
31
0.0
0
LINE
8
0
6
CONTINUOUS
10
-0.047995
20
0.246263
30
0.0
11
-0.043108
21
0.243428
31
0.0
0
LINE
8
0
6
CONTINUOUS
10
-0.037638
20
0.240269
30
0.0
11
-0.037440
21
0.240156
31
0.0
0
LINE
8
0
6
CONTINUOUS
10
-0.034516
20
0.239374
30
0.0
11
0.028387
21
0.326581
31
0.0
0
LINE
8
0
6
CONTINUOUS
10
0.015613
20
0.344652
30
0.0
11
-0.048724
21
0.262003
31
0.0
0
LINE
8
0
6
CONTINUOUS
10
0.018053
20
0.345503
30
0.0
11
0.017800
21
0.345592
31
0.0
0
LINE
8
0
6
CONTINUOUS
10
0.018247
20
0.345234
30
0.0
11
0.018053
21
0.345503
31
0.0
0
LINE
8
0
6
CONTINUOUS
10
0.018720
20
0.344563
30
0.0
11
0.018247
21
0.345234
31
0.0
0
LINE
8
0
6
CONTINUOUS
10
0.019431
20
0.343553
30
0.0
11
0.018720
21
0.344563
31
0.0
0
LINE
8
0
6
CONTINUOUS
10
0.027861
20
0.331490
30
0.0
11
0.027142
21
0.332524
31
0.0
0
LINE
8
0
6
CONTINUOUS
10
0.027932
20
0.331388
30
0.0
11
0.027861
21
0.331490
31
0.0
0
LINE
8
0
6
CONTINUOUS
10
0.028737
20
0.330224
30
0.0
11
0.028384
21
0.330737
31
0.0
0
LINE
8
0
6
CONTINUOUS
10
0.029342
20
0.327906
30
0.0
11
0.028940
21
0.329665
31
0.0
0
LINE
8
0
6
CONTINUOUS
10
0.028384
20
0.330737
30
0.0
11
0.027932
21
0.331388
31
0.0
0
LINE
8
0
6
CONTINUOUS
10
0.120617
20
0.387698
30
0.0
11
0.120142
21
0.388700
31
0.0
0
LINE
8
0
6
CONTINUOUS
10
0.119704
20
0.386940
30
0.0
11
0.120617
21
0.387698
31
0.0
0
LINE
8
0
6
CONTINUOUS
10
0.117062
20
0.385176
30
0.0
11
0.119704
21
0.386940
31
0.0
0
LINE
8
0
6
CONTINUOUS
10
0.100050
20
0.373013
30
0.0
11
0.106949
21
0.377875
31
0.0
0
LINE
8
0
6
CONTINUOUS
10
0.092354
20
0.367603
30
0.0
11
0.100050
21
0.373013
31
0.0
0
LINE
8
0
6
CONTINUOUS
10
0.084246
20
0.361915
30
0.0
11
0.092354
21
0.367603
31
0.0
0
LINE
8
0
6
CONTINUOUS
10
0.055647
20
0.342021
30
0.0
11
0.061369
21
0.346068
31
0.0
0
LINE
8
0
6
CONTINUOUS
10
0.051278
20
0.339002
30
0.0
11
0.055647
21
0.342021
31
0.0
0
LINE
8
0
6
CONTINUOUS
10
0.048466
20
0.337152
30
0.0
11
0.051278
21
0.339002
31
0.0
0
LINE
8
0
6
CONTINUOUS
10
0.046833
20
0.337325
30
0.0
11
0.047612
21
0.336537
31
0.0
0
LINE
8
0
6
CONTINUOUS
10
0.047612
20
0.336537
30
0.0
11
0.048466
21
0.337152
31
0.0
0
LINE
8
0
6
CONTINUOUS
10
0.119642
20
0.398578
30
0.0
11
0.115524
21
0.404010
31
0.0
0
LINE
8
0
6
CONTINUOUS
10
0.037363
20
0.341716
30
0.0
11
0.037718
21
0.341166
31
0.0
0
LINE
8
0
6
CONTINUOUS
10
0.115524
20
0.404010
30
0.0
11
0.113274
21
0.406441
31
0.0
0
LINE
8
0
6
CONTINUOUS
10
0.110877
20
0.408761
30
0.0
11
0.108336
21
0.410933
31
0.0
0
LINE
8
0
6
CONTINUOUS
10
0.106169
20
0.412337
30
0.0
11
0.106044
21
0.412353
31
0.0
0
LINE
8
0
6
CONTINUOUS
10
0.106044
20
0.412353
30
0.0
11
0.105161
21
0.412429
31
0.0
0
LINE
8
0
6
CONTINUOUS
10
0.105161
20
0.412429
30
0.0
11
0.104744
21
0.412443
31
0.0
0
LINE
8
0
6
CONTINUOUS
10
0.029411
20
0.358649
30
0.0
11
0.029383
21
0.358526
31
0.0
0
LINE
8
0
6
CONTINUOUS
10
0.029640
20
0.359505
30
0.0
11
0.029411
21
0.358649
31
0.0
0
LINE
8
0
6
CONTINUOUS
10
0.029770
20
0.359902
30
0.0
11
0.029640
21
0.359505
31
0.0
0
LINE
8
0
6
CONTINUOUS
10
0.113274
20
0.406441
30
0.0
11
0.110877
21
0.408761
31
0.0
0
LINE
8
0
6
CONTINUOUS
10
0.041964
20
0.343732
30
0.0
11
0.046865
21
0.347118
31
0.0
0
LINE
8
0
6
CONTINUOUS
10
0.069815
20
0.363112
30
0.0
11
0.078932
21
0.369495
31
0.0
0
LINE
8
0
6
CONTINUOUS
10
0.104447
20
0.387431
30
0.0
11
0.110916
21
0.392005
31
0.0
0
LINE
8
0
6
CONTINUOUS
10
0.046865
20
0.347118
30
0.0
11
0.053369
21
0.351636
31
0.0
0
LINE
8
0
6
CONTINUOUS
10
0.110916
20
0.392005
30
0.0
11
0.115775
21
0.395458
31
0.0
0
LINE
8
0
6
CONTINUOUS
10
0.078932
20
0.369495
30
0.0
11
0.088044
21
0.375887
31
0.0
0
LINE
8
0
6
CONTINUOUS
10
0.037859
20
0.340966
30
0.0
11
0.038910
21
0.341646
31
0.0
0
LINE
8
0
6
CONTINUOUS
10
0.037718
20
0.341166
30
0.0
11
0.037859
21
0.340966
31
0.0
0
LINE
8
0
6
CONTINUOUS
10
0.053369
20
0.351636
30
0.0
11
0.061148
21
0.357058
31
0.0
0
LINE
8
0
6
CONTINUOUS
10
0.088044
20
0.375887
30
0.0
11
0.096694
21
0.381968
31
0.0
0
LINE
8
0
6
CONTINUOUS
10
0.115775
20
0.395458
30
0.0
11
0.118780
21
0.397618
31
0.0
0
LINE
8
0
6
CONTINUOUS
10
0.038910
20
0.341646
30
0.0
11
0.041964
21
0.343732
31
0.0
0
LINE
8
0
6
CONTINUOUS
10
0.118780
20
0.397618
30
0.0
11
0.119783
21
0.398377
31
0.0
0
LINE
8
0
6
CONTINUOUS
10
0.119783
20
0.398377
30
0.0
11
0.119642
21
0.398578
31
0.0
0
LINE
8
0
6
CONTINUOUS
10
0.096694
20
0.381968
30
0.0
11
0.104447
21
0.387431
31
0.0
0
LINE
8
0
6
CONTINUOUS
10
0.061148
20
0.357058
30
0.0
11
0.069815
21
0.363112
31
0.0
0
LINE
8
0
6
CONTINUOUS
10
0.120547
20
0.397287
30
0.0
11
0.119980
21
0.398095
31
0.0
0
LINE
8
0
6
CONTINUOUS
10
0.047658
20
0.337237
30
0.0
11
0.050421
21
0.339125
31
0.0
0
LINE
8
0
6
CONTINUOUS
10
0.046706
20
0.336621
30
0.0
11
0.047658
21
0.337237
31
0.0
0
LINE
8
0
6
CONTINUOUS
10
0.050421
20
0.339125
30
0.0
11
0.054856
21
0.342189
31
0.0
0
LINE
8
0
6
CONTINUOUS
10
0.121344
20
0.395337
30
0.0
11
0.120547
21
0.397287
31
0.0
0
LINE
8
0
6
CONTINUOUS
10
0.121750
20
0.392842
30
0.0
11
0.121344
21
0.395337
31
0.0
0
LINE
8
0
6
CONTINUOUS
10
0.121565
20
0.390801
30
0.0
11
0.121750
21
0.392842
31
0.0
0
LINE
8
0
6
CONTINUOUS
10
0.037985
20
0.340786
30
0.0
11
0.038056
21
0.340683
31
0.0
0
LINE
8
0
6
CONTINUOUS
10
0.119980
20
0.398095
30
0.0
11
0.119909
21
0.398197
31
0.0
0
LINE
8
0
6
CONTINUOUS
10
0.104744
20
0.412443
30
0.0
11
0.104555
21
0.412331
31
0.0
0
LINE
8
0
6
CONTINUOUS
10
0.029939
20
0.360041
30
0.0
11
0.029770
21
0.359902
31
0.0
0
LINE
8
0
6
CONTINUOUS
10
0.052292
20
0.379880
30
0.0
11
0.044755
21
0.373611
31
0.0
0
LINE
8
0
6
CONTINUOUS
10
0.104555
20
0.412331
30
0.0
11
0.094968
21
0.407482
31
0.0
0
LINE
8
0
6
CONTINUOUS
10
0.037398
20
0.367037
30
0.0
11
0.029939
21
0.360041
31
0.0
0
LINE
8
0
6
CONTINUOUS
10
0.107144
20
0.411790
30
0.0
11
0.106169
21
0.412337
31
0.0
0
LINE
8
0
6
CONTINUOUS
10
0.029383
20
0.358526
30
0.0
11
0.029540
21
0.357575
31
0.0
0
LINE
8
0
6
CONTINUOUS
10
0.086802
20
0.403074
30
0.0
11
0.078414
21
0.398170
31
0.0
0
LINE
8
0
6
CONTINUOUS
10
0.078414
20
0.398170
30
0.0
11
0.070048
21
0.392872
31
0.0
0
LINE
8
0
6
CONTINUOUS
10
0.094968
20
0.407482
30
0.0
11
0.086802
21
0.403074
31
0.0
0
LINE
8
0
6
CONTINUOUS
10
0.108336
20
0.410933
30
0.0
11
0.107144
21
0.411790
31
0.0
0
LINE
8
0
6
CONTINUOUS
10
0.068312
20
0.350906
30
0.0
11
0.076046
21
0.356309
31
0.0
0
LINE
8
0
6
CONTINUOUS
10
0.038224
20
0.341222
30
0.0
11
0.038350
21
0.341042
31
0.0
0
LINE
8
0
6
CONTINUOUS
10
0.119543
20
0.397941
30
0.0
11
0.119417
21
0.398121
31
0.0
0
LINE
8
0
6
CONTINUOUS
10
0.044755
20
0.373611
30
0.0
11
0.037398
21
0.367037
31
0.0
0
LINE
8
0
6
CONTINUOUS
10
0.060007
20
0.385835
30
0.0
11
0.052292
21
0.379880
31
0.0
0
LINE
8
0
6
CONTINUOUS
10
0.076046
20
0.356309
30
0.0
11
0.084246
21
0.361915
31
0.0
0
LINE
8
0
6
CONTINUOUS
10
0.112704
20
0.381944
30
0.0
11
0.117062
21
0.385176
31
0.0
0
LINE
8
0
6
CONTINUOUS
10
0.061369
20
0.346068
30
0.0
11
0.068312
21
0.350906
31
0.0
0
LINE
8
0
6
CONTINUOUS
10
0.106949
20
0.377875
30
0.0
11
0.110801
21
0.380599
31
0.0
0
LINE
8
0
6
CONTINUOUS
10
0.112596
20
0.381867
30
0.0
11
0.112704
21
0.381944
31
0.0
0
LINE
8
0
6
CONTINUOUS
10
0.067783
20
0.351185
30
0.0
11
0.075626
21
0.356664
31
0.0
0
LINE
8
0
6
CONTINUOUS
10
0.099952
20
0.373728
30
0.0
11
0.106968
21
0.378673
31
0.0
0
LINE
8
0
6
CONTINUOUS
10
0.119940
20
0.387892
30
0.0
11
0.120847
21
0.388579
31
0.0
0
LINE
8
0
6
CONTINUOUS
10
0.120847
20
0.388579
30
0.0
11
0.121565
21
0.390801
31
0.0
0
LINE
8
0
6
CONTINUOUS
10
0.060742
20
0.346278
30
0.0
11
0.067783
21
0.351185
31
0.0
0
LINE
8
0
6
CONTINUOUS
10
0.117219
20
0.385937
30
0.0
11
0.119940
21
0.387892
31
0.0
0
LINE
8
0
6
CONTINUOUS
10
0.092124
20
0.368225
30
0.0
11
0.099952
21
0.373728
31
0.0
0
LINE
8
0
6
CONTINUOUS
10
0.054856
20
0.342189
30
0.0
11
0.060742
21
0.346278
31
0.0
0
LINE
8
0
6
CONTINUOUS
10
0.083877
20
0.362440
30
0.0
11
0.092124
21
0.368225
31
0.0
0
LINE
8
0
6
CONTINUOUS
10
0.112822
20
0.382811
30
0.0
11
0.117219
21
0.385937
31
0.0
0
LINE
8
0
6
CONTINUOUS
10
0.075626
20
0.356664
30
0.0
11
0.083877
21
0.362440
31
0.0
0
LINE
8
0
6
CONTINUOUS
10
0.106968
20
0.378673
30
0.0
11
0.112822
21
0.382811
31
0.0
0
LINE
8
0
6
CONTINUOUS
10
0.067193
20
0.390899
30
0.0
11
0.066131
21
0.390158
31
0.0
0
LINE
8
0
6
CONTINUOUS
10
0.068147
20
0.391564
30
0.0
11
0.067193
21
0.390899
31
0.0
0
LINE
8
0
6
CONTINUOUS
10
0.068944
20
0.392118
30
0.0
11
0.068147
21
0.391564
31
0.0
0
LINE
8
0
6
CONTINUOUS
10
0.069545
20
0.392533
30
0.0
11
0.068944
21
0.392118
31
0.0
0
LINE
8
0
6
CONTINUOUS
10
0.069919
20
0.392788
30
0.0
11
0.069545
21
0.392533
31
0.0
0
LINE
8
0
6
CONTINUOUS
10
0.070048
20
0.392872
30
0.0
11
0.069919
21
0.392788
31
0.0
0
LINE
8
0
6
CONTINUOUS
10
0.060130
20
0.385928
30
0.0
11
0.060007
21
0.385835
31
0.0
0
LINE
8
0
6
CONTINUOUS
10
0.060498
20
0.386193
30
0.0
11
0.060130
21
0.385928
31
0.0
0
LINE
8
0
6
CONTINUOUS
10
0.061094
20
0.386616
30
0.0
11
0.060498
21
0.386193
31
0.0
0
LINE
8
0
6
CONTINUOUS
10
0.061887
20
0.387177
30
0.0
11
0.061094
21
0.386616
31
0.0
0
LINE
8
0
6
CONTINUOUS
10
0.062837
20
0.387847
30
0.0
11
0.061887
21
0.387177
31
0.0
0
LINE
8
0
6
CONTINUOUS
10
0.063897
20
0.388592
30
0.0
11
0.062837
21
0.387847
31
0.0
0
LINE
8
0
6
CONTINUOUS
10
0.065014
20
0.389375
30
0.0
11
0.063897
21
0.388592
31
0.0
0
LINE
8
0
6
CONTINUOUS
10
0.066131
20
0.390158
30
0.0
11
0.065014
21
0.389375
31
0.0
0
LINE
8
0
6
CONTINUOUS
10
0.038532
20
0.328735
30
0.0
11
0.039218
21
0.326734
31
0.0
0
LINE
8
0
6
CONTINUOUS
10
0.047410
20
0.329296
30
0.0
11
0.047170
21
0.330034
31
0.0
0
LINE
8
0
6
CONTINUOUS
10
0.047491
20
0.329041
30
0.0
11
0.047410
21
0.329296
31
0.0
0
LINE
8
0
6
CONTINUOUS
10
0.046610
20
0.328423
30
0.0
11
0.047491
21
0.329041
31
0.0
0
LINE
8
0
6
CONTINUOUS
10
0.039244
20
0.326652
30
0.0
11
0.039619
21
0.325196
31
0.0
0
LINE
8
0
6
CONTINUOUS
10
0.039620
20
0.325202
30
0.0
11
0.039752
21
0.324847
31
0.0
0
LINE
8
0
6
CONTINUOUS
10
0.046641
20
0.336639
30
0.0
11
0.046663
21
0.336787
31
0.0
0
LINE
8
0
6
CONTINUOUS
10
0.046568
20
0.331884
30
0.0
11
0.046459
21
0.334290
31
0.0
0
LINE
8
0
6
CONTINUOUS
10
0.046459
20
0.334290
30
0.0
11
0.046583
21
0.335489
31
0.0
0
LINE
8
0
6
CONTINUOUS
10
0.046583
20
0.335489
30
0.0
11
0.046641
21
0.336639
31
0.0
0
LINE
8
0
6
CONTINUOUS
10
0.041108
20
0.324568
30
0.0
11
0.046610
21
0.328423
31
0.0
0
LINE
8
0
6
CONTINUOUS
10
0.040130
20
0.323882
30
0.0
11
0.041108
21
0.324568
31
0.0
0
LINE
8
0
6
CONTINUOUS
10
0.037636
20
0.336779
30
0.0
11
0.037706
21
0.332963
31
0.0
0
LINE
8
0
6
CONTINUOUS
10
0.039747
20
0.324855
30
0.0
11
0.040029
21
0.324137
31
0.0
0
LINE
8
0
6
CONTINUOUS
10
0.039619
20
0.325196
30
0.0
11
0.039747
21
0.324855
31
0.0
0
LINE
8
0
6
CONTINUOUS
10
0.039253
20
0.326639
30
0.0
11
0.039620
21
0.325202
31
0.0
0
LINE
8
0
6
CONTINUOUS
10
0.039218
20
0.326734
30
0.0
11
0.039266
21
0.326596
31
0.0
0
LINE
8
0
6
CONTINUOUS
10
0.046575
20
0.331718
30
0.0
11
0.046568
21
0.331884
31
0.0
0
LINE
8
0
6
CONTINUOUS
10
0.038450
20
0.340932
30
0.0
11
0.037636
21
0.336779
31
0.0
0
LINE
8
0
6
CONTINUOUS
10
0.107233
20
0.376215
30
0.0
11
0.108000
21
0.376828
31
0.0
0
LINE
8
0
6
CONTINUOUS
10
0.111904
20
0.379944
30
0.0
11
0.113217
21
0.380991
31
0.0
0
LINE
8
0
6
CONTINUOUS
10
0.056460
20
0.341214
30
0.0
11
0.057887
21
0.342087
31
0.0
0
LINE
8
0
6
CONTINUOUS
10
0.062138
20
0.344688
30
0.0
11
0.062654
21
0.345003
31
0.0
0
LINE
8
0
6
CONTINUOUS
10
0.099453
20
0.369808
30
0.0
11
0.099566
21
0.369902
31
0.0
0
LINE
8
0
6
CONTINUOUS
10
0.107079
20
0.376089
30
0.0
11
0.107233
21
0.376215
31
0.0
0
LINE
8
0
6
CONTINUOUS
10
0.099039
20
0.369490
30
0.0
11
0.099088
21
0.369527
31
0.0
0
LINE
8
0
6
CONTINUOUS
10
0.067188
20
0.347688
30
0.0
11
0.067781
21
0.348039
31
0.0
0
LINE
8
0
6
CONTINUOUS
10
0.092139
20
0.364306
30
0.0
11
0.094934
21
0.366406
31
0.0
0
LINE
8
0
6
CONTINUOUS
10
0.073313
20
0.351402
30
0.0
11
0.075296
21
0.352697
31
0.0
0
LINE
8
0
6
CONTINUOUS
10
0.085821
20
0.359681
30
0.0
11
0.086294
21
0.360012
31
0.0
0
LINE
8
0
6
CONTINUOUS
10
0.085649
20
0.359561
30
0.0
11
0.085821
21
0.359681
31
0.0
0
LINE
8
0
6
CONTINUOUS
10
0.120617
20
0.387698
30
0.0
11
0.119704
21
0.386940
31
0.0
0
LINE
8
0
6
CONTINUOUS
10
0.119551
20
0.386282
30
0.0
11
0.120617
21
0.387698
31
0.0
0
LINE
8
0
6
CONTINUOUS
10
0.119704
20
0.386940
30
0.0
11
0.117062
21
0.385176
31
0.0
0
LINE
8
0
6
CONTINUOUS
10
0.106949
20
0.377875
30
0.0
11
0.100050
21
0.373013
31
0.0
0
LINE
8
0
6
CONTINUOUS
10
0.100050
20
0.373013
30
0.0
11
0.092354
21
0.367603
31
0.0
0
LINE
8
0
6
CONTINUOUS
10
0.092354
20
0.367603
30
0.0
11
0.084246
21
0.361915
31
0.0
0
LINE
8
0
6
CONTINUOUS
10
0.061369
20
0.346068
30
0.0
11
0.055647
21
0.342021
31
0.0
0
LINE
8
0
6
CONTINUOUS
10
0.055647
20
0.342021
30
0.0
11
0.051278
21
0.339002
31
0.0
0
LINE
8
0
6
CONTINUOUS
10
0.051278
20
0.339002
30
0.0
11
0.048466
21
0.337152
31
0.0
0
LINE
8
0
6
CONTINUOUS
10
0.048466
20
0.337152
30
0.0
11
0.047612
21
0.336537
31
0.0
0
LINE
8
0
6
CONTINUOUS
10
0.047612
20
0.336537
30
0.0
11
0.049307
21
0.337055
31
0.0
0
LINE
8
0
6
CONTINUOUS
10
0.112704
20
0.381944
30
0.0
11
0.106949
21
0.377875
31
0.0
0
LINE
8
0
6
CONTINUOUS
10
0.084246
20
0.361915
30
0.0
11
0.076046
21
0.356309
31
0.0
0
LINE
8
0
6
CONTINUOUS
10
0.076046
20
0.356309
30
0.0
11
0.068312
21
0.350906
31
0.0
0
LINE
8
0
6
CONTINUOUS
10
0.068312
20
0.350906
30
0.0
11
0.061369
21
0.346068
31
0.0
0
LINE
8
0
6
CONTINUOUS
10
0.117062
20
0.385176
30
0.0
11
0.112704
21
0.381944
31
0.0
0
LINE
8
0
6
CONTINUOUS
10
0.115244
20
0.382633
30
0.0
11
0.119551
21
0.386282
31
0.0
0
LINE
8
0
6
CONTINUOUS
10
0.049307
20
0.337055
30
0.0
11
0.054223
21
0.339868
31
0.0
0
LINE
8
0
6
CONTINUOUS
10
0.057887
20
0.342087
30
0.0
11
0.058208
21
0.341635
31
0.0
0
LINE
8
0
6
CONTINUOUS
10
0.056922
20
0.340568
30
0.0
11
0.056453
21
0.341231
31
0.0
0
LINE
8
0
6
CONTINUOUS
10
0.056558
20
0.340305
30
0.0
11
0.056922
21
0.340568
31
0.0
0
LINE
8
0
6
CONTINUOUS
10
0.055493
20
0.339556
30
0.0
11
0.056558
21
0.340305
31
0.0
0
LINE
8
0
6
CONTINUOUS
10
0.054792
20
0.339071
30
0.0
11
0.055493
21
0.339556
31
0.0
0
LINE
8
0
6
CONTINUOUS
10
0.054203
20
0.339903
30
0.0
11
0.054792
21
0.339071
31
0.0
0
LINE
8
0
6
CONTINUOUS
10
0.060458
20
0.342980
30
0.0
11
0.059978
21
0.343658
31
0.0
0
LINE
8
0
6
CONTINUOUS
10
0.060094
20
0.342717
30
0.0
11
0.060458
21
0.342980
31
0.0
0
LINE
8
0
6
CONTINUOUS
10
0.059029
20
0.341969
30
0.0
11
0.060094
21
0.342717
31
0.0
0
LINE
8
0
6
CONTINUOUS
10
0.058328
20
0.341484
30
0.0
11
0.059029
21
0.341969
31
0.0
0
LINE
8
0
6
CONTINUOUS
10
0.057736
20
0.342319
30
0.0
11
0.058328
21
0.341484
31
0.0
0
LINE
8
0
6
CONTINUOUS
10
0.067222
20
0.347640
30
0.0
11
0.066728
21
0.348337
31
0.0
0
LINE
8
0
6
CONTINUOUS
10
0.066858
20
0.347377
30
0.0
11
0.067222
21
0.347640
31
0.0
0
LINE
8
0
6
CONTINUOUS
10
0.065792
20
0.346629
30
0.0
11
0.066858
21
0.347377
31
0.0
0
LINE
8
0
6
CONTINUOUS
10
0.065091
20
0.346144
30
0.0
11
0.065792
21
0.346629
31
0.0
0
LINE
8
0
6
CONTINUOUS
10
0.064499
20
0.346980
30
0.0
11
0.065091
21
0.346144
31
0.0
0
LINE
8
0
6
CONTINUOUS
10
0.076228
20
0.353925
30
0.0
11
0.075716
21
0.354648
31
0.0
0
LINE
8
0
6
CONTINUOUS
10
0.075864
20
0.353662
30
0.0
11
0.076228
21
0.353925
31
0.0
0
LINE
8
0
6
CONTINUOUS
10
0.074798
20
0.352914
30
0.0
11
0.075864
21
0.353662
31
0.0
0
LINE
8
0
6
CONTINUOUS
10
0.074097
20
0.352429
30
0.0
11
0.074798
21
0.352914
31
0.0
0
LINE
8
0
6
CONTINUOUS
10
0.073529
20
0.353231
30
0.0
11
0.074097
21
0.352429
31
0.0
0
LINE
8
0
6
CONTINUOUS
10
0.086470
20
0.361073
30
0.0
11
0.085934
21
0.361829
31
0.0
0
LINE
8
0
6
CONTINUOUS
10
0.086106
20
0.360810
30
0.0
11
0.086470
21
0.361073
31
0.0
0
LINE
8
0
6
CONTINUOUS
10
0.085040
20
0.360062
30
0.0
11
0.086106
21
0.360810
31
0.0
0
LINE
8
0
6
CONTINUOUS
10
0.084339
20
0.359577
30
0.0
11
0.085040
21
0.360062
31
0.0
0
LINE
8
0
6
CONTINUOUS
10
0.083782
20
0.360363
30
0.0
11
0.084339
21
0.359577
31
0.0
0
LINE
8
0
6
CONTINUOUS
10
0.096683
20
0.368259
30
0.0
11
0.096134
21
0.369034
31
0.0
0
LINE
8
0
6
CONTINUOUS
10
0.096319
20
0.367996
30
0.0
11
0.096683
21
0.368259
31
0.0
0
LINE
8
0
6
CONTINUOUS
10
0.095253
20
0.367248
30
0.0
11
0.096319
21
0.367996
31
0.0
0
LINE
8
0
6
CONTINUOUS
10
0.094552
20
0.366763
30
0.0
11
0.095253
21
0.367248
31
0.0
0
LINE
8
0
6
CONTINUOUS
10
0.094024
20
0.367510
30
0.0
11
0.094552
21
0.366763
31
0.0
0
LINE
8
0
6
CONTINUOUS
10
0.105660
20
0.374578
30
0.0
11
0.105093
21
0.375380
31
0.0
0
LINE
8
0
6
CONTINUOUS
10
0.105296
20
0.374315
30
0.0
11
0.105660
21
0.374578
31
0.0
0
LINE
8
0
6
CONTINUOUS
10
0.104231
20
0.373567
30
0.0
11
0.105296
21
0.374315
31
0.0
0
LINE
8
0
6
CONTINUOUS
10
0.103530
20
0.373082
30
0.0
11
0.104231
21
0.373567
31
0.0
0
LINE
8
0
6
CONTINUOUS
10
0.103021
20
0.373799
30
0.0
11
0.103530
21
0.373082
31
0.0
0
LINE
8
0
6
CONTINUOUS
10
0.112343
20
0.379343
30
0.0
11
0.111770
21
0.380152
31
0.0
0
LINE
8
0
6
CONTINUOUS
10
0.111979
20
0.379080
30
0.0
11
0.112343
21
0.379343
31
0.0
0
LINE
8
0
6
CONTINUOUS
10
0.110914
20
0.378332
30
0.0
11
0.111979
21
0.379080
31
0.0
0
LINE
8
0
6
CONTINUOUS
10
0.110212
20
0.377847
30
0.0
11
0.110914
21
0.378332
31
0.0
0
LINE
8
0
6
CONTINUOUS
10
0.109723
20
0.378537
30
0.0
11
0.110212
21
0.377847
31
0.0
0
LINE
8
0
6
CONTINUOUS
10
0.115813
20
0.381837
30
0.0
11
0.115224
21
0.382668
31
0.0
0
LINE
8
0
6
CONTINUOUS
10
0.115448
20
0.381574
30
0.0
11
0.115813
21
0.381837
31
0.0
0
LINE
8
0
6
CONTINUOUS
10
0.114383
20
0.380826
30
0.0
11
0.115448
21
0.381574
31
0.0
0
LINE
8
0
6
CONTINUOUS
10
0.113682
20
0.380341
30
0.0
11
0.114383
21
0.380826
31
0.0
0
LINE
8
0
6
CONTINUOUS
10
0.113209
20
0.381009
30
0.0
11
0.113682
21
0.380341
31
0.0
0
LINE
8
0
6
CONTINUOUS
10
0.062518
20
0.344189
30
0.0
11
0.062157
21
0.344700
31
0.0
0
LINE
8
0
6
CONTINUOUS
10
0.059603
20
0.342055
30
0.0
11
0.060668
21
0.342803
31
0.0
0
LINE
8
0
6
CONTINUOUS
10
0.058902
20
0.341570
30
0.0
11
0.059603
21
0.342055
31
0.0
0
LINE
8
0
6
CONTINUOUS
10
0.062562
20
0.344089
30
0.0
11
0.062088
21
0.344759
31
0.0
0
LINE
8
0
6
CONTINUOUS
10
0.062198
20
0.343826
30
0.0
11
0.062562
21
0.344089
31
0.0
0
LINE
8
0
6
CONTINUOUS
10
0.061133
20
0.343078
30
0.0
11
0.062198
21
0.343826
31
0.0
0
LINE
8
0
6
CONTINUOUS
10
0.060432
20
0.342593
30
0.0
11
0.061133
21
0.343078
31
0.0
0
LINE
8
0
6
CONTINUOUS
10
0.066720
20
0.346923
30
0.0
11
0.067084
21
0.347186
31
0.0
0
LINE
8
0
6
CONTINUOUS
10
0.065655
20
0.346174
30
0.0
11
0.066720
21
0.346923
31
0.0
0
LINE
8
0
6
CONTINUOUS
10
0.064953
20
0.345689
30
0.0
11
0.065655
21
0.346174
31
0.0
0
LINE
8
0
6
CONTINUOUS
10
0.064386
20
0.346491
30
0.0
11
0.064953
21
0.345689
31
0.0
0
LINE
8
0
6
CONTINUOUS
10
0.073898
20
0.351923
30
0.0
11
0.073398
21
0.352630
31
0.0
0
LINE
8
0
6
CONTINUOUS
10
0.073534
20
0.351660
30
0.0
11
0.073898
21
0.351923
31
0.0
0
LINE
8
0
6
CONTINUOUS
10
0.072468
20
0.350912
30
0.0
11
0.073534
21
0.351660
31
0.0
0
LINE
8
0
6
CONTINUOUS
10
0.071767
20
0.350427
30
0.0
11
0.072468
21
0.350912
31
0.0
0
LINE
8
0
6
CONTINUOUS
10
0.071202
20
0.351225
30
0.0
11
0.071767
21
0.350427
31
0.0
0
LINE
8
0
6
CONTINUOUS
10
0.082140
20
0.357678
30
0.0
11
0.081644
21
0.358436
31
0.0
0
LINE
8
0
6
CONTINUOUS
10
0.081736
20
0.357387
30
0.0
11
0.082140
21
0.357678
31
0.0
0
LINE
8
0
6
CONTINUOUS
10
0.080665
20
0.356635
30
0.0
11
0.081736
21
0.357387
31
0.0
0
LINE
8
0
6
CONTINUOUS
10
0.079997
20
0.356174
30
0.0
11
0.080665
21
0.356635
31
0.0
0
LINE
8
0
6
CONTINUOUS
10
0.079479
20
0.356967
30
0.0
11
0.079997
21
0.356174
31
0.0
0
LINE
8
0
6
CONTINUOUS
10
0.091104
20
0.363955
30
0.0
11
0.090572
21
0.364706
31
0.0
0
LINE
8
0
6
CONTINUOUS
10
0.090740
20
0.363692
30
0.0
11
0.091104
21
0.363955
31
0.0
0
LINE
8
0
6
CONTINUOUS
10
0.089674
20
0.362944
30
0.0
11
0.090740
21
0.363692
31
0.0
0
LINE
8
0
6
CONTINUOUS
10
0.088973
20
0.362459
30
0.0
11
0.089674
21
0.362944
31
0.0
0
LINE
8
0
6
CONTINUOUS
10
0.088435
20
0.363219
30
0.0
11
0.088973
21
0.362459
31
0.0
0
LINE
8
0
6
CONTINUOUS
10
0.099412
20
0.369804
30
0.0
11
0.098861
21
0.370582
31
0.0
0
LINE
8
0
6
CONTINUOUS
10
0.099047
20
0.369541
30
0.0
11
0.099412
21
0.369804
31
0.0
0
LINE
8
0
6
CONTINUOUS
10
0.097982
20
0.368793
30
0.0
11
0.099047
21
0.369541
31
0.0
0
LINE
8
0
6
CONTINUOUS
10
0.097281
20
0.368308
30
0.0
11
0.097982
21
0.368793
31
0.0
0
LINE
8
0
6
CONTINUOUS
10
0.096766
20
0.369035
30
0.0
11
0.097281
21
0.368308
31
0.0
0
LINE
8
0
6
CONTINUOUS
10
0.106208
20
0.374607
30
0.0
11
0.105650
21
0.375395
31
0.0
0
LINE
8
0
6
CONTINUOUS
10
0.105844
20
0.374344
30
0.0
11
0.106208
21
0.374607
31
0.0
0
LINE
8
0
6
CONTINUOUS
10
0.104779
20
0.373596
30
0.0
11
0.105844
21
0.374344
31
0.0
0
LINE
8
0
6
CONTINUOUS
10
0.104077
20
0.373111
30
0.0
11
0.104779
21
0.373596
31
0.0
0
LINE
8
0
6
CONTINUOUS
10
0.110194
20
0.377457
30
0.0
11
0.110558
21
0.377720
31
0.0
0
LINE
8
0
6
CONTINUOUS
10
0.109129
20
0.376709
30
0.0
11
0.110194
21
0.377457
31
0.0
0
LINE
8
0
6
CONTINUOUS
10
0.108428
20
0.376224
30
0.0
11
0.109129
21
0.376709
31
0.0
0
LINE
8
0
6
CONTINUOUS
10
0.107946
20
0.376903
30
0.0
11
0.108428
21
0.376224
31
0.0
0
LINE
8
0
6
CONTINUOUS
10
0.111694
20
0.378561
30
0.0
11
0.112058
21
0.378824
31
0.0
0
LINE
8
0
6
CONTINUOUS
10
0.110628
20
0.377813
30
0.0
11
0.111694
21
0.378561
31
0.0
0
LINE
8
0
6
CONTINUOUS
10
0.067579
20
0.347304
30
0.0
11
0.067271
21
0.347738
31
0.0
0
LINE
8
0
6
CONTINUOUS
10
0.064051
20
0.344751
30
0.0
11
0.065291
21
0.345622
31
0.0
0
LINE
8
0
6
CONTINUOUS
10
0.063234
20
0.344186
30
0.0
11
0.064051
21
0.344751
31
0.0
0
LINE
8
0
6
CONTINUOUS
10
0.062654
20
0.345004
30
0.0
11
0.063234
21
0.344186
31
0.0
0
LINE
8
0
6
CONTINUOUS
10
0.067501
20
0.347123
30
0.0
11
0.067048
21
0.347761
31
0.0
0
LINE
8
0
6
CONTINUOUS
10
0.067077
20
0.346816
30
0.0
11
0.067501
21
0.347123
31
0.0
0
LINE
8
0
6
CONTINUOUS
10
0.065836
20
0.345945
30
0.0
11
0.067077
21
0.346816
31
0.0
0
LINE
8
0
6
CONTINUOUS
10
0.065019
20
0.345380
30
0.0
11
0.065836
21
0.345945
31
0.0
0
LINE
8
0
6
CONTINUOUS
10
0.064433
20
0.346207
30
0.0
11
0.065019
21
0.345380
31
0.0
0
LINE
8
0
6
CONTINUOUS
10
0.072270
20
0.350402
30
0.0
11
0.072694
21
0.350708
31
0.0
0
LINE
8
0
6
CONTINUOUS
10
0.071030
20
0.349530
30
0.0
11
0.072270
21
0.350402
31
0.0
0
LINE
8
0
6
CONTINUOUS
10
0.070213
20
0.348966
30
0.0
11
0.071030
21
0.349530
31
0.0
0
LINE
8
0
6
CONTINUOUS
10
0.069630
20
0.349787
30
0.0
11
0.070213
21
0.348966
31
0.0
0
LINE
8
0
6
CONTINUOUS
10
0.079901
20
0.355715
30
0.0
11
0.080325
21
0.356022
31
0.0
0
LINE
8
0
6
CONTINUOUS
10
0.078661
20
0.354844
30
0.0
11
0.079901
21
0.355715
31
0.0
0
LINE
8
0
6
CONTINUOUS
10
0.077844
20
0.354279
30
0.0
11
0.078661
21
0.354844
31
0.0
0
LINE
8
0
6
CONTINUOUS
10
0.077277
20
0.355078
30
0.0
11
0.077844
21
0.354279
31
0.0
0
LINE
8
0
6
CONTINUOUS
10
0.089088
20
0.362155
30
0.0
11
0.088559
21
0.362900
31
0.0
0
LINE
8
0
6
CONTINUOUS
10
0.088664
20
0.361849
30
0.0
11
0.089088
21
0.362155
31
0.0
0
LINE
8
0
6
CONTINUOUS
10
0.087423
20
0.360978
30
0.0
11
0.088664
21
0.361849
31
0.0
0
LINE
8
0
6
CONTINUOUS
10
0.086607
20
0.360413
30
0.0
11
0.087423
21
0.360978
31
0.0
0
LINE
8
0
6
CONTINUOUS
10
0.086069
20
0.361171
30
0.0
11
0.086607
21
0.360413
31
0.0
0
LINE
8
0
6
CONTINUOUS
10
0.097056
20
0.367750
30
0.0
11
0.097480
21
0.368057
31
0.0
0
LINE
8
0
6
CONTINUOUS
10
0.095816
20
0.366879
30
0.0
11
0.097056
21
0.367750
31
0.0
0
LINE
8
0
6
CONTINUOUS
10
0.094999
20
0.366314
30
0.0
11
0.095816
21
0.366879
31
0.0
0
LINE
8
0
6
CONTINUOUS
10
0.094494
20
0.367027
30
0.0
11
0.094999
21
0.366314
31
0.0
0
LINE
8
0
6
CONTINUOUS
10
0.104068
20
0.372717
30
0.0
11
0.103669
21
0.373280
31
0.0
0
LINE
8
0
6
CONTINUOUS
10
0.103644
20
0.372411
30
0.0
11
0.104068
21
0.372717
31
0.0
0
LINE
8
0
6
CONTINUOUS
10
0.102403
20
0.371540
30
0.0
11
0.103644
21
0.372411
31
0.0
0
LINE
8
0
6
CONTINUOUS
10
0.101587
20
0.370975
30
0.0
11
0.102403
21
0.371540
31
0.0
0
LINE
8
0
6
CONTINUOUS
10
0.101110
20
0.371648
30
0.0
11
0.101587
21
0.370975
31
0.0
0
LINE
8
0
6
CONTINUOUS
10
0.107652
20
0.375282
30
0.0
11
0.107079
21
0.376089
31
0.0
0
LINE
8
0
6
CONTINUOUS
10
0.107228
20
0.374976
30
0.0
11
0.107652
21
0.375282
31
0.0
0
LINE
8
0
6
CONTINUOUS
10
0.105988
20
0.374104
30
0.0
11
0.107228
21
0.374976
31
0.0
0
LINE
8
0
6
CONTINUOUS
10
0.105171
20
0.373540
30
0.0
11
0.105988
21
0.374104
31
0.0
0
LINE
8
0
6
CONTINUOUS
10
0.107655
20
0.375353
30
0.0
11
0.107113
21
0.376117
31
0.0
0
LINE
8
0
6
CONTINUOUS
10
0.104086
20
0.372920
30
0.0
11
0.103771
21
0.373364
31
0.0
0
LINE
8
0
6
CONTINUOUS
10
0.073625
20
0.351029
30
0.0
11
0.073345
21
0.351423
31
0.0
0
LINE
8
0
6
CONTINUOUS
10
0.070414
20
0.348664
30
0.0
11
0.070838
21
0.348970
31
0.0
0
LINE
8
0
6
CONTINUOUS
10
0.069174
20
0.347792
30
0.0
11
0.070414
21
0.348664
31
0.0
0
LINE
8
0
6
CONTINUOUS
10
0.068357
20
0.347228
30
0.0
11
0.069174
21
0.347792
31
0.0
0
LINE
8
0
6
CONTINUOUS
10
0.067769
20
0.348056
30
0.0
11
0.068357
21
0.347228
31
0.0
0
LINE
8
0
6
CONTINUOUS
10
0.073664
20
0.350908
30
0.0
11
0.073205
21
0.351554
31
0.0
0
LINE
8
0
6
CONTINUOUS
10
0.073240
20
0.350601
30
0.0
11
0.073664
21
0.350908
31
0.0
0
LINE
8
0
6
CONTINUOUS
10
0.071999
20
0.349730
30
0.0
11
0.073240
21
0.350601
31
0.0
0
LINE
8
0
6
CONTINUOUS
10
0.071182
20
0.349166
30
0.0
11
0.071999
21
0.349730
31
0.0
0
LINE
8
0
6
CONTINUOUS
10
0.070741
20
0.349787
30
0.0
11
0.071182
21
0.349166
31
0.0
0
LINE
8
0
6
CONTINUOUS
10
0.078435
20
0.354207
30
0.0
11
0.078859
21
0.354513
31
0.0
0
LINE
8
0
6
CONTINUOUS
10
0.077194
20
0.353336
30
0.0
11
0.078435
21
0.354207
31
0.0
0
LINE
8
0
6
CONTINUOUS
10
0.076378
20
0.352771
30
0.0
11
0.077194
21
0.353336
31
0.0
0
LINE
8
0
6
CONTINUOUS
10
0.075803
20
0.353581
30
0.0
11
0.076378
21
0.352771
31
0.0
0
LINE
8
0
6
CONTINUOUS
10
0.085473
20
0.359131
30
0.0
11
0.084963
21
0.359850
31
0.0
0
LINE
8
0
6
CONTINUOUS
10
0.085049
20
0.358825
30
0.0
11
0.085473
21
0.359131
31
0.0
0
LINE
8
0
6
CONTINUOUS
10
0.083808
20
0.357954
30
0.0
11
0.085049
21
0.358825
31
0.0
0
LINE
8
0
6
CONTINUOUS
10
0.082992
20
0.357389
30
0.0
11
0.083808
21
0.357954
31
0.0
0
LINE
8
0
6
CONTINUOUS
10
0.082442
20
0.358164
30
0.0
11
0.082992
21
0.357389
31
0.0
0
LINE
8
0
6
CONTINUOUS
10
0.092375
20
0.363973
30
0.0
11
0.091834
21
0.364735
31
0.0
0
LINE
8
0
6
CONTINUOUS
10
0.091951
20
0.363667
30
0.0
11
0.092375
21
0.363973
31
0.0
0
LINE
8
0
6
CONTINUOUS
10
0.090710
20
0.362796
30
0.0
11
0.091951
21
0.363667
31
0.0
0
LINE
8
0
6
CONTINUOUS
10
0.089893
20
0.362231
30
0.0
11
0.090710
21
0.362796
31
0.0
0
LINE
8
0
6
CONTINUOUS
10
0.089375
20
0.362962
30
0.0
11
0.089893
21
0.362231
31
0.0
0
LINE
8
0
6
CONTINUOUS
10
0.098382
20
0.368209
30
0.0
11
0.097815
21
0.369007
31
0.0
0
LINE
8
0
6
CONTINUOUS
10
0.097958
20
0.367902
30
0.0
11
0.098382
21
0.368209
31
0.0
0
LINE
8
0
6
CONTINUOUS
10
0.096717
20
0.367031
30
0.0
11
0.097958
21
0.367902
31
0.0
0
LINE
8
0
6
CONTINUOUS
10
0.095900
20
0.366466
30
0.0
11
0.096717
21
0.367031
31
0.0
0
LINE
8
0
6
CONTINUOUS
10
0.102042
20
0.370807
30
0.0
11
0.102466
21
0.371113
31
0.0
0
LINE
8
0
6
CONTINUOUS
10
0.100801
20
0.369936
30
0.0
11
0.102042
21
0.370807
31
0.0
0
LINE
8
0
6
CONTINUOUS
10
0.099985
20
0.369371
30
0.0
11
0.100801
21
0.369936
31
0.0
0
LINE
8
0
6
CONTINUOUS
10
0.099520
20
0.370026
30
0.0
11
0.099985
21
0.369371
31
0.0
0
LINE
8
0
6
CONTINUOUS
10
0.103446
20
0.371836
30
0.0
11
0.103870
21
0.372142
31
0.0
0
LINE
8
0
6
CONTINUOUS
10
0.102206
20
0.370964
30
0.0
11
0.103446
21
0.371836
31
0.0
0
LINE
8
0
6
CONTINUOUS
10
0.099566
20
0.369902
30
0.0
11
0.099909
21
0.369419
31
0.0
0
LINE
8
0
6
CONTINUOUS
10
0.092268
20
0.364146
30
0.0
11
0.092149
21
0.364314
31
0.0
0
LINE
8
0
6
CONTINUOUS
10
0.088581
20
0.360853
30
0.0
11
0.088199
21
0.361391
31
0.0
0
LINE
8
0
6
CONTINUOUS
10
0.091767
20
0.363085
30
0.0
11
0.092131
21
0.363348
31
0.0
0
LINE
8
0
6
CONTINUOUS
10
0.090702
20
0.362337
30
0.0
11
0.091767
21
0.363085
31
0.0
0
LINE
8
0
6
CONTINUOUS
10
0.090476
20
0.362162
30
0.0
11
0.090840
21
0.362425
31
0.0
0
LINE
8
0
6
CONTINUOUS
10
0.089410
20
0.361414
30
0.0
11
0.090476
21
0.362162
31
0.0
0
LINE
8
0
6
CONTINUOUS
10
0.088709
20
0.360929
30
0.0
11
0.089410
21
0.361414
31
0.0
0
LINE
8
0
6
CONTINUOUS
10
0.088298
20
0.361509
30
0.0
11
0.088709
21
0.360929
31
0.0
0
LINE
8
0
6
CONTINUOUS
10
0.088588
20
0.360837
30
0.0
11
0.088162
21
0.361438
31
0.0
0
LINE
8
0
6
CONTINUOUS
10
0.088224
20
0.360574
30
0.0
11
0.088588
21
0.360837
31
0.0
0
LINE
8
0
6
CONTINUOUS
10
0.087158
20
0.359826
30
0.0
11
0.088224
21
0.360574
31
0.0
0
LINE
8
0
6
CONTINUOUS
10
0.086457
20
0.359341
30
0.0
11
0.087158
21
0.359826
31
0.0
0
LINE
8
0
6
CONTINUOUS
10
0.086035
20
0.359937
30
0.0
11
0.086457
21
0.359341
31
0.0
0
LINE
8
0
6
CONTINUOUS
10
0.085977
20
0.359008
30
0.0
11
0.085563
21
0.359593
31
0.0
0
LINE
8
0
6
CONTINUOUS
10
0.085613
20
0.358745
30
0.0
11
0.085977
21
0.359008
31
0.0
0
LINE
8
0
6
CONTINUOUS
10
0.084548
20
0.357997
30
0.0
11
0.085613
21
0.358745
31
0.0
0
LINE
8
0
6
CONTINUOUS
10
0.082769
20
0.356692
30
0.0
11
0.083951
21
0.357521
31
0.0
0
LINE
8
0
6
CONTINUOUS
10
0.084690
20
0.358046
30
0.0
11
0.084443
21
0.358399
31
0.0
0
LINE
8
0
6
CONTINUOUS
10
0.083951
20
0.357521
30
0.0
11
0.084690
21
0.358046
31
0.0
0
LINE
8
0
6
CONTINUOUS
10
0.076483
20
0.352315
30
0.0
11
0.077990
21
0.353360
31
0.0
0
LINE
8
0
6
CONTINUOUS
10
0.079467
20
0.354387
30
0.0
11
0.081118
21
0.355539
31
0.0
0
LINE
8
0
6
CONTINUOUS
10
0.075884
20
0.351903
30
0.0
11
0.076483
21
0.352315
31
0.0
0
LINE
8
0
6
CONTINUOUS
10
0.075267
20
0.352784
30
0.0
11
0.075884
21
0.351903
31
0.0
0
LINE
8
0
6
CONTINUOUS
10
0.077990
20
0.353360
30
0.0
11
0.079467
21
0.354387
31
0.0
0
LINE
8
0
6
CONTINUOUS
10
0.081118
20
0.355539
30
0.0
11
0.082769
21
0.356692
31
0.0
0
LINE
8
0
6
CONTINUOUS
10
0.099508
20
0.368499
30
0.0
11
0.099928
21
0.368808
31
0.0
0
LINE
8
0
6
CONTINUOUS
10
0.096423
20
0.366340
30
0.0
11
0.096736
21
0.366550
31
0.0
0
LINE
8
0
6
CONTINUOUS
10
0.096736
20
0.366550
30
0.0
11
0.097769
21
0.367269
31
0.0
0
LINE
8
0
6
CONTINUOUS
10
0.098917
20
0.368077
30
0.0
11
0.099508
21
0.368499
31
0.0
0
LINE
8
0
6
CONTINUOUS
10
0.097769
20
0.367269
30
0.0
11
0.098917
21
0.368077
31
0.0
0
LINE
8
0
6
CONTINUOUS
10
0.100073
20
0.368924
30
0.0
11
0.099453
21
0.369808
31
0.0
0
LINE
8
0
6
CONTINUOUS
10
0.099928
20
0.368808
30
0.0
11
0.100073
21
0.368924
31
0.0
0
LINE
8
0
6
CONTINUOUS
10
0.075296
20
0.352697
30
0.0
11
0.075800
21
0.351978
31
0.0
0
LINE
8
0
6
CONTINUOUS
10
0.044612
20
0.336860
30
0.0
11
0.042630
21
0.337382
31
0.0
0
LINE
8
0
6
CONTINUOUS
10
0.042630
20
0.337382
30
0.0
11
0.040424
21
0.338616
31
0.0
0
LINE
8
0
6
CONTINUOUS
10
0.040424
20
0.338616
30
0.0
11
0.039214
21
0.339713
31
0.0
0
LINE
8
0
6
CONTINUOUS
10
0.045888
20
0.336814
30
0.0
11
0.044612
21
0.336860
31
0.0
0
LINE
8
0
6
CONTINUOUS
10
0.046663
20
0.336787
30
0.0
11
0.045888
21
0.336814
31
0.0
0
LINE
8
0
6
CONTINUOUS
10
0.069923
20
0.349356
30
0.0
11
0.068613
21
0.348582
31
0.0
0
LINE
8
0
6
CONTINUOUS
10
0.106472
20
0.375648
30
0.0
11
0.105469
21
0.374835
31
0.0
0
LINE
8
0
6
CONTINUOUS
10
0.103055
20
0.373242
30
0.0
11
0.103491
21
0.373530
31
0.0
0
LINE
8
0
6
CONTINUOUS
10
0.096460
20
0.368590
30
0.0
11
0.096743
21
0.368748
31
0.0
0
LINE
8
0
6
CONTINUOUS
10
0.086564
20
0.361595
30
0.0
11
0.086069
21
0.361171
31
0.0
0
LINE
8
0
6
CONTINUOUS
10
0.088075
20
0.362679
30
0.0
11
0.088193
21
0.362737
31
0.0
0
LINE
8
0
6
CONTINUOUS
10
0.077467
20
0.355228
30
0.0
11
0.077277
21
0.355078
31
0.0
0
LINE
8
0
6
CONTINUOUS
10
0.079057
20
0.356338
30
0.0
11
0.078063
21
0.355686
31
0.0
0
LINE
8
0
6
CONTINUOUS
10
0.070874
20
0.350631
30
0.0
11
0.070441
21
0.350360
31
0.0
0
LINE
8
0
6
CONTINUOUS
10
0.063040
20
0.345242
30
0.0
11
0.062654
21
0.345004
31
0.0
0
LINE
8
0
6
CONTINUOUS
10
0.064815
20
0.346293
30
0.0
11
0.063505
21
0.345520
31
0.0
0
LINE
8
0
6
CONTINUOUS
10
0.108606
20
0.377448
30
0.0
11
0.107946
21
0.376903
31
0.0
0
LINE
8
0
6
CONTINUOUS
10
0.109630
20
0.378254
30
0.0
11
0.108606
21
0.377448
31
0.0
0
LINE
8
0
6
CONTINUOUS
10
0.097419
20
0.369588
30
0.0
11
0.096766
21
0.369035
31
0.0
0
LINE
8
0
6
CONTINUOUS
10
0.080113
20
0.357479
30
0.0
11
0.079479
21
0.356967
31
0.0
0
LINE
8
0
6
CONTINUOUS
10
0.081196
20
0.358213
30
0.0
11
0.081644
21
0.358436
31
0.0
0
LINE
8
0
6
CONTINUOUS
10
0.072986
20
0.352434
30
0.0
11
0.073398
21
0.352630
31
0.0
0
LINE
8
0
6
CONTINUOUS
10
0.061693
20
0.344540
30
0.0
11
0.060580
21
0.343859
31
0.0
0
LINE
8
0
6
CONTINUOUS
10
0.114875
20
0.382383
30
0.0
11
0.114053
21
0.381686
31
0.0
0
LINE
8
0
6
CONTINUOUS
10
0.114053
20
0.381686
30
0.0
11
0.113875
21
0.381544
31
0.0
0
LINE
8
0
6
CONTINUOUS
10
0.110371
20
0.379098
30
0.0
11
0.110120
21
0.378871
31
0.0
0
LINE
8
0
6
CONTINUOUS
10
0.111391
20
0.379910
30
0.0
11
0.110371
21
0.379098
31
0.0
0
LINE
8
0
6
CONTINUOUS
10
0.103349
20
0.374077
30
0.0
11
0.103021
21
0.373799
31
0.0
0
LINE
8
0
6
CONTINUOUS
10
0.104702
20
0.375155
30
0.0
11
0.103850
21
0.374498
31
0.0
0
LINE
8
0
6
CONTINUOUS
10
0.103850
20
0.374498
30
0.0
11
0.103667
21
0.374363
31
0.0
0
LINE
8
0
6
CONTINUOUS
10
0.104702
20
0.375155
30
0.0
11
0.105093
21
0.375380
31
0.0
0
LINE
8
0
6
CONTINUOUS
10
0.094664
20
0.368081
30
0.0
11
0.094039
21
0.367523
31
0.0
0
LINE
8
0
6
CONTINUOUS
10
0.095719
20
0.368843
30
0.0
11
0.096134
21
0.369034
31
0.0
0
LINE
8
0
6
CONTINUOUS
10
0.084438
20
0.360913
30
0.0
11
0.083947
21
0.360499
31
0.0
0
LINE
8
0
6
CONTINUOUS
10
0.084786
20
0.361146
30
0.0
11
0.084438
21
0.360913
31
0.0
0
LINE
8
0
6
CONTINUOUS
10
0.085510
20
0.361651
30
0.0
11
0.085916
21
0.361820
31
0.0
0
LINE
8
0
6
CONTINUOUS
10
0.075295
20
0.354466
30
0.0
11
0.074199
21
0.353760
31
0.0
0
LINE
8
0
6
CONTINUOUS
10
0.075295
20
0.354466
30
0.0
11
0.075567
21
0.354578
31
0.0
0
LINE
8
0
6
CONTINUOUS
10
0.075567
20
0.354578
30
0.0
11
0.075716
21
0.354648
31
0.0
0
LINE
8
0
6
CONTINUOUS
10
0.065729
20
0.347792
30
0.0
11
0.065193
21
0.347475
31
0.0
0
LINE
8
0
6
CONTINUOUS
10
0.059577
20
0.343447
30
0.0
11
0.058446
21
0.342792
31
0.0
0
LINE
8
0
6
CONTINUOUS
10
0.059580
20
0.343452
30
0.0
11
0.059978
21
0.343658
31
0.0
0
LINE
8
0
6
CONTINUOUS
10
0.055498
20
0.340651
30
0.0
11
0.054942
21
0.340334
31
0.0
0
LINE
8
0
6
CONTINUOUS
10
0.056067
20
0.340999
30
0.0
11
0.055498
21
0.340651
31
0.0
0
LINE
8
0
6
CONTINUOUS
10
0.086330
20
0.360158
30
0.0
11
0.086035
21
0.359937
31
0.0
0
LINE
8
0
6
CONTINUOUS
10
0.088892
20
0.361960
30
0.0
11
0.088298
21
0.361509
31
0.0
0
LINE
8
0
6
CONTINUOUS
10
0.087779
20
0.361202
30
0.0
11
0.088053
21
0.361369
31
0.0
0
LINE
8
0
6
CONTINUOUS
10
0.088977
20
0.362026
30
0.0
11
0.088892
21
0.361960
31
0.0
0
ENDSEC
0
EOF
