999
unknown String-ID: 20550
0
SECTION
2
HEADER
9
$ACADVER
1
AC1009
9
$DWGCODEPAGE
3
unknown String-ID: 20561
0
ENDSEC
0
SECTION
2
TABLES
0
TABLE
2
LAYER
70
1
0
LAYER
2
0
70
0
62
7
6
CONTINUOUS
0
ENDTAB
0
ENDSEC
0
SECTION
2
ENTITIES
0
LINE
8
0
6
CONTINUOUS
10
-0.061424
20
0.040685
30
0.0
11
-0.062137
21
0.040685
31
0.0
0
LINE
8
0
6
CONTINUOUS
10
-0.062137
20
0.078245
30
0.0
11
-0.061424
21
0.078432
31
0.0
0
LINE
8
0
6
CONTINUOUS
10
-0.061424
20
0.040685
30
0.0
11
-0.041163
21
0.040685
31
0.0
0
LINE
8
0
6
CONTINUOUS
10
-0.041163
20
0.078432
30
0.0
11
-0.061424
21
0.078432
31
0.0
0
LINE
8
0
6
CONTINUOUS
10
-0.041163
20
0.040685
30
0.0
11
-0.040873
21
0.040685
31
0.0
0
LINE
8
0
6
CONTINUOUS
10
-0.040873
20
0.078432
30
0.0
11
-0.041163
21
0.078432
31
0.0
0
LINE
8
0
6
CONTINUOUS
10
-0.062137
20
0.040685
30
0.0
11
-0.062137
21
0.041328
31
0.0
0
LINE
8
0
6
CONTINUOUS
10
-0.062137
20
0.043214
30
0.0
11
-0.062137
21
0.046213
31
0.0
0
LINE
8
0
6
CONTINUOUS
10
-0.062137
20
0.046213
30
0.0
11
-0.062137
21
0.050122
31
0.0
0
LINE
8
0
6
CONTINUOUS
10
-0.062137
20
0.050122
30
0.0
11
-0.062137
21
0.054674
31
0.0
0
LINE
8
0
6
CONTINUOUS
10
-0.062137
20
0.054674
30
0.0
11
-0.062137
21
0.059558
31
0.0
0
LINE
8
0
6
CONTINUOUS
10
-0.062137
20
0.059558
30
0.0
11
-0.062137
21
0.064443
31
0.0
0
LINE
8
0
6
CONTINUOUS
10
-0.062137
20
0.064443
30
0.0
11
-0.062137
21
0.068995
31
0.0
0
LINE
8
0
6
CONTINUOUS
10
-0.062137
20
0.072904
30
0.0
11
-0.062137
21
0.075903
31
0.0
0
LINE
8
0
6
CONTINUOUS
10
-0.062137
20
0.077789
30
0.0
11
-0.062137
21
0.078245
31
0.0
0
LINE
8
0
6
CONTINUOUS
10
-0.061327
20
0.047436
30
0.0
11
-0.061440
21
0.047433
31
0.0
0
LINE
8
0
6
CONTINUOUS
10
-0.061327
20
0.047436
30
0.0
11
-0.045783
21
0.047409
31
0.0
0
LINE
8
0
6
CONTINUOUS
10
-0.045783
20
0.047409
30
0.0
11
-0.045670
21
0.047413
31
0.0
0
LINE
8
0
6
CONTINUOUS
10
-0.061487
20
0.047594
30
0.0
11
-0.061440
21
0.047433
31
0.0
0
LINE
8
0
6
CONTINUOUS
10
-0.045670
20
0.056019
30
0.0
11
-0.045670
21
0.053238
31
0.0
0
LINE
8
0
6
CONTINUOUS
10
-0.045670
20
0.047454
30
0.0
11
-0.045670
21
0.047413
31
0.0
0
LINE
8
0
6
CONTINUOUS
10
-0.045670
20
0.047697
30
0.0
11
-0.045670
21
0.047454
31
0.0
0
LINE
8
0
6
CONTINUOUS
10
-0.045670
20
0.048125
30
0.0
11
-0.045670
21
0.047697
31
0.0
0
LINE
8
0
6
CONTINUOUS
10
-0.045670
20
0.048708
30
0.0
11
-0.045670
21
0.048125
31
0.0
0
LINE
8
0
6
CONTINUOUS
10
-0.045670
20
0.049407
30
0.0
11
-0.045670
21
0.048708
31
0.0
0
LINE
8
0
6
CONTINUOUS
10
-0.045670
20
0.050174
30
0.0
11
-0.045670
21
0.049407
31
0.0
0
LINE
8
0
6
CONTINUOUS
10
-0.045670
20
0.050956
30
0.0
11
-0.045670
21
0.050174
31
0.0
0
LINE
8
0
6
CONTINUOUS
10
-0.045670
20
0.051702
30
0.0
11
-0.045670
21
0.050956
31
0.0
0
LINE
8
0
6
CONTINUOUS
10
-0.045670
20
0.052359
30
0.0
11
-0.045670
21
0.051702
31
0.0
0
LINE
8
0
6
CONTINUOUS
10
-0.045670
20
0.052882
30
0.0
11
-0.045670
21
0.052359
31
0.0
0
LINE
8
0
6
CONTINUOUS
10
-0.045670
20
0.053238
30
0.0
11
-0.045670
21
0.052882
31
0.0
0
LINE
8
0
6
CONTINUOUS
10
-0.062034
20
0.050360
30
0.0
11
-0.061487
21
0.047594
31
0.0
0
LINE
8
0
6
CONTINUOUS
10
-0.040873
20
0.041328
30
0.0
11
-0.040873
21
0.040685
31
0.0
0
LINE
8
0
6
CONTINUOUS
10
-0.040873
20
0.043214
30
0.0
11
-0.040873
21
0.041328
31
0.0
0
LINE
8
0
6
CONTINUOUS
10
-0.040873
20
0.046213
30
0.0
11
-0.040873
21
0.043214
31
0.0
0
LINE
8
0
6
CONTINUOUS
10
-0.040873
20
0.050122
30
0.0
11
-0.040873
21
0.046213
31
0.0
0
LINE
8
0
6
CONTINUOUS
10
-0.040873
20
0.054674
30
0.0
11
-0.040873
21
0.050122
31
0.0
0
LINE
8
0
6
CONTINUOUS
10
-0.040873
20
0.059558
30
0.0
11
-0.040873
21
0.054674
31
0.0
0
LINE
8
0
6
CONTINUOUS
10
-0.040873
20
0.064443
30
0.0
11
-0.040873
21
0.059558
31
0.0
0
LINE
8
0
6
CONTINUOUS
10
-0.040873
20
0.068995
30
0.0
11
-0.040873
21
0.064443
31
0.0
0
LINE
8
0
6
CONTINUOUS
10
-0.040873
20
0.072904
30
0.0
11
-0.040873
21
0.068995
31
0.0
0
LINE
8
0
6
CONTINUOUS
10
-0.040873
20
0.075903
30
0.0
11
-0.040873
21
0.072904
31
0.0
0
LINE
8
0
6
CONTINUOUS
10
-0.040873
20
0.078432
30
0.0
11
-0.040873
21
0.077789
31
0.0
0
LINE
8
0
6
CONTINUOUS
10
-0.040873
20
0.077789
30
0.0
11
-0.040873
21
0.075903
31
0.0
0
LINE
8
0
6
CONTINUOUS
10
-0.040292
20
0.040613
30
0.0
11
-0.039972
21
0.040613
31
0.0
0
LINE
8
0
6
CONTINUOUS
10
-0.039972
20
0.040613
30
0.0
11
-0.002346
21
0.040613
31
0.0
0
LINE
8
0
6
CONTINUOUS
10
0.020516
20
0.057223
30
0.0
11
0.020516
21
0.057444
31
0.0
0
LINE
8
0
6
CONTINUOUS
10
0.020516
20
0.063519
30
0.0
11
0.020516
21
0.067058
31
0.0
0
LINE
8
0
6
CONTINUOUS
10
0.020516
20
0.067058
30
0.0
11
0.020516
21
0.070309
31
0.0
0
LINE
8
0
6
CONTINUOUS
10
0.020516
20
0.073146
30
0.0
11
0.020516
21
0.075461
31
0.0
0
LINE
8
0
6
CONTINUOUS
10
0.020516
20
0.070309
30
0.0
11
0.020516
21
0.073146
31
0.0
0
LINE
8
0
6
CONTINUOUS
10
0.020516
20
0.059828
30
0.0
11
0.020516
21
0.063519
31
0.0
0
LINE
8
0
6
CONTINUOUS
10
0.020516
20
0.057444
30
0.0
11
0.020516
21
0.059828
31
0.0
0
LINE
8
0
6
CONTINUOUS
10
-0.040292
20
0.078504
30
0.0
11
-0.039972
21
0.078504
31
0.0
0
LINE
8
0
6
CONTINUOUS
10
0.012441
20
0.078504
30
0.0
11
0.017011
21
0.078504
31
0.0
0
LINE
8
0
6
CONTINUOUS
10
0.007429
20
0.078504
30
0.0
11
0.012441
21
0.078504
31
0.0
0
LINE
8
0
6
CONTINUOUS
10
0.003868
20
0.078504
30
0.0
11
0.007429
21
0.078504
31
0.0
0
LINE
8
0
6
CONTINUOUS
10
0.017011
20
0.078504
30
0.0
11
0.020116
21
0.078504
31
0.0
0
LINE
8
0
6
CONTINUOUS
10
0.020516
20
0.078504
30
0.0
11
0.020116
21
0.078504
31
0.0
0
LINE
8
0
6
CONTINUOUS
10
0.020516
20
0.077165
30
0.0
11
0.020516
21
0.078193
31
0.0
0
LINE
8
0
6
CONTINUOUS
10
-0.039972
20
0.078504
30
0.0
11
-0.030913
21
0.078504
31
0.0
0
LINE
8
0
6
CONTINUOUS
10
-0.008913
20
0.078504
30
0.0
11
0.003868
21
0.078504
31
0.0
0
LINE
8
0
6
CONTINUOUS
10
-0.040292
20
0.040613
30
0.0
11
-0.040292
21
0.041029
31
0.0
0
LINE
8
0
6
CONTINUOUS
10
-0.040292
20
0.041029
30
0.0
11
-0.040292
21
0.042158
31
0.0
0
LINE
8
0
6
CONTINUOUS
10
-0.040292
20
0.070309
30
0.0
11
-0.040292
21
0.073146
31
0.0
0
LINE
8
0
6
CONTINUOUS
10
-0.040292
20
0.046352
30
0.0
11
-0.040292
21
0.049257
31
0.0
0
LINE
8
0
6
CONTINUOUS
10
-0.040292
20
0.059828
30
0.0
11
-0.040292
21
0.063519
31
0.0
0
LINE
8
0
6
CONTINUOUS
10
-0.040292
20
0.077165
30
0.0
11
-0.040292
21
0.078193
31
0.0
0
LINE
8
0
6
CONTINUOUS
10
-0.040292
20
0.073146
30
0.0
11
-0.040292
21
0.075461
31
0.0
0
LINE
8
0
6
CONTINUOUS
10
-0.040292
20
0.042158
30
0.0
11
-0.040292
21
0.043955
31
0.0
0
LINE
8
0
6
CONTINUOUS
10
-0.040292
20
0.067058
30
0.0
11
-0.040292
21
0.070309
31
0.0
0
LINE
8
0
6
CONTINUOUS
10
-0.040292
20
0.075461
30
0.0
11
-0.040292
21
0.077165
31
0.0
0
LINE
8
0
6
CONTINUOUS
10
-0.040292
20
0.049257
30
0.0
11
-0.040292
21
0.052557
31
0.0
0
LINE
8
0
6
CONTINUOUS
10
-0.040292
20
0.078193
30
0.0
11
-0.040292
21
0.078504
31
0.0
0
LINE
8
0
6
CONTINUOUS
10
-0.040292
20
0.056127
30
0.0
11
-0.040292
21
0.059828
31
0.0
0
LINE
8
0
6
CONTINUOUS
10
-0.040292
20
0.043955
30
0.0
11
-0.040292
21
0.046352
31
0.0
0
LINE
8
0
6
CONTINUOUS
10
-0.040292
20
0.063519
30
0.0
11
-0.040292
21
0.067058
31
0.0
0
LINE
8
0
6
CONTINUOUS
10
-0.040292
20
0.052557
30
0.0
11
-0.040292
21
0.056127
31
0.0
0
LINE
8
0
6
CONTINUOUS
10
-0.009428
20
0.121750
30
0.0
11
-0.008913
21
0.121750
31
0.0
0
LINE
8
0
6
CONTINUOUS
10
-0.009313
20
0.056925
30
0.0
11
-0.008913
21
0.059725
31
0.0
0
LINE
8
0
6
CONTINUOUS
10
-0.010413
20
0.054225
30
0.0
11
-0.009313
21
0.056925
31
0.0
0
LINE
8
0
6
CONTINUOUS
10
-0.012113
20
0.051925
30
0.0
11
-0.010413
21
0.054225
31
0.0
0
LINE
8
0
6
CONTINUOUS
10
-0.014413
20
0.050224
30
0.0
11
-0.012113
21
0.051925
31
0.0
0
LINE
8
0
6
CONTINUOUS
10
-0.017113
20
0.049124
30
0.0
11
-0.014413
21
0.050224
31
0.0
0
LINE
8
0
6
CONTINUOUS
10
-0.019913
20
0.048724
30
0.0
11
-0.017113
21
0.049124
31
0.0
0
LINE
8
0
6
CONTINUOUS
10
-0.030913
20
0.059725
30
0.0
11
-0.030513
21
0.056925
31
0.0
0
LINE
8
0
6
CONTINUOUS
10
-0.030513
20
0.056925
30
0.0
11
-0.029413
21
0.054225
31
0.0
0
LINE
8
0
6
CONTINUOUS
10
-0.029413
20
0.054225
30
0.0
11
-0.027713
21
0.051925
31
0.0
0
LINE
8
0
6
CONTINUOUS
10
-0.027713
20
0.051925
30
0.0
11
-0.025413
21
0.050224
31
0.0
0
LINE
8
0
6
CONTINUOUS
10
-0.025413
20
0.050224
30
0.0
11
-0.022713
21
0.049124
31
0.0
0
LINE
8
0
6
CONTINUOUS
10
-0.022713
20
0.049124
30
0.0
11
-0.019913
21
0.048724
31
0.0
0
LINE
8
0
6
CONTINUOUS
10
-0.008913
20
0.121250
30
0.0
11
-0.008913
21
0.121750
31
0.0
0
LINE
8
0
6
CONTINUOUS
10
-0.009428
20
0.121750
30
0.0
11
-0.030399
21
0.121750
31
0.0
0
LINE
8
0
6
CONTINUOUS
10
-0.030399
20
0.121750
30
0.0
11
-0.030913
21
0.121750
31
0.0
0
LINE
8
0
6
CONTINUOUS
10
-0.008913
20
0.059725
30
0.0
11
-0.008913
21
0.121250
31
0.0
0
LINE
8
0
6
CONTINUOUS
10
-0.009413
20
0.121750
30
0.0
11
-0.008913
21
0.121750
31
0.0
0
LINE
8
0
6
CONTINUOUS
10
-0.030413
20
0.121750
30
0.0
11
-0.009413
21
0.121750
31
0.0
0
LINE
8
0
6
CONTINUOUS
10
-0.030913
20
0.121250
30
0.0
11
-0.030913
21
0.059725
31
0.0
0
LINE
8
0
6
CONTINUOUS
10
-0.030913
20
0.121750
30
0.0
11
-0.030913
21
0.121250
31
0.0
0
LINE
8
0
6
CONTINUOUS
10
-0.030413
20
0.121750
30
0.0
11
-0.030913
21
0.121750
31
0.0
0
LINE
8
0
6
CONTINUOUS
10
0.019597
20
0.079275
30
0.0
11
0.019597
21
0.078504
31
0.0
0
LINE
8
0
6
CONTINUOUS
10
0.003597
20
0.079275
30
0.0
11
0.003597
21
0.078504
31
0.0
0
LINE
8
0
6
CONTINUOUS
10
0.019597
20
0.085962
30
0.0
11
0.019597
21
0.079275
31
0.0
0
LINE
8
0
6
CONTINUOUS
10
0.003597
20
0.085962
30
0.0
11
0.003597
21
0.079275
31
0.0
0
LINE
8
0
6
CONTINUOUS
10
0.019597
20
0.090901
30
0.0
11
0.019597
21
0.085962
31
0.0
0
LINE
8
0
6
CONTINUOUS
10
0.003597
20
0.090901
30
0.0
11
0.003597
21
0.085962
31
0.0
0
LINE
8
0
6
CONTINUOUS
10
0.019597
20
0.094349
30
0.0
11
0.019597
21
0.090901
31
0.0
0
LINE
8
0
6
CONTINUOUS
10
0.003597
20
0.094349
30
0.0
11
0.003597
21
0.090901
31
0.0
0
LINE
8
0
6
CONTINUOUS
10
0.019597
20
0.096560
30
0.0
11
0.019597
21
0.094349
31
0.0
0
LINE
8
0
6
CONTINUOUS
10
0.003597
20
0.096560
30
0.0
11
0.003597
21
0.094349
31
0.0
0
LINE
8
0
6
CONTINUOUS
10
0.019597
20
0.097792
30
0.0
11
0.019597
21
0.096560
31
0.0
0
LINE
8
0
6
CONTINUOUS
10
0.003597
20
0.097792
30
0.0
11
0.003597
21
0.096560
31
0.0
0
LINE
8
0
6
CONTINUOUS
10
0.019597
20
0.098299
30
0.0
11
0.019597
21
0.097792
31
0.0
0
LINE
8
0
6
CONTINUOUS
10
0.003597
20
0.098298
30
0.0
11
0.003597
21
0.097792
31
0.0
0
LINE
8
0
6
CONTINUOUS
10
0.011597
20
0.106336
30
0.0
11
0.015597
21
0.105265
31
0.0
0
LINE
8
0
6
CONTINUOUS
10
0.015597
20
0.105265
30
0.0
11
0.018525
21
0.102336
31
0.0
0
LINE
8
0
6
CONTINUOUS
10
0.018525
20
0.102336
30
0.0
11
0.019597
21
0.098337
31
0.0
0
LINE
8
0
6
CONTINUOUS
10
0.003597
20
0.098336
30
0.0
11
0.004669
21
0.102336
31
0.0
0
LINE
8
0
6
CONTINUOUS
10
0.004669
20
0.102336
30
0.0
11
0.007597
21
0.105265
31
0.0
0
LINE
8
0
6
CONTINUOUS
10
0.007597
20
0.105265
30
0.0
11
0.011597
21
0.106336
31
0.0
0
LINE
8
0
6
CONTINUOUS
10
0.023226
20
0.054141
30
0.0
11
0.022474
21
0.061093
31
0.0
0
LINE
8
0
6
CONTINUOUS
10
0.022448
20
0.061339
30
0.0
11
0.022083
21
0.063615
31
0.0
0
LINE
8
0
6
CONTINUOUS
10
0.022474
20
0.061093
30
0.0
11
0.022448
21
0.061339
31
0.0
0
LINE
8
0
6
CONTINUOUS
10
0.022083
20
0.063615
30
0.0
11
0.021050
21
0.065732
31
0.0
0
LINE
8
0
6
CONTINUOUS
10
0.021050
20
0.065732
30
0.0
11
0.020516
21
0.066325
31
0.0
0
LINE
8
0
6
CONTINUOUS
10
0.020874
20
0.055352
30
0.0
11
0.016626
21
0.056477
31
0.0
0
LINE
8
0
6
CONTINUOUS
10
0.025148
20
-0.031083
30
0.0
11
0.025119
21
-0.026049
31
0.0
0
LINE
8
0
6
CONTINUOUS
10
0.016626
20
0.056477
30
0.0
11
0.012226
21
0.056905
31
0.0
0
LINE
8
0
6
CONTINUOUS
10
0.026712
20
-0.024759
30
0.0
11
0.026713
21
-0.024518
31
0.0
0
LINE
8
0
6
CONTINUOUS
10
0.024686
20
0.053390
30
0.0
11
0.020874
21
0.055352
31
0.0
0
LINE
8
0
6
CONTINUOUS
10
0.026370
20
0.050164
30
0.0
11
0.024686
21
0.053390
31
0.0
0
LINE
8
0
6
CONTINUOUS
10
0.026917
20
0.042028
30
0.0
11
0.026919
21
0.042494
31
0.0
0
LINE
8
0
6
CONTINUOUS
10
0.026919
20
0.042494
30
0.0
11
0.026870
21
0.043173
31
0.0
0
LINE
8
0
6
CONTINUOUS
10
0.025309
20
-0.027306
30
0.0
11
0.026710
21
-0.025514
31
0.0
0
LINE
8
0
6
CONTINUOUS
10
0.025127
20
-0.027365
30
0.0
11
0.025309
21
-0.027306
31
0.0
0
LINE
8
0
6
CONTINUOUS
10
0.025119
20
-0.026049
30
0.0
11
0.025117
21
-0.025745
31
0.0
0
LINE
8
0
6
CONTINUOUS
10
0.026870
20
0.043173
30
0.0
11
0.026417
21
0.049511
31
0.0
0
LINE
8
0
6
CONTINUOUS
10
0.026710
20
-0.025514
30
0.0
11
0.026712
21
-0.024759
31
0.0
0
LINE
8
0
6
CONTINUOUS
10
0.026417
20
0.049511
30
0.0
11
0.026370
21
0.050164
31
0.0
0
LINE
8
0
6
CONTINUOUS
10
0.026713
20
-0.024518
30
0.0
11
0.026917
21
0.042028
31
0.0
0
LINE
8
0
6
CONTINUOUS
10
0.007830
20
0.056457
30
0.0
11
0.003591
21
0.055314
31
0.0
0
LINE
8
0
6
CONTINUOUS
10
-0.000884
20
-0.026107
30
0.0
11
-0.000930
21
-0.031102
31
0.0
0
LINE
8
0
6
CONTINUOUS
10
0.012226
20
0.056905
30
0.0
11
0.007830
21
0.056457
31
0.0
0
LINE
8
0
6
CONTINUOUS
10
-0.002465
20
-0.024583
30
0.0
11
-0.002465
21
-0.024824
31
0.0
0
LINE
8
0
6
CONTINUOUS
10
0.003591
20
0.055314
30
0.0
11
-0.000203
21
0.053334
31
0.0
0
LINE
8
0
6
CONTINUOUS
10
-0.000203
20
0.053334
30
0.0
11
-0.001860
21
0.050101
31
0.0
0
LINE
8
0
6
CONTINUOUS
10
-0.002343
20
0.042428
30
0.0
11
-0.002344
21
0.041962
31
0.0
0
LINE
8
0
6
CONTINUOUS
10
-0.002300
20
0.043108
30
0.0
11
-0.002343
21
0.042428
31
0.0
0
LINE
8
0
6
CONTINUOUS
10
-0.002466
20
-0.025579
30
0.0
11
-0.001040
21
-0.027365
31
0.0
0
LINE
8
0
6
CONTINUOUS
10
-0.001040
20
-0.027365
30
0.0
11
-0.000896
21
-0.027410
31
0.0
0
LINE
8
0
6
CONTINUOUS
10
-0.000881
20
-0.025803
30
0.0
11
-0.000884
21
-0.026107
31
0.0
0
LINE
8
0
6
CONTINUOUS
10
-0.001901
20
0.049448
30
0.0
11
-0.002300
21
0.043108
31
0.0
0
LINE
8
0
6
CONTINUOUS
10
-0.002465
20
-0.024824
30
0.0
11
-0.002466
21
-0.025579
31
0.0
0
LINE
8
0
6
CONTINUOUS
10
-0.001860
20
0.050101
30
0.0
11
-0.001901
21
0.049448
31
0.0
0
LINE
8
0
6
CONTINUOUS
10
-0.002344
20
0.041962
30
0.0
11
-0.002465
21
-0.024583
31
0.0
0
LINE
8
0
6
CONTINUOUS
10
-0.037680
20
-0.074882
30
0.0
11
-0.037907
21
-0.078792
31
0.0
0
LINE
8
0
6
CONTINUOUS
10
-0.036431
20
-0.065810
30
0.0
11
-0.037680
21
-0.074882
31
0.0
0
LINE
8
0
6
CONTINUOUS
10
-0.036009
20
-0.064007
30
0.0
11
-0.036431
21
-0.065810
31
0.0
0
LINE
8
0
6
CONTINUOUS
10
-0.031804
20
-0.053806
30
0.0
11
-0.035406
21
-0.062241
31
0.0
0
LINE
8
0
6
CONTINUOUS
10
-0.031066
20
-0.052243
30
0.0
11
-0.031804
21
-0.053806
31
0.0
0
LINE
8
0
6
CONTINUOUS
10
-0.017191
20
-0.037824
30
0.0
11
-0.024616
21
-0.043920
31
0.0
0
LINE
8
0
6
CONTINUOUS
10
-0.008301
20
-0.033231
30
0.0
11
-0.017191
21
-0.037824
31
0.0
0
LINE
8
0
6
CONTINUOUS
10
0.001609
20
-0.030369
30
0.0
11
-0.008301
21
-0.033231
31
0.0
0
LINE
8
0
6
CONTINUOUS
10
0.012041
20
-0.029383
30
0.0
11
0.001609
21
-0.030369
31
0.0
0
LINE
8
0
6
CONTINUOUS
10
0.022473
20
-0.030322
30
0.0
11
0.012041
21
-0.029383
31
0.0
0
LINE
8
0
6
CONTINUOUS
10
0.032382
20
-0.033140
30
0.0
11
0.022473
21
-0.030322
31
0.0
0
LINE
8
0
6
CONTINUOUS
10
0.041270
20
-0.037694
30
0.0
11
0.032382
21
-0.033140
31
0.0
0
LINE
8
0
6
CONTINUOUS
10
0.048692
20
-0.043757
30
0.0
11
0.041270
21
-0.037694
31
0.0
0
LINE
8
0
6
CONTINUOUS
10
0.055923
20
-0.053610
30
0.0
11
0.055158
21
-0.052051
31
0.0
0
LINE
8
0
6
CONTINUOUS
10
0.059522
20
-0.062029
30
0.0
11
0.055923
21
-0.053610
31
0.0
0
LINE
8
0
6
CONTINUOUS
10
0.060601
20
-0.065594
30
0.0
11
0.060152
21
-0.063793
31
0.0
0
LINE
8
0
6
CONTINUOUS
10
0.061847
20
-0.074659
30
0.0
11
0.060601
21
-0.065594
31
0.0
0
LINE
8
0
6
CONTINUOUS
10
0.062130
20
-0.078569
30
0.0
11
0.061847
21
-0.074659
31
0.0
0
LINE
8
0
6
CONTINUOUS
10
-0.035406
20
-0.062241
30
0.0
11
-0.036009
21
-0.064007
31
0.0
0
LINE
8
0
6
CONTINUOUS
10
0.060152
20
-0.063793
30
0.0
11
0.059522
21
-0.062029
31
0.0
0
LINE
8
0
6
CONTINUOUS
10
0.051213
20
-0.104273
30
0.0
11
0.057174
21
-0.096493
31
0.0
0
LINE
8
0
6
CONTINUOUS
10
0.012103
20
-0.119783
30
0.0
11
0.023233
21
-0.118731
31
0.0
0
LINE
8
0
6
CONTINUOUS
10
-0.027000
20
-0.104447
30
0.0
11
-0.019081
21
-0.110916
31
0.0
0
LINE
8
0
6
CONTINUOUS
10
-0.019081
20
-0.110916
30
0.0
11
-0.009598
21
-0.115775
31
0.0
0
LINE
8
0
6
CONTINUOUS
10
0.057174
20
-0.096493
30
0.0
11
0.060875
21
-0.087827
31
0.0
0
LINE
8
0
6
CONTINUOUS
10
0.060875
20
-0.087827
30
0.0
11
0.062131
21
-0.078709
31
0.0
0
LINE
8
0
6
CONTINUOUS
10
0.062131
20
-0.078709
30
0.0
11
0.062130
21
-0.078569
31
0.0
0
LINE
8
0
6
CONTINUOUS
10
-0.037906
20
-0.078932
30
0.0
11
-0.036654
21
-0.088044
31
0.0
0
LINE
8
0
6
CONTINUOUS
10
-0.037907
20
-0.078792
30
0.0
11
-0.037906
21
-0.078932
31
0.0
0
LINE
8
0
6
CONTINUOUS
10
0.023233
20
-0.118731
30
0.0
11
0.033806
21
-0.115678
31
0.0
0
LINE
8
0
6
CONTINUOUS
10
-0.036654
20
-0.088044
30
0.0
11
-0.032957
21
-0.096694
31
0.0
0
LINE
8
0
6
CONTINUOUS
10
0.033806
20
-0.115678
30
0.0
11
0.043291
21
-0.110776
31
0.0
0
LINE
8
0
6
CONTINUOUS
10
-0.009598
20
-0.115775
30
0.0
11
0.000973
21
-0.118780
31
0.0
0
LINE
8
0
6
CONTINUOUS
10
0.000973
20
-0.118780
30
0.0
11
0.012103
21
-0.119783
31
0.0
0
LINE
8
0
6
CONTINUOUS
10
-0.032957
20
-0.096694
30
0.0
11
-0.027000
21
-0.104447
31
0.0
0
LINE
8
0
6
CONTINUOUS
10
0.043291
20
-0.110776
30
0.0
11
0.051213
21
-0.104273
31
0.0
0
LINE
8
0
6
CONTINUOUS
10
0.060881
20
-0.088591
30
0.0
11
0.062137
21
-0.079473
31
0.0
0
LINE
8
0
6
CONTINUOUS
10
0.062137
20
-0.079473
30
0.0
11
0.062133
21
-0.078907
31
0.0
0
LINE
8
0
6
CONTINUOUS
10
-0.037901
20
-0.079697
30
0.0
11
-0.036649
21
-0.088809
31
0.0
0
LINE
8
0
6
CONTINUOUS
10
-0.037905
20
-0.079130
30
0.0
11
-0.037901
21
-0.079697
31
0.0
0
LINE
8
0
6
CONTINUOUS
10
0.042339
20
-0.113026
30
0.0
11
0.050013
21
-0.106726
31
0.0
0
LINE
8
0
6
CONTINUOUS
10
0.050013
20
-0.106726
30
0.0
11
0.050862
21
-0.105979
31
0.0
0
LINE
8
0
6
CONTINUOUS
10
-0.032522
20
-0.098471
30
0.0
11
-0.026621
21
-0.106152
31
0.0
0
LINE
8
0
6
CONTINUOUS
10
0.001345
20
-0.120779
30
0.0
11
0.012127
21
-0.121750
31
0.0
0
LINE
8
0
6
CONTINUOUS
10
-0.008895
20
-0.117868
30
0.0
11
0.001345
21
-0.120779
31
0.0
0
LINE
8
0
6
CONTINUOUS
10
0.033151
20
-0.117774
30
0.0
11
0.042339
21
-0.113026
31
0.0
0
LINE
8
0
6
CONTINUOUS
10
-0.036185
20
-0.089902
30
0.0
11
-0.032522
21
-0.098471
31
0.0
0
LINE
8
0
6
CONTINUOUS
10
-0.036649
20
-0.088809
30
0.0
11
-0.036185
21
-0.089902
31
0.0
0
LINE
8
0
6
CONTINUOUS
10
-0.018081
20
-0.113161
30
0.0
11
-0.008895
21
-0.117868
31
0.0
0
LINE
8
0
6
CONTINUOUS
10
0.022909
20
-0.120731
30
0.0
11
0.033151
21
-0.117774
31
0.0
0
LINE
8
0
6
CONTINUOUS
10
0.060434
20
-0.089686
30
0.0
11
0.060881
21
-0.088591
31
0.0
0
LINE
8
0
6
CONTINUOUS
10
0.056767
20
-0.098271
30
0.0
11
0.060434
21
-0.089686
31
0.0
0
LINE
8
0
6
CONTINUOUS
10
-0.025752
20
-0.106895
30
0.0
11
-0.018081
21
-0.113161
31
0.0
0
LINE
8
0
6
CONTINUOUS
10
-0.026621
20
-0.106152
30
0.0
11
-0.025752
21
-0.106895
31
0.0
0
LINE
8
0
6
CONTINUOUS
10
0.012127
20
-0.121750
30
0.0
11
0.022909
21
-0.120731
31
0.0
0
LINE
8
0
6
CONTINUOUS
10
0.050862
20
-0.105979
30
0.0
11
0.056767
21
-0.098271
31
0.0
0
LINE
8
0
6
CONTINUOUS
10
-0.037897
20
-0.078999
30
0.0
11
-0.037905
21
-0.079058
31
0.0
0
LINE
8
0
6
CONTINUOUS
10
0.062132
20
-0.078835
30
0.0
11
0.062123
21
-0.078769
31
0.0
0
LINE
8
0
6
CONTINUOUS
10
-0.024990
20
-0.044252
30
0.0
11
-0.030635
21
-0.051620
31
0.0
0
LINE
8
0
6
CONTINUOUS
10
-0.024616
20
-0.043920
30
0.0
11
-0.024990
21
-0.044252
31
0.0
0
LINE
8
0
6
CONTINUOUS
10
0.049075
20
-0.044087
30
0.0
11
0.048692
21
-0.043757
31
0.0
0
LINE
8
0
6
CONTINUOUS
10
0.054716
20
-0.051429
30
0.0
11
0.049075
21
-0.044087
31
0.0
0
LINE
8
0
6
CONTINUOUS
10
-0.030635
20
-0.051620
30
0.0
11
-0.031066
21
-0.052243
31
0.0
0
LINE
8
0
6
CONTINUOUS
10
0.055158
20
-0.052051
30
0.0
11
0.054716
21
-0.051429
31
0.0
0
LINE
8
0
6
CONTINUOUS
10
0.015148
20
0.059548
30
0.0
11
0.015533
21
0.059374
31
0.0
0
ENDSEC
0
EOF
