999
unknown String-ID: 20550
0
SECTION
2
HEADER
9
$ACADVER
1
AC1009
9
$DWGCODEPAGE
3
unknown String-ID: 20561
0
ENDSEC
0
SECTION
2
TABLES
0
TABLE
2
LAYER
70
1
0
LAYER
2
0
70
0
62
7
6
CONTINUOUS
0
ENDTAB
0
ENDSEC
0
SECTION
2
ENTITIES
0
LINE
8
0
6
CONTINUOUS
10
0.044207
20
0.062546
30
0.0
11
0.045174
21
0.063747
31
0.0
0
LINE
8
0
6
CONTINUOUS
10
0.045648
20
0.064335
30
0.0
11
0.044841
21
0.064975
31
0.0
0
LINE
8
0
6
CONTINUOUS
10
0.045174
20
0.063747
30
0.0
11
0.045648
21
0.064335
31
0.0
0
LINE
8
0
6
CONTINUOUS
10
0.043715
20
0.061934
30
0.0
11
0.044207
21
0.062546
31
0.0
0
LINE
8
0
6
CONTINUOUS
10
0.040788
20
0.059791
30
0.0
11
0.041617
21
0.060821
31
0.0
0
LINE
8
0
6
CONTINUOUS
10
0.039559
20
0.059906
30
0.0
11
0.040366
21
0.059266
31
0.0
0
LINE
8
0
6
CONTINUOUS
10
0.045223
20
0.062285
30
0.0
11
0.045380
21
0.062480
31
0.0
0
LINE
8
0
6
CONTINUOUS
10
0.049335
20
0.068925
30
0.0
11
0.050302
21
0.070126
31
0.0
0
LINE
8
0
6
CONTINUOUS
10
0.048123
20
0.068196
30
0.0
11
0.048952
21
0.069226
31
0.0
0
LINE
8
0
6
CONTINUOUS
10
0.049359
20
0.069731
30
0.0
11
0.048542
21
0.070380
31
0.0
0
LINE
8
0
6
CONTINUOUS
10
0.048952
20
0.069226
30
0.0
11
0.049359
21
0.069731
31
0.0
0
LINE
8
0
6
CONTINUOUS
10
0.052911
20
0.074134
30
0.0
11
0.053740
21
0.075165
31
0.0
0
LINE
8
0
6
CONTINUOUS
10
0.057175
20
0.080143
30
0.0
11
0.056336
21
0.080809
31
0.0
0
LINE
8
0
6
CONTINUOUS
10
0.018810
20
0.032519
30
0.0
11
0.019635
21
0.033544
31
0.0
0
LINE
8
0
6
CONTINUOUS
10
0.019082
20
0.034616
30
0.0
11
0.019964
21
0.033912
31
0.0
0
LINE
8
0
6
CONTINUOUS
10
0.020304
20
0.034334
30
0.0
11
0.021129
21
0.035359
31
0.0
0
LINE
8
0
6
CONTINUOUS
10
0.021614
20
0.035962
30
0.0
11
0.020890
21
0.036539
31
0.0
0
LINE
8
0
6
CONTINUOUS
10
0.024093
20
0.040065
30
0.0
11
0.024946
21
0.039385
31
0.0
0
LINE
8
0
6
CONTINUOUS
10
0.030028
20
0.044892
30
0.0
11
0.030424
21
0.045385
31
0.0
0
LINE
8
0
6
CONTINUOUS
10
0.029357
20
0.045426
30
0.0
11
0.030028
21
0.044892
31
0.0
0
LINE
8
0
6
CONTINUOUS
10
0.030424
20
0.045385
30
0.0
11
0.031385
21
0.046579
31
0.0
0
LINE
8
0
6
CONTINUOUS
10
0.035483
20
0.051682
30
0.0
11
0.034729
21
0.052282
31
0.0
0
LINE
8
0
6
CONTINUOUS
10
0.034917
20
0.050979
30
0.0
11
0.035483
21
0.051682
31
0.0
0
LINE
8
0
6
CONTINUOUS
10
0.040149
20
0.057479
30
0.0
11
0.039373
21
0.058098
31
0.0
0
LINE
8
0
6
CONTINUOUS
10
0.039584
20
0.056777
30
0.0
11
0.040149
21
0.057479
31
0.0
0
LINE
8
0
6
CONTINUOUS
10
0.031739
20
0.048553
30
0.0
11
0.030991
21
0.049149
31
0.0
0
LINE
8
0
6
CONTINUOUS
10
0.031373
20
0.048098
30
0.0
11
0.031739
21
0.048553
31
0.0
0
LINE
8
0
6
CONTINUOUS
10
0.027396
20
0.043161
30
0.0
11
0.026659
21
0.043748
31
0.0
0
LINE
8
0
6
CONTINUOUS
10
0.027029
20
0.042706
30
0.0
11
0.027396
21
0.043161
31
0.0
0
LINE
8
0
6
CONTINUOUS
10
0.022826
20
0.037470
30
0.0
11
0.023653
21
0.038498
31
0.0
0
LINE
8
0
6
CONTINUOUS
10
0.024019
20
0.038952
30
0.0
11
0.023289
21
0.039534
31
0.0
0
LINE
8
0
6
CONTINUOUS
10
0.023653
20
0.038498
30
0.0
11
0.024019
21
0.038952
31
0.0
0
LINE
8
0
6
CONTINUOUS
10
0.046472
20
0.064140
30
0.0
11
0.047386
21
0.065276
31
0.0
0
LINE
8
0
6
CONTINUOUS
10
0.045609
20
0.064618
30
0.0
11
0.046362
21
0.064002
31
0.0
0
LINE
8
0
6
CONTINUOUS
10
0.039692
20
0.055714
30
0.0
11
0.039387
21
0.055336
31
0.0
0
LINE
8
0
6
CONTINUOUS
10
0.054844
20
0.075738
30
0.0
11
0.054325
21
0.076150
31
0.0
0
LINE
8
0
6
CONTINUOUS
10
0.054363
20
0.075140
30
0.0
11
0.054844
21
0.075738
31
0.0
0
LINE
8
0
6
CONTINUOUS
10
0.039327
20
0.055628
30
0.0
11
0.040318
21
0.056860
31
0.0
0
LINE
8
0
6
CONTINUOUS
10
0.021644
20
0.037117
30
0.0
11
0.022180
21
0.036690
31
0.0
0
LINE
8
0
6
CONTINUOUS
10
0.060004
20
0.082946
30
0.0
11
0.060640
21
0.083735
31
0.0
0
LINE
8
0
6
CONTINUOUS
10
0.059081
20
0.081799
30
0.0
11
0.059225
21
0.081978
31
0.0
0
LINE
8
0
6
CONTINUOUS
10
0.058506
20
0.082262
30
0.0
11
0.059081
21
0.081799
31
0.0
0
LINE
8
0
6
CONTINUOUS
10
0.059225
20
0.081978
30
0.0
11
0.060004
21
0.082946
31
0.0
0
LINE
8
0
6
CONTINUOUS
10
0.055130
20
0.077328
30
0.0
11
0.055733
21
0.076842
31
0.0
0
LINE
8
0
6
CONTINUOUS
10
0.052577
20
0.072109
30
0.0
11
0.051833
21
0.072708
31
0.0
0
LINE
8
0
6
CONTINUOUS
10
0.052975
20
0.073430
30
0.0
11
0.053143
21
0.073639
31
0.0
0
LINE
8
0
6
CONTINUOUS
10
0.052268
20
0.074000
30
0.0
11
0.052975
21
0.073430
31
0.0
0
LINE
8
0
6
CONTINUOUS
10
0.062257
20
0.085749
30
0.0
11
0.061425
21
0.086419
31
0.0
0
LINE
8
0
6
CONTINUOUS
10
0.061622
20
0.084960
30
0.0
11
0.062257
21
0.085749
31
0.0
0
LINE
8
0
6
CONTINUOUS
10
0.060842
20
0.083991
30
0.0
11
0.061622
21
0.084960
31
0.0
0
LINE
8
0
6
CONTINUOUS
10
0.062445
20
0.086686
30
0.0
11
0.063166
21
0.087581
31
0.0
0
LINE
8
0
6
CONTINUOUS
10
0.065749
20
0.090785
30
0.0
11
0.064949
21
0.091431
31
0.0
0
LINE
8
0
6
CONTINUOUS
10
0.065034
20
0.089896
30
0.0
11
0.065749
21
0.090785
31
0.0
0
LINE
8
0
6
CONTINUOUS
10
0.045174
20
0.063747
30
0.0
11
0.044207
21
0.062546
31
0.0
0
LINE
8
0
6
CONTINUOUS
10
0.045648
20
0.064335
30
0.0
11
0.045174
21
0.063747
31
0.0
0
LINE
8
0
6
CONTINUOUS
10
0.044207
20
0.062546
30
0.0
11
0.043715
21
0.061934
31
0.0
0
LINE
8
0
6
CONTINUOUS
10
0.042850
20
0.061630
30
0.0
11
0.043679
21
0.062660
31
0.0
0
LINE
8
0
6
CONTINUOUS
10
0.044086
20
0.063165
30
0.0
11
0.043282
21
0.063803
31
0.0
0
LINE
8
0
6
CONTINUOUS
10
0.043679
20
0.062660
30
0.0
11
0.044086
21
0.063165
31
0.0
0
LINE
8
0
6
CONTINUOUS
10
0.042427
20
0.061105
30
0.0
11
0.042850
21
0.061630
31
0.0
0
LINE
8
0
6
CONTINUOUS
10
0.041630
20
0.061738
30
0.0
11
0.042427
21
0.061105
31
0.0
0
LINE
8
0
6
CONTINUOUS
10
0.043679
20
0.062660
30
0.0
11
0.042850
21
0.061630
31
0.0
0
LINE
8
0
6
CONTINUOUS
10
0.044086
20
0.063165
30
0.0
11
0.043679
21
0.062660
31
0.0
0
LINE
8
0
6
CONTINUOUS
10
0.042850
20
0.061630
30
0.0
11
0.042427
21
0.061105
31
0.0
0
LINE
8
0
6
CONTINUOUS
10
0.042024
20
0.061326
30
0.0
11
0.041238
21
0.061950
31
0.0
0
LINE
8
0
6
CONTINUOUS
10
0.041617
20
0.060821
30
0.0
11
0.042024
21
0.061326
31
0.0
0
LINE
8
0
6
CONTINUOUS
10
0.041617
20
0.060821
30
0.0
11
0.040788
21
0.059791
31
0.0
0
LINE
8
0
6
CONTINUOUS
10
0.042024
20
0.061326
30
0.0
11
0.041617
21
0.060821
31
0.0
0
LINE
8
0
6
CONTINUOUS
10
0.040788
20
0.059791
30
0.0
11
0.040366
21
0.059266
31
0.0
0
LINE
8
0
6
CONTINUOUS
10
0.043808
20
0.060527
30
0.0
11
0.045223
21
0.062285
31
0.0
0
LINE
8
0
6
CONTINUOUS
10
0.042549
20
0.058964
30
0.0
11
0.043808
21
0.060527
31
0.0
0
LINE
8
0
6
CONTINUOUS
10
0.045223
20
0.062285
30
0.0
11
0.043808
21
0.060527
31
0.0
0
LINE
8
0
6
CONTINUOUS
10
0.045380
20
0.062480
30
0.0
11
0.045223
21
0.062285
31
0.0
0
LINE
8
0
6
CONTINUOUS
10
0.043808
20
0.060527
30
0.0
11
0.042549
21
0.058964
31
0.0
0
LINE
8
0
6
CONTINUOUS
10
0.050776
20
0.070715
30
0.0
11
0.049929
21
0.071386
31
0.0
0
LINE
8
0
6
CONTINUOUS
10
0.050302
20
0.070126
30
0.0
11
0.050776
21
0.070715
31
0.0
0
LINE
8
0
6
CONTINUOUS
10
0.050302
20
0.070126
30
0.0
11
0.049335
21
0.068925
31
0.0
0
LINE
8
0
6
CONTINUOUS
10
0.050776
20
0.070715
30
0.0
11
0.050302
21
0.070126
31
0.0
0
LINE
8
0
6
CONTINUOUS
10
0.049335
20
0.068925
30
0.0
11
0.048843
21
0.068313
31
0.0
0
LINE
8
0
6
CONTINUOUS
10
0.047701
20
0.067671
30
0.0
11
0.048123
21
0.068196
31
0.0
0
LINE
8
0
6
CONTINUOUS
10
0.046925
20
0.068286
30
0.0
11
0.047701
21
0.067671
31
0.0
0
LINE
8
0
6
CONTINUOUS
10
0.048952
20
0.069226
30
0.0
11
0.048123
21
0.068196
31
0.0
0
LINE
8
0
6
CONTINUOUS
10
0.049359
20
0.069731
30
0.0
11
0.048952
21
0.069226
31
0.0
0
LINE
8
0
6
CONTINUOUS
10
0.048123
20
0.068196
30
0.0
11
0.047701
21
0.067671
31
0.0
0
LINE
8
0
6
CONTINUOUS
10
0.054147
20
0.075670
30
0.0
11
0.053316
21
0.076329
31
0.0
0
LINE
8
0
6
CONTINUOUS
10
0.053740
20
0.075165
30
0.0
11
0.054147
21
0.075670
31
0.0
0
LINE
8
0
6
CONTINUOUS
10
0.053740
20
0.075165
30
0.0
11
0.052911
21
0.074134
31
0.0
0
LINE
8
0
6
CONTINUOUS
10
0.054147
20
0.075670
30
0.0
11
0.053740
21
0.075165
31
0.0
0
LINE
8
0
6
CONTINUOUS
10
0.052911
20
0.074134
30
0.0
11
0.052489
21
0.073609
31
0.0
0
LINE
8
0
6
CONTINUOUS
10
0.060011
20
0.083674
30
0.0
11
0.060827
21
0.084688
31
0.0
0
LINE
8
0
6
CONTINUOUS
10
0.061107
20
0.085036
30
0.0
11
0.060250
21
0.085718
31
0.0
0
LINE
8
0
6
CONTINUOUS
10
0.060827
20
0.084688
30
0.0
11
0.061107
21
0.085036
31
0.0
0
LINE
8
0
6
CONTINUOUS
10
0.059475
20
0.083009
30
0.0
11
0.060011
21
0.083674
31
0.0
0
LINE
8
0
6
CONTINUOUS
10
0.058728
20
0.083602
30
0.0
11
0.059475
21
0.083009
31
0.0
0
LINE
8
0
6
CONTINUOUS
10
0.060827
20
0.084688
30
0.0
11
0.060011
21
0.083674
31
0.0
0
LINE
8
0
6
CONTINUOUS
10
0.061107
20
0.085036
30
0.0
11
0.060827
21
0.084688
31
0.0
0
LINE
8
0
6
CONTINUOUS
10
0.060011
20
0.083674
30
0.0
11
0.059475
21
0.083009
31
0.0
0
LINE
8
0
6
CONTINUOUS
10
0.056078
20
0.078781
30
0.0
11
0.056894
21
0.079795
31
0.0
0
LINE
8
0
6
CONTINUOUS
10
0.055543
20
0.078116
30
0.0
11
0.056078
21
0.078781
31
0.0
0
LINE
8
0
6
CONTINUOUS
10
0.054777
20
0.078724
30
0.0
11
0.055543
21
0.078116
31
0.0
0
LINE
8
0
6
CONTINUOUS
10
0.056894
20
0.079795
30
0.0
11
0.056078
21
0.078781
31
0.0
0
LINE
8
0
6
CONTINUOUS
10
0.057175
20
0.080143
30
0.0
11
0.056894
21
0.079795
31
0.0
0
LINE
8
0
6
CONTINUOUS
10
0.056078
20
0.078781
30
0.0
11
0.055543
21
0.078116
31
0.0
0
LINE
8
0
6
CONTINUOUS
10
0.051443
20
0.073029
30
0.0
11
0.052258
21
0.074043
31
0.0
0
LINE
8
0
6
CONTINUOUS
10
0.052539
20
0.074391
30
0.0
11
0.051729
21
0.075034
31
0.0
0
LINE
8
0
6
CONTINUOUS
10
0.050907
20
0.072364
30
0.0
11
0.051443
21
0.073029
31
0.0
0
LINE
8
0
6
CONTINUOUS
10
0.050124
20
0.072986
30
0.0
11
0.050907
21
0.072364
31
0.0
0
LINE
8
0
6
CONTINUOUS
10
0.052258
20
0.074043
30
0.0
11
0.051443
21
0.073029
31
0.0
0
LINE
8
0
6
CONTINUOUS
10
0.052539
20
0.074391
30
0.0
11
0.052258
21
0.074043
31
0.0
0
LINE
8
0
6
CONTINUOUS
10
0.051443
20
0.073029
30
0.0
11
0.050907
21
0.072364
31
0.0
0
LINE
8
0
6
CONTINUOUS
10
0.046242
20
0.066581
30
0.0
11
0.047058
21
0.067595
31
0.0
0
LINE
8
0
6
CONTINUOUS
10
0.047339
20
0.067943
30
0.0
11
0.046549
21
0.068570
31
0.0
0
LINE
8
0
6
CONTINUOUS
10
0.044905
20
0.066552
30
0.0
11
0.045707
21
0.065915
31
0.0
0
LINE
8
0
6
CONTINUOUS
10
0.047058
20
0.067595
30
0.0
11
0.046242
21
0.066581
31
0.0
0
LINE
8
0
6
CONTINUOUS
10
0.047339
20
0.067943
30
0.0
11
0.047058
21
0.067595
31
0.0
0
LINE
8
0
6
CONTINUOUS
10
0.046242
20
0.066581
30
0.0
11
0.045707
21
0.065915
31
0.0
0
LINE
8
0
6
CONTINUOUS
10
0.032571
20
0.048877
30
0.0
11
0.033372
21
0.048240
31
0.0
0
LINE
8
0
6
CONTINUOUS
10
0.033781
20
0.048749
30
0.0
11
0.034773
21
0.049982
31
0.0
0
LINE
8
0
6
CONTINUOUS
10
0.035357
20
0.050707
30
0.0
11
0.034599
21
0.051311
31
0.0
0
LINE
8
0
6
CONTINUOUS
10
0.034773
20
0.049982
30
0.0
11
0.035357
21
0.050707
31
0.0
0
LINE
8
0
6
CONTINUOUS
10
0.033781
20
0.048749
30
0.0
11
0.033372
21
0.048240
31
0.0
0
LINE
8
0
6
CONTINUOUS
10
0.034773
20
0.049982
30
0.0
11
0.033781
21
0.048749
31
0.0
0
LINE
8
0
6
CONTINUOUS
10
0.035357
20
0.050707
30
0.0
11
0.034773
21
0.049982
31
0.0
0
LINE
8
0
6
CONTINUOUS
10
0.018470
20
0.032097
30
0.0
11
0.018810
21
0.032519
31
0.0
0
LINE
8
0
6
CONTINUOUS
10
0.017582
20
0.032805
30
0.0
11
0.018470
21
0.032097
31
0.0
0
LINE
8
0
6
CONTINUOUS
10
0.018810
20
0.032519
30
0.0
11
0.018470
21
0.032097
31
0.0
0
LINE
8
0
6
CONTINUOUS
10
0.019635
20
0.033544
30
0.0
11
0.018810
21
0.032519
31
0.0
0
LINE
8
0
6
CONTINUOUS
10
0.020120
20
0.034147
30
0.0
11
0.019635
21
0.033544
31
0.0
0
LINE
8
0
6
CONTINUOUS
10
0.023647
20
0.037788
30
0.0
11
0.024472
21
0.038813
31
0.0
0
LINE
8
0
6
CONTINUOUS
10
0.023647
20
0.037788
30
0.0
11
0.023307
21
0.037365
31
0.0
0
LINE
8
0
6
CONTINUOUS
10
0.024472
20
0.038813
30
0.0
11
0.023647
21
0.037788
31
0.0
0
LINE
8
0
6
CONTINUOUS
10
0.024957
20
0.039415
30
0.0
11
0.024472
21
0.038813
31
0.0
0
LINE
8
0
6
CONTINUOUS
10
0.028086
20
0.042479
30
0.0
11
0.028482
21
0.042972
31
0.0
0
LINE
8
0
6
CONTINUOUS
10
0.027199
20
0.043186
30
0.0
11
0.028086
21
0.042479
31
0.0
0
LINE
8
0
6
CONTINUOUS
10
0.028482
20
0.042972
30
0.0
11
0.029444
21
0.044167
31
0.0
0
LINE
8
0
6
CONTINUOUS
10
0.030009
20
0.044869
30
0.0
11
0.029306
21
0.045429
31
0.0
0
LINE
8
0
6
CONTINUOUS
10
0.029444
20
0.044167
30
0.0
11
0.030009
21
0.044869
31
0.0
0
LINE
8
0
6
CONTINUOUS
10
0.028482
20
0.042972
30
0.0
11
0.028086
21
0.042479
31
0.0
0
LINE
8
0
6
CONTINUOUS
10
0.029444
20
0.044167
30
0.0
11
0.028482
21
0.042972
31
0.0
0
LINE
8
0
6
CONTINUOUS
10
0.030009
20
0.044869
30
0.0
11
0.029444
21
0.044167
31
0.0
0
LINE
8
0
6
CONTINUOUS
10
0.020304
20
0.034334
30
0.0
11
0.019964
21
0.033912
31
0.0
0
LINE
8
0
6
CONTINUOUS
10
0.021129
20
0.035359
30
0.0
11
0.020304
21
0.034334
31
0.0
0
LINE
8
0
6
CONTINUOUS
10
0.021614
20
0.035962
30
0.0
11
0.021129
21
0.035359
31
0.0
0
LINE
8
0
6
CONTINUOUS
10
0.025286
20
0.039807
30
0.0
11
0.026111
21
0.040832
31
0.0
0
LINE
8
0
6
CONTINUOUS
10
0.026111
20
0.040832
30
0.0
11
0.026596
21
0.041435
31
0.0
0
LINE
8
0
6
CONTINUOUS
10
0.025286
20
0.039807
30
0.0
11
0.024946
21
0.039385
31
0.0
0
LINE
8
0
6
CONTINUOUS
10
0.026111
20
0.040832
30
0.0
11
0.025286
21
0.039807
31
0.0
0
LINE
8
0
6
CONTINUOUS
10
0.026596
20
0.041435
30
0.0
11
0.026111
21
0.040832
31
0.0
0
LINE
8
0
6
CONTINUOUS
10
0.031951
20
0.047282
30
0.0
11
0.031230
21
0.047856
31
0.0
0
LINE
8
0
6
CONTINUOUS
10
0.031385
20
0.046579
30
0.0
11
0.031951
21
0.047282
31
0.0
0
LINE
8
0
6
CONTINUOUS
10
0.030424
20
0.045385
30
0.0
11
0.030028
21
0.044892
31
0.0
0
LINE
8
0
6
CONTINUOUS
10
0.031385
20
0.046579
30
0.0
11
0.030424
21
0.045385
31
0.0
0
LINE
8
0
6
CONTINUOUS
10
0.031951
20
0.047282
30
0.0
11
0.031385
21
0.046579
31
0.0
0
LINE
8
0
6
CONTINUOUS
10
0.036582
20
0.052232
30
0.0
11
0.036991
21
0.052740
31
0.0
0
LINE
8
0
6
CONTINUOUS
10
0.035759
20
0.052887
30
0.0
11
0.036582
21
0.052232
31
0.0
0
LINE
8
0
6
CONTINUOUS
10
0.036991
20
0.052740
30
0.0
11
0.037984
21
0.053974
31
0.0
0
LINE
8
0
6
CONTINUOUS
10
0.038568
20
0.054699
30
0.0
11
0.037790
21
0.055318
31
0.0
0
LINE
8
0
6
CONTINUOUS
10
0.037984
20
0.053974
30
0.0
11
0.038568
21
0.054699
31
0.0
0
LINE
8
0
6
CONTINUOUS
10
0.036991
20
0.052740
30
0.0
11
0.036582
21
0.052232
31
0.0
0
LINE
8
0
6
CONTINUOUS
10
0.037984
20
0.053974
30
0.0
11
0.036991
21
0.052740
31
0.0
0
LINE
8
0
6
CONTINUOUS
10
0.038568
20
0.054699
30
0.0
11
0.037984
21
0.053974
31
0.0
0
LINE
8
0
6
CONTINUOUS
10
0.040601
20
0.058854
30
0.0
11
0.041397
21
0.058220
31
0.0
0
LINE
8
0
6
CONTINUOUS
10
0.041806
20
0.058728
30
0.0
11
0.042798
21
0.059962
31
0.0
0
LINE
8
0
6
CONTINUOUS
10
0.043382
20
0.060687
30
0.0
11
0.042587
21
0.061320
31
0.0
0
LINE
8
0
6
CONTINUOUS
10
0.041806
20
0.058728
30
0.0
11
0.041397
21
0.058220
31
0.0
0
LINE
8
0
6
CONTINUOUS
10
0.042798
20
0.059962
30
0.0
11
0.041806
21
0.058728
31
0.0
0
LINE
8
0
6
CONTINUOUS
10
0.043382
20
0.060687
30
0.0
11
0.042798
21
0.059962
31
0.0
0
LINE
8
0
6
CONTINUOUS
10
0.033560
20
0.049292
30
0.0
11
0.033956
21
0.049784
31
0.0
0
LINE
8
0
6
CONTINUOUS
10
0.033185
20
0.049590
30
0.0
11
0.033560
21
0.049292
31
0.0
0
LINE
8
0
6
CONTINUOUS
10
0.033956
20
0.049784
30
0.0
11
0.034917
21
0.050979
31
0.0
0
LINE
8
0
6
CONTINUOUS
10
0.033956
20
0.049784
30
0.0
11
0.033560
21
0.049292
31
0.0
0
LINE
8
0
6
CONTINUOUS
10
0.034917
20
0.050979
30
0.0
11
0.033956
21
0.049784
31
0.0
0
LINE
8
0
6
CONTINUOUS
10
0.035483
20
0.051682
30
0.0
11
0.034917
21
0.050979
31
0.0
0
LINE
8
0
6
CONTINUOUS
10
0.038044
20
0.055235
30
0.0
11
0.038226
21
0.055090
31
0.0
0
LINE
8
0
6
CONTINUOUS
10
0.038622
20
0.055582
30
0.0
11
0.039584
21
0.056777
31
0.0
0
LINE
8
0
6
CONTINUOUS
10
0.038622
20
0.055582
30
0.0
11
0.038226
21
0.055090
31
0.0
0
LINE
8
0
6
CONTINUOUS
10
0.039584
20
0.056777
30
0.0
11
0.038622
21
0.055582
31
0.0
0
LINE
8
0
6
CONTINUOUS
10
0.040149
20
0.057479
30
0.0
11
0.039584
21
0.056777
31
0.0
0
LINE
8
0
6
CONTINUOUS
10
0.028049
20
0.043238
30
0.0
11
0.028389
21
0.043660
31
0.0
0
LINE
8
0
6
CONTINUOUS
10
0.027213
20
0.043905
30
0.0
11
0.028049
21
0.043238
31
0.0
0
LINE
8
0
6
CONTINUOUS
10
0.028389
20
0.043660
30
0.0
11
0.029214
21
0.044685
31
0.0
0
LINE
8
0
6
CONTINUOUS
10
0.029699
20
0.045288
30
0.0
11
0.028945
21
0.045889
31
0.0
0
LINE
8
0
6
CONTINUOUS
10
0.029214
20
0.044685
30
0.0
11
0.029699
21
0.045288
31
0.0
0
LINE
8
0
6
CONTINUOUS
10
0.028389
20
0.043660
30
0.0
11
0.028049
21
0.043238
31
0.0
0
LINE
8
0
6
CONTINUOUS
10
0.029214
20
0.044685
30
0.0
11
0.028389
21
0.043660
31
0.0
0
LINE
8
0
6
CONTINUOUS
10
0.029699
20
0.045288
30
0.0
11
0.029214
21
0.044685
31
0.0
0
LINE
8
0
6
CONTINUOUS
10
0.031318
20
0.048992
30
0.0
11
0.032115
21
0.048356
31
0.0
0
LINE
8
0
6
CONTINUOUS
10
0.032481
20
0.048757
30
0.0
11
0.033306
21
0.049782
31
0.0
0
LINE
8
0
6
CONTINUOUS
10
0.033791
20
0.050385
30
0.0
11
0.033025
21
0.050996
31
0.0
0
LINE
8
0
6
CONTINUOUS
10
0.033306
20
0.049782
30
0.0
11
0.033791
21
0.050385
31
0.0
0
LINE
8
0
6
CONTINUOUS
10
0.032481
20
0.048757
30
0.0
11
0.032142
21
0.048335
31
0.0
0
LINE
8
0
6
CONTINUOUS
10
0.033306
20
0.049782
30
0.0
11
0.032481
21
0.048757
31
0.0
0
LINE
8
0
6
CONTINUOUS
10
0.033791
20
0.050385
30
0.0
11
0.033306
21
0.049782
31
0.0
0
LINE
8
0
6
CONTINUOUS
10
0.037044
20
0.054424
30
0.0
11
0.037384
21
0.054847
31
0.0
0
LINE
8
0
6
CONTINUOUS
10
0.036234
20
0.055071
30
0.0
11
0.037044
21
0.054424
31
0.0
0
LINE
8
0
6
CONTINUOUS
10
0.037384
20
0.054847
30
0.0
11
0.038209
21
0.055872
31
0.0
0
LINE
8
0
6
CONTINUOUS
10
0.038694
20
0.056474
30
0.0
11
0.037913
21
0.057097
31
0.0
0
LINE
8
0
6
CONTINUOUS
10
0.037384
20
0.054847
30
0.0
11
0.037044
21
0.054424
31
0.0
0
LINE
8
0
6
CONTINUOUS
10
0.038209
20
0.055872
30
0.0
11
0.037384
21
0.054847
31
0.0
0
LINE
8
0
6
CONTINUOUS
10
0.038694
20
0.056474
30
0.0
11
0.038209
21
0.055872
31
0.0
0
LINE
8
0
6
CONTINUOUS
10
0.035013
20
0.052631
30
0.0
11
0.035474
21
0.053204
31
0.0
0
LINE
8
0
6
CONTINUOUS
10
0.034184
20
0.053291
30
0.0
11
0.035013
21
0.052631
31
0.0
0
LINE
8
0
6
CONTINUOUS
10
0.035474
20
0.053204
30
0.0
11
0.036302
21
0.054232
31
0.0
0
LINE
8
0
6
CONTINUOUS
10
0.036668
20
0.054687
30
0.0
11
0.035906
21
0.055293
31
0.0
0
LINE
8
0
6
CONTINUOUS
10
0.036302
20
0.054232
30
0.0
11
0.036668
21
0.054687
31
0.0
0
LINE
8
0
6
CONTINUOUS
10
0.035474
20
0.053204
30
0.0
11
0.035013
21
0.052631
31
0.0
0
LINE
8
0
6
CONTINUOUS
10
0.036302
20
0.054232
30
0.0
11
0.035474
21
0.053204
31
0.0
0
LINE
8
0
6
CONTINUOUS
10
0.036668
20
0.054687
30
0.0
11
0.036302
21
0.054232
31
0.0
0
LINE
8
0
6
CONTINUOUS
10
0.030085
20
0.046497
30
0.0
11
0.030546
21
0.047070
31
0.0
0
LINE
8
0
6
CONTINUOUS
10
0.029240
20
0.047170
30
0.0
11
0.030085
21
0.046497
31
0.0
0
LINE
8
0
6
CONTINUOUS
10
0.030546
20
0.047070
30
0.0
11
0.031373
21
0.048098
31
0.0
0
LINE
8
0
6
CONTINUOUS
10
0.030546
20
0.047070
30
0.0
11
0.030085
21
0.046497
31
0.0
0
LINE
8
0
6
CONTINUOUS
10
0.031373
20
0.048098
30
0.0
11
0.030546
21
0.047070
31
0.0
0
LINE
8
0
6
CONTINUOUS
10
0.031739
20
0.048553
30
0.0
11
0.031373
21
0.048098
31
0.0
0
LINE
8
0
6
CONTINUOUS
10
0.025741
20
0.041105
30
0.0
11
0.026202
21
0.041678
31
0.0
0
LINE
8
0
6
CONTINUOUS
10
0.024881
20
0.041790
30
0.0
11
0.025741
21
0.041105
31
0.0
0
LINE
8
0
6
CONTINUOUS
10
0.026202
20
0.041678
30
0.0
11
0.027029
21
0.042706
31
0.0
0
LINE
8
0
6
CONTINUOUS
10
0.026202
20
0.041678
30
0.0
11
0.025741
21
0.041105
31
0.0
0
LINE
8
0
6
CONTINUOUS
10
0.027029
20
0.042706
30
0.0
11
0.026202
21
0.041678
31
0.0
0
LINE
8
0
6
CONTINUOUS
10
0.027396
20
0.043161
30
0.0
11
0.027029
21
0.042706
31
0.0
0
LINE
8
0
6
CONTINUOUS
10
0.022365
20
0.036896
30
0.0
11
0.022826
21
0.037470
31
0.0
0
LINE
8
0
6
CONTINUOUS
10
0.021497
20
0.037587
30
0.0
11
0.022365
21
0.036896
31
0.0
0
LINE
8
0
6
CONTINUOUS
10
0.022826
20
0.037470
30
0.0
11
0.022365
21
0.036896
31
0.0
0
LINE
8
0
6
CONTINUOUS
10
0.023653
20
0.038498
30
0.0
11
0.022826
21
0.037470
31
0.0
0
LINE
8
0
6
CONTINUOUS
10
0.024019
20
0.038952
30
0.0
11
0.023653
21
0.038498
31
0.0
0
LINE
8
0
6
CONTINUOUS
10
0.040814
20
0.058477
30
0.0
11
0.041485
21
0.057946
31
0.0
0
LINE
8
0
6
CONTINUOUS
10
0.047386
20
0.065276
30
0.0
11
0.048190
21
0.066274
31
0.0
0
LINE
8
0
6
CONTINUOUS
10
0.046472
20
0.064140
30
0.0
11
0.046362
21
0.064002
31
0.0
0
LINE
8
0
6
CONTINUOUS
10
0.047386
20
0.065276
30
0.0
11
0.046472
21
0.064140
31
0.0
0
LINE
8
0
6
CONTINUOUS
10
0.048190
20
0.066274
30
0.0
11
0.047386
21
0.065276
31
0.0
0
LINE
8
0
6
CONTINUOUS
10
0.045663
20
0.064521
30
0.0
11
0.046337
21
0.063979
31
0.0
0
LINE
8
0
6
CONTINUOUS
10
0.042376
20
0.059058
30
0.0
11
0.043286
21
0.060188
31
0.0
0
LINE
8
0
6
CONTINUOUS
10
0.043286
20
0.060188
30
0.0
11
0.043387
21
0.060313
31
0.0
0
LINE
8
0
6
CONTINUOUS
10
0.041567
20
0.058052
30
0.0
11
0.042376
21
0.059058
31
0.0
0
LINE
8
0
6
CONTINUOUS
10
0.040750
20
0.058716
30
0.0
11
0.041567
21
0.058052
31
0.0
0
LINE
8
0
6
CONTINUOUS
10
0.043286
20
0.060188
30
0.0
11
0.042376
21
0.059058
31
0.0
0
LINE
8
0
6
CONTINUOUS
10
0.043387
20
0.060313
30
0.0
11
0.043286
21
0.060188
31
0.0
0
LINE
8
0
6
CONTINUOUS
10
0.042376
20
0.059058
30
0.0
11
0.041567
21
0.058052
31
0.0
0
LINE
8
0
6
CONTINUOUS
10
0.039692
20
0.055714
30
0.0
11
0.038959
21
0.056299
31
0.0
0
LINE
8
0
6
CONTINUOUS
10
0.039387
20
0.055336
30
0.0
11
0.039692
21
0.055714
31
0.0
0
LINE
8
0
6
CONTINUOUS
10
0.038520
20
0.054267
30
0.0
11
0.039430
21
0.055398
31
0.0
0
LINE
8
0
6
CONTINUOUS
10
0.039531
20
0.055523
30
0.0
11
0.038803
21
0.056116
31
0.0
0
LINE
8
0
6
CONTINUOUS
10
0.039430
20
0.055398
30
0.0
11
0.039531
21
0.055523
31
0.0
0
LINE
8
0
6
CONTINUOUS
10
0.037711
20
0.053261
30
0.0
11
0.038520
21
0.054267
31
0.0
0
LINE
8
0
6
CONTINUOUS
10
0.039430
20
0.055398
30
0.0
11
0.038520
21
0.054267
31
0.0
0
LINE
8
0
6
CONTINUOUS
10
0.039531
20
0.055523
30
0.0
11
0.039430
21
0.055398
31
0.0
0
LINE
8
0
6
CONTINUOUS
10
0.038520
20
0.054267
30
0.0
11
0.037711
21
0.053261
31
0.0
0
LINE
8
0
6
CONTINUOUS
10
0.049337
20
0.067705
30
0.0
11
0.050247
21
0.068836
31
0.0
0
LINE
8
0
6
CONTINUOUS
10
0.050348
20
0.068961
30
0.0
11
0.049522
21
0.069633
31
0.0
0
LINE
8
0
6
CONTINUOUS
10
0.048527
20
0.066699
30
0.0
11
0.049337
21
0.067705
31
0.0
0
LINE
8
0
6
CONTINUOUS
10
0.050247
20
0.068836
30
0.0
11
0.049337
21
0.067705
31
0.0
0
LINE
8
0
6
CONTINUOUS
10
0.050348
20
0.068961
30
0.0
11
0.050247
21
0.068836
31
0.0
0
LINE
8
0
6
CONTINUOUS
10
0.049337
20
0.067705
30
0.0
11
0.048527
21
0.066699
31
0.0
0
LINE
8
0
6
CONTINUOUS
10
0.045749
20
0.063621
30
0.0
11
0.045268
21
0.064002
31
0.0
0
LINE
8
0
6
CONTINUOUS
10
0.045252
20
0.063004
30
0.0
11
0.045749
21
0.063621
31
0.0
0
LINE
8
0
6
CONTINUOUS
10
0.045749
20
0.063621
30
0.0
11
0.045252
21
0.063004
31
0.0
0
LINE
8
0
6
CONTINUOUS
10
0.050647
20
0.069702
30
0.0
11
0.049975
21
0.070235
31
0.0
0
LINE
8
0
6
CONTINUOUS
10
0.050150
20
0.069085
30
0.0
11
0.050647
21
0.069702
31
0.0
0
LINE
8
0
6
CONTINUOUS
10
0.050647
20
0.069702
30
0.0
11
0.050150
21
0.069085
31
0.0
0
LINE
8
0
6
CONTINUOUS
10
0.054844
20
0.075738
30
0.0
11
0.054363
21
0.075140
31
0.0
0
LINE
8
0
6
CONTINUOUS
10
0.032656
20
0.047348
30
0.0
11
0.033250
21
0.048087
31
0.0
0
LINE
8
0
6
CONTINUOUS
10
0.031805
20
0.048026
30
0.0
11
0.032656
21
0.047348
31
0.0
0
LINE
8
0
6
CONTINUOUS
10
0.033250
20
0.048087
30
0.0
11
0.032656
21
0.047348
31
0.0
0
LINE
8
0
6
CONTINUOUS
10
0.017577
20
0.032735
30
0.0
11
0.018433
21
0.032052
31
0.0
0
LINE
8
0
6
CONTINUOUS
10
0.024601
20
0.038959
30
0.0
11
0.024931
21
0.039368
31
0.0
0
LINE
8
0
6
CONTINUOUS
10
0.023284
20
0.037321
30
0.0
11
0.023777
21
0.037935
31
0.0
0
LINE
8
0
6
CONTINUOUS
10
0.023777
20
0.037935
30
0.0
11
0.024601
21
0.038959
31
0.0
0
LINE
8
0
6
CONTINUOUS
10
0.023777
20
0.037935
30
0.0
11
0.023284
21
0.037321
31
0.0
0
LINE
8
0
6
CONTINUOUS
10
0.024601
20
0.038959
30
0.0
11
0.023777
21
0.037935
31
0.0
0
LINE
8
0
6
CONTINUOUS
10
0.024931
20
0.039368
30
0.0
11
0.024601
21
0.038959
31
0.0
0
LINE
8
0
6
CONTINUOUS
10
0.027190
20
0.043125
30
0.0
11
0.028051
21
0.042439
31
0.0
0
LINE
8
0
6
CONTINUOUS
10
0.024691
20
0.039061
30
0.0
11
0.025185
21
0.039675
31
0.0
0
LINE
8
0
6
CONTINUOUS
10
0.025185
20
0.039675
30
0.0
11
0.024691
21
0.039061
31
0.0
0
LINE
8
0
6
CONTINUOUS
10
0.036514
20
0.052142
30
0.0
11
0.035842
21
0.052677
31
0.0
0
LINE
8
0
6
CONTINUOUS
10
0.035126
20
0.050417
30
0.0
11
0.036117
21
0.051649
31
0.0
0
LINE
8
0
6
CONTINUOUS
10
0.036117
20
0.051649
30
0.0
11
0.035126
21
0.050417
31
0.0
0
LINE
8
0
6
CONTINUOUS
10
0.036514
20
0.052142
30
0.0
11
0.036117
21
0.051649
31
0.0
0
LINE
8
0
6
CONTINUOUS
10
0.040715
20
0.057353
30
0.0
11
0.040204
21
0.057760
31
0.0
0
LINE
8
0
6
CONTINUOUS
10
0.040318
20
0.056860
30
0.0
11
0.040715
21
0.057353
31
0.0
0
LINE
8
0
6
CONTINUOUS
10
0.040318
20
0.056860
30
0.0
11
0.039327
21
0.055628
31
0.0
0
LINE
8
0
6
CONTINUOUS
10
0.040715
20
0.057353
30
0.0
11
0.040318
21
0.056860
31
0.0
0
LINE
8
0
6
CONTINUOUS
10
0.026983
20
0.042905
30
0.0
11
0.027479
21
0.042510
31
0.0
0
LINE
8
0
6
CONTINUOUS
10
0.031395
20
0.047388
30
0.0
11
0.031889
21
0.048002
31
0.0
0
LINE
8
0
6
CONTINUOUS
10
0.031889
20
0.048002
30
0.0
11
0.031395
21
0.047388
31
0.0
0
LINE
8
0
6
CONTINUOUS
10
0.026072
20
0.041504
30
0.0
11
0.026900
21
0.042533
31
0.0
0
LINE
8
0
6
CONTINUOUS
10
0.026900
20
0.042533
30
0.0
11
0.026072
21
0.041504
31
0.0
0
LINE
8
0
6
CONTINUOUS
10
0.064029
20
0.088665
30
0.0
11
0.063382
21
0.089186
31
0.0
0
LINE
8
0
6
CONTINUOUS
10
0.059225
20
0.081978
30
0.0
11
0.059081
21
0.081799
31
0.0
0
LINE
8
0
6
CONTINUOUS
10
0.060004
20
0.082946
30
0.0
11
0.059225
21
0.081978
31
0.0
0
LINE
8
0
6
CONTINUOUS
10
0.060640
20
0.083735
30
0.0
11
0.060004
21
0.082946
31
0.0
0
LINE
8
0
6
CONTINUOUS
10
0.055900
20
0.077051
30
0.0
11
0.055733
21
0.076842
31
0.0
0
LINE
8
0
6
CONTINUOUS
10
0.063554
20
0.089430
30
0.0
11
0.064227
21
0.088887
31
0.0
0
LINE
8
0
6
CONTINUOUS
10
0.064371
20
0.089066
30
0.0
11
0.064227
21
0.088887
31
0.0
0
LINE
8
0
6
CONTINUOUS
10
0.060555
20
0.083626
30
0.0
11
0.060698
21
0.083805
31
0.0
0
LINE
8
0
6
CONTINUOUS
10
0.060698
20
0.083805
30
0.0
11
0.060555
21
0.083626
31
0.0
0
LINE
8
0
6
CONTINUOUS
10
0.058524
20
0.080294
30
0.0
11
0.057644
21
0.081002
31
0.0
0
LINE
8
0
6
CONTINUOUS
10
0.057783
20
0.079374
30
0.0
11
0.058524
21
0.080294
31
0.0
0
LINE
8
0
6
CONTINUOUS
10
0.056707
20
0.078036
30
0.0
11
0.056875
21
0.078245
31
0.0
0
LINE
8
0
6
CONTINUOUS
10
0.056875
20
0.078245
30
0.0
11
0.057783
21
0.079374
31
0.0
0
LINE
8
0
6
CONTINUOUS
10
0.056875
20
0.078245
30
0.0
11
0.056707
21
0.078036
31
0.0
0
LINE
8
0
6
CONTINUOUS
10
0.057783
20
0.079374
30
0.0
11
0.056875
21
0.078245
31
0.0
0
LINE
8
0
6
CONTINUOUS
10
0.058524
20
0.080294
30
0.0
11
0.057783
21
0.079374
31
0.0
0
LINE
8
0
6
CONTINUOUS
10
0.053663
20
0.073449
30
0.0
11
0.054428
21
0.074398
31
0.0
0
LINE
8
0
6
CONTINUOUS
10
0.052553
20
0.072068
30
0.0
11
0.052726
21
0.072284
31
0.0
0
LINE
8
0
6
CONTINUOUS
10
0.052726
20
0.072284
30
0.0
11
0.053663
21
0.073449
31
0.0
0
LINE
8
0
6
CONTINUOUS
10
0.052726
20
0.072284
30
0.0
11
0.052553
21
0.072068
31
0.0
0
LINE
8
0
6
CONTINUOUS
10
0.053663
20
0.073449
30
0.0
11
0.052726
21
0.072284
31
0.0
0
LINE
8
0
6
CONTINUOUS
10
0.054428
20
0.074398
30
0.0
11
0.053663
21
0.073449
31
0.0
0
LINE
8
0
6
CONTINUOUS
10
0.050701
20
0.069778
30
0.0
11
0.050875
21
0.069994
31
0.0
0
LINE
8
0
6
CONTINUOUS
10
0.049949
20
0.070385
30
0.0
11
0.050701
21
0.069778
31
0.0
0
LINE
8
0
6
CONTINUOUS
10
0.050875
20
0.069994
30
0.0
11
0.051812
21
0.071159
31
0.0
0
LINE
8
0
6
CONTINUOUS
10
0.050875
20
0.069994
30
0.0
11
0.050701
21
0.069778
31
0.0
0
LINE
8
0
6
CONTINUOUS
10
0.051812
20
0.071159
30
0.0
11
0.050875
21
0.069994
31
0.0
0
LINE
8
0
6
CONTINUOUS
10
0.052577
20
0.072109
30
0.0
11
0.051812
21
0.071159
31
0.0
0
LINE
8
0
6
CONTINUOUS
10
0.056872
20
0.078271
30
0.0
11
0.057613
21
0.079190
31
0.0
0
LINE
8
0
6
CONTINUOUS
10
0.055796
20
0.076933
30
0.0
11
0.055964
21
0.077142
31
0.0
0
LINE
8
0
6
CONTINUOUS
10
0.055098
20
0.077496
30
0.0
11
0.055796
21
0.076933
31
0.0
0
LINE
8
0
6
CONTINUOUS
10
0.055964
20
0.077142
30
0.0
11
0.056872
21
0.078271
31
0.0
0
LINE
8
0
6
CONTINUOUS
10
0.055964
20
0.077142
30
0.0
11
0.055796
21
0.076933
31
0.0
0
LINE
8
0
6
CONTINUOUS
10
0.056872
20
0.078271
30
0.0
11
0.055964
21
0.077142
31
0.0
0
LINE
8
0
6
CONTINUOUS
10
0.057613
20
0.079190
30
0.0
11
0.056872
21
0.078271
31
0.0
0
LINE
8
0
6
CONTINUOUS
10
0.054791
20
0.075687
30
0.0
11
0.054287
21
0.076094
31
0.0
0
LINE
8
0
6
CONTINUOUS
10
0.054051
20
0.074767
30
0.0
11
0.054791
21
0.075687
31
0.0
0
LINE
8
0
6
CONTINUOUS
10
0.053143
20
0.073639
30
0.0
11
0.054051
21
0.074767
31
0.0
0
LINE
8
0
6
CONTINUOUS
10
0.053143
20
0.073639
30
0.0
11
0.052975
21
0.073430
31
0.0
0
LINE
8
0
6
CONTINUOUS
10
0.054051
20
0.074767
30
0.0
11
0.053143
21
0.073639
31
0.0
0
LINE
8
0
6
CONTINUOUS
10
0.054791
20
0.075687
30
0.0
11
0.054051
21
0.074767
31
0.0
0
LINE
8
0
6
CONTINUOUS
10
0.060842
20
0.083991
30
0.0
11
0.060699
21
0.083812
31
0.0
0
LINE
8
0
6
CONTINUOUS
10
0.061622
20
0.084960
30
0.0
11
0.060842
21
0.083991
31
0.0
0
LINE
8
0
6
CONTINUOUS
10
0.062257
20
0.085749
30
0.0
11
0.061622
21
0.084960
31
0.0
0
LINE
8
0
6
CONTINUOUS
10
0.060329
20
0.083369
30
0.0
11
0.060964
21
0.084158
31
0.0
0
LINE
8
0
6
CONTINUOUS
10
0.058679
20
0.082808
30
0.0
11
0.059406
21
0.082222
31
0.0
0
LINE
8
0
6
CONTINUOUS
10
0.059550
20
0.082401
30
0.0
11
0.060329
21
0.083369
31
0.0
0
LINE
8
0
6
CONTINUOUS
10
0.059550
20
0.082401
30
0.0
11
0.059406
21
0.082222
31
0.0
0
LINE
8
0
6
CONTINUOUS
10
0.060329
20
0.083369
30
0.0
11
0.059550
21
0.082401
31
0.0
0
LINE
8
0
6
CONTINUOUS
10
0.060964
20
0.084158
30
0.0
11
0.060329
21
0.083369
31
0.0
0
LINE
8
0
6
CONTINUOUS
10
0.058085
20
0.080566
30
0.0
11
0.057609
21
0.080950
31
0.0
0
LINE
8
0
6
CONTINUOUS
10
0.057449
20
0.079777
30
0.0
11
0.058085
21
0.080566
31
0.0
0
LINE
8
0
6
CONTINUOUS
10
0.056527
20
0.078630
30
0.0
11
0.056670
21
0.078809
31
0.0
0
LINE
8
0
6
CONTINUOUS
10
0.056670
20
0.078809
30
0.0
11
0.057449
21
0.079777
31
0.0
0
LINE
8
0
6
CONTINUOUS
10
0.056670
20
0.078809
30
0.0
11
0.056527
21
0.078630
31
0.0
0
LINE
8
0
6
CONTINUOUS
10
0.057449
20
0.079777
30
0.0
11
0.056670
21
0.078809
31
0.0
0
LINE
8
0
6
CONTINUOUS
10
0.058085
20
0.080566
30
0.0
11
0.057449
21
0.079777
31
0.0
0
LINE
8
0
6
CONTINUOUS
10
0.063881
20
0.088470
30
0.0
11
0.063241
21
0.088987
31
0.0
0
LINE
8
0
6
CONTINUOUS
10
0.063166
20
0.087581
30
0.0
11
0.063881
21
0.088470
31
0.0
0
LINE
8
0
6
CONTINUOUS
10
0.061723
20
0.087257
30
0.0
11
0.062439
21
0.086678
31
0.0
0
LINE
8
0
6
CONTINUOUS
10
0.063166
20
0.087581
30
0.0
11
0.062445
21
0.086686
31
0.0
0
LINE
8
0
6
CONTINUOUS
10
0.063881
20
0.088470
30
0.0
11
0.063166
21
0.087581
31
0.0
0
LINE
8
0
6
CONTINUOUS
10
0.063588
20
0.089574
30
0.0
11
0.064308
21
0.088993
31
0.0
0
LINE
8
0
6
CONTINUOUS
10
0.064313
20
0.089000
30
0.0
11
0.065034
21
0.089896
31
0.0
0
LINE
8
0
6
CONTINUOUS
10
0.065034
20
0.089896
30
0.0
11
0.064313
21
0.089000
31
0.0
0
LINE
8
0
6
CONTINUOUS
10
0.065749
20
0.090785
30
0.0
11
0.065034
21
0.089896
31
0.0
0
LINE
8
0
6
CONTINUOUS
10
0.066435
20
0.091649
30
0.0
11
0.065562
21
0.092354
31
0.0
0
LINE
8
0
6
CONTINUOUS
10
0.065720
20
0.090761
30
0.0
11
0.066435
21
0.091649
31
0.0
0
LINE
8
0
6
CONTINUOUS
10
0.066435
20
0.091649
30
0.0
11
0.065720
21
0.090761
31
0.0
0
LINE
8
0
6
CONTINUOUS
10
0.047094
20
0.065299
30
0.0
11
0.048091
21
0.066538
31
0.0
0
LINE
8
0
6
CONTINUOUS
10
0.048581
20
0.067146
30
0.0
11
0.047766
21
0.067791
31
0.0
0
LINE
8
0
6
CONTINUOUS
10
0.048091
20
0.066538
30
0.0
11
0.048581
21
0.067146
31
0.0
0
LINE
8
0
6
CONTINUOUS
10
0.046585
20
0.064667
30
0.0
11
0.047094
21
0.065299
31
0.0
0
LINE
8
0
6
CONTINUOUS
10
0.045801
20
0.065287
30
0.0
11
0.046585
21
0.064667
31
0.0
0
LINE
8
0
6
CONTINUOUS
10
0.048091
20
0.066538
30
0.0
11
0.047094
21
0.065299
31
0.0
0
LINE
8
0
6
CONTINUOUS
10
0.048581
20
0.067146
30
0.0
11
0.048091
21
0.066538
31
0.0
0
LINE
8
0
6
CONTINUOUS
10
0.047094
20
0.065299
30
0.0
11
0.046585
21
0.064667
31
0.0
0
LINE
8
0
6
CONTINUOUS
10
-0.063436
20
-0.084591
30
0.0
11
-0.068718
21
-0.112141
31
0.0
0
LINE
8
0
6
CONTINUOUS
10
-0.048918
20
-0.117063
30
0.0
11
-0.040686
21
-0.090247
31
0.0
0
LINE
8
0
6
CONTINUOUS
10
-0.062930
20
-0.082555
30
0.0
11
-0.062952
21
-0.082646
31
0.0
0
LINE
8
0
6
CONTINUOUS
10
-0.040203
20
-0.088301
30
0.0
11
-0.040180
21
-0.088211
31
0.0
0
LINE
8
0
6
CONTINUOUS
10
-0.062952
20
-0.082646
30
0.0
11
-0.063436
21
-0.084591
31
0.0
0
LINE
8
0
6
CONTINUOUS
10
-0.040686
20
-0.090247
30
0.0
11
-0.040203
21
-0.088301
31
0.0
0
LINE
8
0
6
CONTINUOUS
10
-0.068718
20
-0.112141
30
0.0
11
-0.068811
21
-0.112623
31
0.0
0
LINE
8
0
6
CONTINUOUS
10
-0.049063
20
-0.117533
30
0.0
11
-0.048918
21
-0.117063
31
0.0
0
LINE
8
0
6
CONTINUOUS
10
-0.004009
20
0.018102
30
0.0
11
0.001585
21
0.030560
31
0.0
0
LINE
8
0
6
CONTINUOUS
10
-0.063563
20
-0.081559
30
0.0
11
-0.063868
21
-0.082322
31
0.0
0
LINE
8
0
6
CONTINUOUS
10
-0.013125
20
0.024935
30
0.0
11
-0.016172
21
0.027386
31
0.0
0
LINE
8
0
6
CONTINUOUS
10
-0.005700
20
0.018942
30
0.0
11
-0.005946
21
0.019139
31
0.0
0
LINE
8
0
6
CONTINUOUS
10
-0.002828
20
0.013526
30
0.0
11
-0.002697
21
0.013892
31
0.0
0
LINE
8
0
6
CONTINUOUS
10
-0.010341
20
0.043617
30
0.0
11
-0.017691
21
0.029141
31
0.0
0
LINE
8
0
6
CONTINUOUS
10
-0.062089
20
-0.082764
30
0.0
11
-0.059872
21
-0.083316
31
0.0
0
LINE
8
0
6
CONTINUOUS
10
-0.059872
20
-0.083316
30
0.0
11
-0.056245
21
-0.084217
31
0.0
0
LINE
8
0
6
CONTINUOUS
10
-0.047638
20
-0.086357
30
0.0
11
-0.044445
21
-0.087150
31
0.0
0
LINE
8
0
6
CONTINUOUS
10
-0.044445
20
-0.087150
30
0.0
11
-0.042262
21
-0.087693
31
0.0
0
LINE
8
0
6
CONTINUOUS
10
-0.039244
20
-0.088443
30
0.0
11
-0.038991
21
-0.087736
31
0.0
0
LINE
8
0
6
CONTINUOUS
10
-0.018284
20
0.028842
30
0.0
11
-0.019492
21
0.028911
31
0.0
0
LINE
8
0
6
CONTINUOUS
10
-0.019492
20
0.028911
30
0.0
11
-0.019966
21
0.027724
31
0.0
0
LINE
8
0
6
CONTINUOUS
10
-0.002697
20
0.013892
30
0.0
11
-0.002278
21
0.015065
31
0.0
0
LINE
8
0
6
CONTINUOUS
10
-0.003347
20
0.016992
30
0.0
11
-0.003511
21
0.017137
31
0.0
0
LINE
8
0
6
CONTINUOUS
10
-0.003153
20
0.016642
30
0.0
11
-0.003347
21
0.016992
31
0.0
0
LINE
8
0
6
CONTINUOUS
10
-0.019966
20
0.027724
30
0.0
11
-0.020123
21
0.027330
31
0.0
0
LINE
8
0
6
CONTINUOUS
10
-0.004199
20
0.017679
30
0.0
11
-0.004009
21
0.018102
31
0.0
0
LINE
8
0
6
CONTINUOUS
10
-0.017691
20
0.029141
30
0.0
11
-0.017899
21
0.028732
31
0.0
0
LINE
8
0
6
CONTINUOUS
10
-0.055513
20
-0.084399
30
0.0
11
-0.048400
21
-0.086167
31
0.0
0
LINE
8
0
6
CONTINUOUS
10
-0.056245
20
-0.084217
30
0.0
11
-0.055513
21
-0.084399
31
0.0
0
LINE
8
0
6
CONTINUOUS
10
-0.042262
20
-0.087693
30
0.0
11
-0.042039
21
-0.087748
31
0.0
0
LINE
8
0
6
CONTINUOUS
10
-0.038991
20
-0.087736
30
0.0
11
-0.002828
21
0.013526
31
0.0
0
LINE
8
0
6
CONTINUOUS
10
-0.020123
20
0.027330
30
0.0
11
-0.063563
21
-0.081559
31
0.0
0
LINE
8
0
6
CONTINUOUS
10
-0.018016
20
0.028827
30
0.0
11
-0.018284
21
0.028842
31
0.0
0
LINE
8
0
6
CONTINUOUS
10
-0.017763
20
0.028640
30
0.0
11
-0.018016
21
0.028827
31
0.0
0
LINE
8
0
6
CONTINUOUS
10
-0.017130
20
0.028144
30
0.0
11
-0.017763
21
0.028640
31
0.0
0
LINE
8
0
6
CONTINUOUS
10
-0.016172
20
0.027386
30
0.0
11
-0.017130
21
0.028144
31
0.0
0
LINE
8
0
6
CONTINUOUS
10
-0.004717
20
0.018138
30
0.0
11
-0.005700
21
0.018942
31
0.0
0
LINE
8
0
6
CONTINUOUS
10
-0.004620
20
0.018058
30
0.0
11
-0.004717
21
0.018138
31
0.0
0
LINE
8
0
6
CONTINUOUS
10
-0.003511
20
0.017137
30
0.0
11
-0.003999
21
0.017546
31
0.0
0
LINE
8
0
6
CONTINUOUS
10
-0.002278
20
0.015065
30
0.0
11
-0.003153
21
0.016642
31
0.0
0
LINE
8
0
6
CONTINUOUS
10
-0.003999
20
0.017546
30
0.0
11
-0.004620
21
0.018058
31
0.0
0
LINE
8
0
6
CONTINUOUS
10
-0.040637
20
-0.088128
30
0.0
11
-0.039567
21
-0.088379
31
0.0
0
LINE
8
0
6
CONTINUOUS
10
0.062708
20
0.090281
30
0.0
11
0.066025
21
0.094398
31
0.0
0
LINE
8
0
6
CONTINUOUS
10
0.068764
20
0.097884
30
0.0
11
0.068029
21
0.098714
31
0.0
0
LINE
8
0
6
CONTINUOUS
10
0.068078
20
0.096947
30
0.0
11
0.068764
21
0.097884
31
0.0
0
LINE
8
0
6
CONTINUOUS
10
0.011902
20
0.028976
30
0.0
11
0.012871
21
0.028436
31
0.0
0
LINE
8
0
6
CONTINUOUS
10
0.012871
20
0.028436
30
0.0
11
0.013578
21
0.029322
31
0.0
0
LINE
8
0
6
CONTINUOUS
10
0.013578
20
0.029322
30
0.0
11
0.015651
21
0.031904
31
0.0
0
LINE
8
0
6
CONTINUOUS
10
0.034642
20
0.055503
30
0.0
11
0.040910
21
0.063201
31
0.0
0
LINE
8
0
6
CONTINUOUS
10
0.064801
20
0.108063
30
0.0
11
0.059334
21
0.112136
31
0.0
0
LINE
8
0
6
CONTINUOUS
10
0.001585
20
0.030560
30
0.0
11
0.002079
21
0.030131
31
0.0
0
LINE
8
0
6
CONTINUOUS
10
0.059334
20
0.112136
30
0.0
11
0.056497
21
0.113846
31
0.0
0
LINE
8
0
6
CONTINUOUS
10
0.053549
20
0.115407
30
0.0
11
0.050504
21
0.116787
31
0.0
0
LINE
8
0
6
CONTINUOUS
10
0.048032
20
0.117533
30
0.0
11
0.047908
21
0.117513
31
0.0
0
LINE
8
0
6
CONTINUOUS
10
0.047908
20
0.117513
30
0.0
11
0.047038
21
0.117341
31
0.0
0
LINE
8
0
6
CONTINUOUS
10
0.047038
20
0.117341
30
0.0
11
0.046634
21
0.117237
31
0.0
0
LINE
8
0
6
CONTINUOUS
10
-0.010764
20
0.044613
30
0.0
11
-0.010756
21
0.044487
31
0.0
0
LINE
8
0
6
CONTINUOUS
10
-0.010781
20
0.045499
30
0.0
11
-0.010764
21
0.044613
31
0.0
0
LINE
8
0
6
CONTINUOUS
10
-0.010767
20
0.045917
30
0.0
11
-0.010781
21
0.045499
31
0.0
0
LINE
8
0
6
CONTINUOUS
10
0.056497
20
0.113846
30
0.0
11
0.053549
21
0.115407
31
0.0
0
LINE
8
0
6
CONTINUOUS
10
0.064992
20
0.107910
30
0.0
11
0.064801
21
0.108063
31
0.0
0
LINE
8
0
6
CONTINUOUS
10
0.002079
20
0.030131
30
0.0
11
0.002270
21
0.029977
31
0.0
0
LINE
8
0
6
CONTINUOUS
10
0.002538
20
0.029761
30
0.0
11
0.002912
21
0.029460
31
0.0
0
LINE
8
0
6
CONTINUOUS
10
0.066029
20
0.107075
30
0.0
11
0.065260
21
0.107694
31
0.0
0
LINE
8
0
6
CONTINUOUS
10
0.040910
20
0.063201
30
0.0
11
0.047081
21
0.070955
31
0.0
0
LINE
8
0
6
CONTINUOUS
10
0.011976
20
0.028265
30
0.0
11
0.012699
21
0.029166
31
0.0
0
LINE
8
0
6
CONTINUOUS
10
0.028089
20
0.048298
30
0.0
11
0.034092
21
0.055758
31
0.0
0
LINE
8
0
6
CONTINUOUS
10
0.067337
20
0.105424
30
0.0
11
0.066029
21
0.107075
31
0.0
0
LINE
8
0
6
CONTINUOUS
10
0.068421
20
0.103141
30
0.0
11
0.067337
21
0.105424
31
0.0
0
LINE
8
0
6
CONTINUOUS
10
0.068811
20
0.101128
30
0.0
11
0.068421
21
0.103141
31
0.0
0
LINE
8
0
6
CONTINUOUS
10
0.033858
20
0.068891
30
0.0
11
0.026878
21
0.060218
31
0.0
0
LINE
8
0
6
CONTINUOUS
10
0.053399
20
0.093168
30
0.0
11
0.047460
21
0.085790
31
0.0
0
LINE
8
0
6
CONTINUOUS
10
0.065163
20
0.107772
30
0.0
11
0.064389
21
0.106814
31
0.0
0
LINE
8
0
6
CONTINUOUS
10
0.065260
20
0.107694
30
0.0
11
0.065163
21
0.107772
31
0.0
0
LINE
8
0
6
CONTINUOUS
10
0.005571
20
0.033735
30
0.0
11
0.003240
21
0.030835
31
0.0
0
LINE
8
0
6
CONTINUOUS
10
0.026878
20
0.060218
30
0.0
11
0.020246
21
0.051976
31
0.0
0
LINE
8
0
6
CONTINUOUS
10
0.064389
20
0.106814
30
0.0
11
0.062082
21
0.103950
31
0.0
0
LINE
8
0
6
CONTINUOUS
10
0.047460
20
0.085790
30
0.0
11
0.040835
21
0.077560
31
0.0
0
LINE
8
0
6
CONTINUOUS
10
0.003240
20
0.030835
30
0.0
11
0.002441
21
0.029839
31
0.0
0
LINE
8
0
6
CONTINUOUS
10
0.002441
20
0.029839
30
0.0
11
0.002538
21
0.029761
31
0.0
0
LINE
8
0
6
CONTINUOUS
10
0.020246
20
0.051976
30
0.0
11
0.014293
21
0.044577
31
0.0
0
LINE
8
0
6
CONTINUOUS
10
0.040835
20
0.077560
30
0.0
11
0.033858
21
0.068891
31
0.0
0
LINE
8
0
6
CONTINUOUS
10
0.062082
20
0.103950
30
0.0
11
0.058356
21
0.099324
31
0.0
0
LINE
8
0
6
CONTINUOUS
10
0.014293
20
0.044577
30
0.0
11
0.009318
21
0.038394
31
0.0
0
LINE
8
0
6
CONTINUOUS
10
0.058356
20
0.099324
30
0.0
11
0.053399
21
0.093168
31
0.0
0
LINE
8
0
6
CONTINUOUS
10
0.009318
20
0.038394
30
0.0
11
0.005571
21
0.033735
31
0.0
0
LINE
8
0
6
CONTINUOUS
10
0.046634
20
0.117237
30
0.0
11
0.046484
21
0.117078
31
0.0
0
LINE
8
0
6
CONTINUOUS
10
-0.010643
20
0.046097
30
0.0
11
-0.010767
21
0.045917
31
0.0
0
LINE
8
0
6
CONTINUOUS
10
-0.000186
20
0.063253
30
0.0
11
-0.005425
21
0.054892
31
0.0
0
LINE
8
0
6
CONTINUOUS
10
0.014914
20
0.084023
30
0.0
11
0.014059
21
0.082960
31
0.0
0
LINE
8
0
6
CONTINUOUS
10
0.011162
20
0.079359
30
0.0
11
0.011064
21
0.079237
31
0.0
0
LINE
8
0
6
CONTINUOUS
10
0.011064
20
0.079237
30
0.0
11
0.005309
21
0.071371
31
0.0
0
LINE
8
0
6
CONTINUOUS
10
0.011907
20
0.080285
30
0.0
11
0.011447
21
0.079714
31
0.0
0
LINE
8
0
6
CONTINUOUS
10
0.013246
20
0.081950
30
0.0
11
0.012516
21
0.081043
31
0.0
0
LINE
8
0
6
CONTINUOUS
10
0.046484
20
0.117078
30
0.0
11
0.038624
21
0.109753
31
0.0
0
LINE
8
0
6
CONTINUOUS
10
-0.005425
20
0.054892
30
0.0
11
-0.010643
21
0.046097
31
0.0
0
LINE
8
0
6
CONTINUOUS
10
0.049121
20
0.117278
30
0.0
11
0.048032
21
0.117533
31
0.0
0
LINE
8
0
6
CONTINUOUS
10
-0.010756
20
0.044487
30
0.0
11
-0.010341
21
0.043617
31
0.0
0
LINE
8
0
6
CONTINUOUS
10
0.032006
20
0.103248
30
0.0
11
0.025314
21
0.096204
31
0.0
0
LINE
8
0
6
CONTINUOUS
10
0.017917
20
0.087753
30
0.0
11
0.017309
21
0.086998
31
0.0
0
LINE
8
0
6
CONTINUOUS
10
0.018751
20
0.088788
30
0.0
11
0.018656
21
0.088671
31
0.0
0
LINE
8
0
6
CONTINUOUS
10
0.025314
20
0.096204
30
0.0
11
0.018751
21
0.088788
31
0.0
0
LINE
8
0
6
CONTINUOUS
10
0.018656
20
0.088671
30
0.0
11
0.018373
21
0.088320
31
0.0
0
LINE
8
0
6
CONTINUOUS
10
0.018373
20
0.088320
30
0.0
11
0.017917
21
0.087753
31
0.0
0
LINE
8
0
6
CONTINUOUS
10
0.017309
20
0.086998
30
0.0
11
0.016581
21
0.086094
31
0.0
0
LINE
8
0
6
CONTINUOUS
10
0.016581
20
0.086094
30
0.0
11
0.015769
21
0.085086
31
0.0
0
LINE
8
0
6
CONTINUOUS
10
0.038624
20
0.109753
30
0.0
11
0.032006
21
0.103248
31
0.0
0
LINE
8
0
6
CONTINUOUS
10
0.015769
20
0.085086
30
0.0
11
0.014914
21
0.084023
31
0.0
0
LINE
8
0
6
CONTINUOUS
10
0.050504
20
0.116787
30
0.0
11
0.049121
21
0.117278
31
0.0
0
LINE
8
0
6
CONTINUOUS
10
0.028731
20
0.048159
30
0.0
11
0.034642
21
0.055503
31
0.0
0
LINE
8
0
6
CONTINUOUS
10
0.002550
20
0.030325
30
0.0
11
0.002721
21
0.030187
31
0.0
0
LINE
8
0
6
CONTINUOUS
10
0.064883
20
0.107424
30
0.0
11
0.064712
21
0.107562
31
0.0
0
LINE
8
0
6
CONTINUOUS
10
0.014059
20
0.082960
30
0.0
11
0.013246
21
0.081950
31
0.0
0
LINE
8
0
6
CONTINUOUS
10
0.012516
20
0.081043
30
0.0
11
0.011907
21
0.080285
31
0.0
0
LINE
8
0
6
CONTINUOUS
10
0.011447
20
0.079714
30
0.0
11
0.011162
21
0.079359
31
0.0
0
LINE
8
0
6
CONTINUOUS
10
0.005309
20
0.071371
30
0.0
11
-0.000186
21
0.063253
31
0.0
0
LINE
8
0
6
CONTINUOUS
10
0.052985
20
0.078287
30
0.0
11
0.058278
21
0.084861
31
0.0
0
LINE
8
0
6
CONTINUOUS
10
0.058278
20
0.084861
30
0.0
11
0.062708
21
0.090281
31
0.0
0
LINE
8
0
6
CONTINUOUS
10
0.015651
20
0.031904
30
0.0
11
0.018991
21
0.036056
31
0.0
0
LINE
8
0
6
CONTINUOUS
10
0.018991
20
0.036056
30
0.0
11
0.023364
21
0.041573
31
0.0
0
LINE
8
0
6
CONTINUOUS
10
0.023364
20
0.041573
30
0.0
11
0.028731
21
0.048159
31
0.0
0
LINE
8
0
6
CONTINUOUS
10
0.014809
20
0.031791
30
0.0
11
0.018200
21
0.036007
31
0.0
0
LINE
8
0
6
CONTINUOUS
10
0.058093
20
0.085577
30
0.0
11
0.062579
21
0.091149
31
0.0
0
LINE
8
0
6
CONTINUOUS
10
0.018200
20
0.036007
30
0.0
11
0.022702
21
0.041603
31
0.0
0
LINE
8
0
6
CONTINUOUS
10
0.062579
20
0.091149
30
0.0
11
0.065951
21
0.095335
31
0.0
0
LINE
8
0
6
CONTINUOUS
10
0.040409
20
0.063607
30
0.0
11
0.046723
21
0.071452
31
0.0
0
LINE
8
0
6
CONTINUOUS
10
0.022702
20
0.041603
30
0.0
11
0.028089
21
0.048298
31
0.0
0
LINE
8
0
6
CONTINUOUS
10
0.065951
20
0.095335
30
0.0
11
0.068039
21
0.097927
31
0.0
0
LINE
8
0
6
CONTINUOUS
10
0.046723
20
0.071452
30
0.0
11
0.052718
21
0.078900
31
0.0
0
LINE
8
0
6
CONTINUOUS
10
0.012699
20
0.029166
30
0.0
11
0.014809
21
0.031791
31
0.0
0
LINE
8
0
6
CONTINUOUS
10
0.068740
20
0.098794
30
0.0
11
0.068811
21
0.101128
31
0.0
0
LINE
8
0
6
CONTINUOUS
10
0.068039
20
0.097927
30
0.0
11
0.068740
21
0.098794
31
0.0
0
LINE
8
0
6
CONTINUOUS
10
0.052718
20
0.078900
30
0.0
11
0.058093
21
0.085577
31
0.0
0
LINE
8
0
6
CONTINUOUS
10
0.011976
20
0.028265
30
0.0
11
0.012677
21
0.029132
31
0.0
0
LINE
8
0
6
CONTINUOUS
10
0.034092
20
0.055758
30
0.0
11
0.040409
21
0.063607
31
0.0
0
LINE
8
0
6
CONTINUOUS
10
0.047081
20
0.070955
30
0.0
11
0.052985
21
0.078287
31
0.0
0
LINE
8
0
6
CONTINUOUS
10
0.011904
20
0.028276
30
0.0
11
0.011884
21
0.028423
31
0.0
0
LINE
8
0
6
CONTINUOUS
10
0.013156
20
0.023688
30
0.0
11
0.012383
21
0.025969
31
0.0
0
LINE
8
0
6
CONTINUOUS
10
0.012383
20
0.025969
30
0.0
11
0.012168
21
0.027155
31
0.0
0
LINE
8
0
6
CONTINUOUS
10
0.012168
20
0.027155
30
0.0
11
0.011904
21
0.028276
31
0.0
0
LINE
8
0
6
CONTINUOUS
10
0.008354
20
0.015317
30
0.0
11
0.008572
21
0.015021
31
0.0
0
LINE
8
0
6
CONTINUOUS
10
0.014839
20
0.021202
30
0.0
11
0.014687
21
0.021431
31
0.0
0
LINE
8
0
6
CONTINUOUS
10
0.014165
20
0.020364
30
0.0
11
0.014839
21
0.021202
31
0.0
0
LINE
8
0
6
CONTINUOUS
10
0.014687
20
0.021431
30
0.0
11
0.014250
21
0.022077
31
0.0
0
LINE
8
0
6
CONTINUOUS
10
0.007610
20
0.016573
30
0.0
11
0.008354
21
0.015317
31
0.0
0
LINE
8
0
6
CONTINUOUS
10
0.009953
20
0.015130
30
0.0
11
0.014165
21
0.020364
31
0.0
0
LINE
8
0
6
CONTINUOUS
10
0.009203
20
0.014199
30
0.0
11
0.009953
21
0.015130
31
0.0
0
LINE
8
0
6
CONTINUOUS
10
0.006308
20
0.018419
30
0.0
11
0.007524
21
0.016688
31
0.0
0
LINE
8
0
6
CONTINUOUS
10
0.004354
20
0.022237
30
0.0
11
0.006308
21
0.018419
31
0.0
0
LINE
8
0
6
CONTINUOUS
10
0.008339
20
0.015327
30
0.0
11
0.008569
21
0.015017
31
0.0
0
LINE
8
0
6
CONTINUOUS
10
0.007608
20
0.016568
30
0.0
11
0.008339
21
0.015327
31
0.0
0
LINE
8
0
6
CONTINUOUS
10
0.013209
20
0.023530
30
0.0
11
0.013156
21
0.023688
31
0.0
0
LINE
8
0
6
CONTINUOUS
10
0.007530
20
0.016696
30
0.0
11
0.007613
21
0.016577
31
0.0
0
LINE
8
0
6
CONTINUOUS
10
0.007524
20
0.016688
30
0.0
11
0.007608
21
0.016568
31
0.0
0
LINE
8
0
6
CONTINUOUS
10
0.061425
20
0.086419
30
0.0
11
0.061911
21
0.087105
31
0.0
0
LINE
8
0
6
CONTINUOUS
10
0.063241
20
0.088987
30
0.0
11
0.063631
21
0.089539
31
0.0
0
LINE
8
0
6
CONTINUOUS
10
0.021021
20
0.036434
30
0.0
11
0.021831
21
0.037321
31
0.0
0
LINE
8
0
6
CONTINUOUS
10
0.054287
20
0.076094
30
0.0
11
0.055193
21
0.077419
31
0.0
0
LINE
8
0
6
CONTINUOUS
10
0.057644
20
0.081002
30
0.0
11
0.058808
21
0.082704
31
0.0
0
LINE
8
0
6
CONTINUOUS
10
0.031467
20
0.047667
30
0.0
11
0.032115
21
0.048356
31
0.0
0
LINE
8
0
6
CONTINUOUS
10
0.035188
20
0.051917
30
0.0
11
0.035916
21
0.052762
31
0.0
0
LINE
8
0
6
CONTINUOUS
10
0.045569
20
0.064398
30
0.0
11
0.045687
21
0.064553
31
0.0
0
LINE
8
0
6
CONTINUOUS
10
0.040039
20
0.057567
30
0.0
11
0.040909
21
0.058587
31
0.0
0
LINE
8
0
6
CONTINUOUS
10
0.052985
20
0.078287
30
0.0
11
0.047081
21
0.070955
31
0.0
0
LINE
8
0
6
CONTINUOUS
10
0.066025
20
0.094398
30
0.0
11
0.062711
21
0.090283
31
0.0
0
LINE
8
0
6
CONTINUOUS
10
0.068078
20
0.096947
30
0.0
11
0.066025
21
0.094398
31
0.0
0
LINE
8
0
6
CONTINUOUS
10
0.068764
20
0.097884
30
0.0
11
0.068078
21
0.096947
31
0.0
0
LINE
8
0
6
CONTINUOUS
10
0.068134
20
0.096227
30
0.0
11
0.068764
21
0.097884
31
0.0
0
LINE
8
0
6
CONTINUOUS
10
0.012871
20
0.028436
30
0.0
11
0.014354
21
0.029405
31
0.0
0
LINE
8
0
6
CONTINUOUS
10
0.013578
20
0.029322
30
0.0
11
0.012871
21
0.028436
31
0.0
0
LINE
8
0
6
CONTINUOUS
10
0.015651
20
0.031904
30
0.0
11
0.013578
21
0.029322
31
0.0
0
LINE
8
0
6
CONTINUOUS
10
0.047081
20
0.070955
30
0.0
11
0.040910
21
0.063201
31
0.0
0
LINE
8
0
6
CONTINUOUS
10
0.058278
20
0.084861
30
0.0
11
0.052985
21
0.078287
31
0.0
0
LINE
8
0
6
CONTINUOUS
10
0.062708
20
0.090281
30
0.0
11
0.058278
21
0.084861
31
0.0
0
LINE
8
0
6
CONTINUOUS
10
0.018991
20
0.036056
30
0.0
11
0.015651
21
0.031904
31
0.0
0
LINE
8
0
6
CONTINUOUS
10
0.023364
20
0.041573
30
0.0
11
0.018991
21
0.036056
31
0.0
0
LINE
8
0
6
CONTINUOUS
10
0.028731
20
0.048159
30
0.0
11
0.023364
21
0.041573
31
0.0
0
LINE
8
0
6
CONTINUOUS
10
0.034642
20
0.055503
30
0.0
11
0.028731
21
0.048159
31
0.0
0
LINE
8
0
6
CONTINUOUS
10
0.040910
20
0.063201
30
0.0
11
0.034642
21
0.055503
31
0.0
0
LINE
8
0
6
CONTINUOUS
10
0.065562
20
0.092354
30
0.0
11
0.068134
21
0.096227
31
0.0
0
LINE
8
0
6
CONTINUOUS
10
0.014354
20
0.029405
30
0.0
11
0.017618
21
0.032776
31
0.0
0
LINE
8
0
6
CONTINUOUS
10
0.046256
20
0.065961
30
0.0
11
0.047223
21
0.067226
31
0.0
0
LINE
8
0
6
CONTINUOUS
10
0.046256
20
0.065961
30
0.0
11
0.046162
21
0.065800
31
0.0
0
LINE
8
0
6
CONTINUOUS
10
0.044290
20
0.064447
30
0.0
11
0.044841
21
0.064975
31
0.0
0
LINE
8
0
6
CONTINUOUS
10
0.041994
20
0.062294
30
0.0
11
0.041630
21
0.061738
31
0.0
0
LINE
8
0
6
CONTINUOUS
10
0.036526
20
0.055531
30
0.0
11
0.036234
21
0.055071
31
0.0
0
LINE
8
0
6
CONTINUOUS
10
0.030934
20
0.049096
30
0.0
11
0.030991
21
0.049149
31
0.0
0
LINE
8
0
6
CONTINUOUS
10
0.032475
20
0.050445
30
0.0
11
0.033025
21
0.050996
31
0.0
0
LINE
8
0
6
CONTINUOUS
10
0.026541
20
0.043636
30
0.0
11
0.026659
21
0.043748
31
0.0
0
LINE
8
0
6
CONTINUOUS
10
0.028395
20
0.045338
30
0.0
11
0.028945
21
0.045889
31
0.0
0
LINE
8
0
6
CONTINUOUS
10
0.023697
20
0.039431
30
0.0
11
0.024226
21
0.039999
31
0.0
0
LINE
8
0
6
CONTINUOUS
10
0.058820
20
0.083742
30
0.0
11
0.058728
21
0.083602
31
0.0
0
LINE
8
0
6
CONTINUOUS
10
0.047284
20
0.068862
30
0.0
11
0.046925
21
0.068286
31
0.0
0
LINE
8
0
6
CONTINUOUS
10
0.009894
20
0.027924
30
0.0
11
0.007844
21
0.027874
31
0.0
0
LINE
8
0
6
CONTINUOUS
10
0.007844
20
0.027874
30
0.0
11
0.005383
21
0.028445
31
0.0
0
LINE
8
0
6
CONTINUOUS
10
0.005383
20
0.028445
30
0.0
11
0.003915
21
0.029162
31
0.0
0
LINE
8
0
6
CONTINUOUS
10
0.011132
20
0.028235
30
0.0
11
0.009894
21
0.027924
31
0.0
0
LINE
8
0
6
CONTINUOUS
10
0.011884
20
0.028423
30
0.0
11
0.011132
21
0.028235
31
0.0
0
LINE
8
0
6
CONTINUOUS
10
0.039911
20
0.060487
30
0.0
11
0.039559
21
0.059906
31
0.0
0
LINE
8
0
6
CONTINUOUS
10
0.040751
20
0.061509
30
0.0
11
0.041238
21
0.061950
31
0.0
0
LINE
8
0
6
CONTINUOUS
10
0.034593
20
0.053906
30
0.0
11
0.034184
21
0.053291
31
0.0
0
LINE
8
0
6
CONTINUOUS
10
0.035454
20
0.054907
30
0.0
11
0.035906
21
0.055293
31
0.0
0
LINE
8
0
6
CONTINUOUS
10
0.030543
20
0.048760
30
0.0
11
0.030934
21
0.049096
31
0.0
0
LINE
8
0
6
CONTINUOUS
10
0.029665
20
0.047771
30
0.0
11
0.029240
21
0.047170
31
0.0
0
LINE
8
0
6
CONTINUOUS
10
0.029665
20
0.047771
30
0.0
11
0.030543
21
0.048760
31
0.0
0
LINE
8
0
6
CONTINUOUS
10
0.026217
20
0.043353
30
0.0
11
0.026541
21
0.043636
31
0.0
0
LINE
8
0
6
CONTINUOUS
10
0.025326
20
0.042376
30
0.0
11
0.026217
21
0.043353
31
0.0
0
LINE
8
0
6
CONTINUOUS
10
0.021960
20
0.038159
30
0.0
11
0.022861
21
0.039129
31
0.0
0
LINE
8
0
6
CONTINUOUS
10
0.022861
20
0.039129
30
0.0
11
0.023069
21
0.039320
31
0.0
0
LINE
8
0
6
CONTINUOUS
10
0.059173
20
0.084340
30
0.0
11
0.059933
21
0.085398
31
0.0
0
LINE
8
0
6
CONTINUOUS
10
0.059173
20
0.084340
30
0.0
11
0.058820
21
0.083742
31
0.0
0
LINE
8
0
6
CONTINUOUS
10
0.055270
20
0.079507
30
0.0
11
0.056003
21
0.080503
31
0.0
0
LINE
8
0
6
CONTINUOUS
10
0.045368
20
0.067276
30
0.0
11
0.046192
21
0.068282
31
0.0
0
LINE
8
0
6
CONTINUOUS
10
0.019429
20
0.035032
30
0.0
11
0.019082
21
0.034616
31
0.0
0
LINE
8
0
6
CONTINUOUS
10
0.017951
20
0.033204
30
0.0
11
0.018869
21
0.034155
31
0.0
0
LINE
8
0
6
CONTINUOUS
10
0.018869
20
0.034155
30
0.0
11
0.019113
21
0.034400
31
0.0
0
LINE
8
0
6
CONTINUOUS
10
0.061785
20
0.087424
30
0.0
11
0.062323
21
0.088262
31
0.0
0
LINE
8
0
6
CONTINUOUS
10
0.060221
20
0.085679
30
0.0
11
0.060250
21
0.085718
31
0.0
0
LINE
8
0
6
CONTINUOUS
10
0.051385
20
0.074737
30
0.0
11
0.051729
21
0.075034
31
0.0
0
LINE
8
0
6
CONTINUOUS
10
0.050582
20
0.073713
30
0.0
11
0.050124
21
0.072986
31
0.0
0
LINE
8
0
6
CONTINUOUS
10
0.040949
20
0.059410
30
0.0
11
0.040785
21
0.059119
31
0.0
0
LINE
8
0
6
CONTINUOUS
10
0.034069
20
0.051655
30
0.0
11
0.034729
21
0.052282
31
0.0
0
ENDSEC
0
EOF
