999
unknown String-ID: 20550
0
SECTION
2
HEADER
9
$ACADVER
1
AC1009
9
$DWGCODEPAGE
3
unknown String-ID: 20561
0
ENDSEC
0
SECTION
2
TABLES
0
TABLE
2
LAYER
70
1
0
LAYER
2
0
70
0
62
7
6
CONTINUOUS
0
ENDTAB
0
ENDSEC
0
SECTION
2
ENTITIES
0
LINE
8
0
6
CONTINUOUS
10
-0.071358
20
0.290457
30
0.0
11
-0.074350
21
0.284906
31
0.0
0
LINE
8
0
6
CONTINUOUS
10
-0.068532
20
0.259572
30
0.0
11
-0.067343
21
0.262118
31
0.0
0
LINE
8
0
6
CONTINUOUS
10
-0.074350
20
0.284906
30
0.0
11
-0.083253
21
0.265841
31
0.0
0
LINE
8
0
6
CONTINUOUS
10
-0.075011
20
0.242790
30
0.0
11
-0.068532
21
0.259572
31
0.0
0
LINE
8
0
6
CONTINUOUS
10
-0.083253
20
0.265841
30
0.0
11
-0.090148
21
0.247974
31
0.0
0
LINE
8
0
6
CONTINUOUS
10
-0.079771
20
0.226929
30
0.0
11
-0.075011
21
0.242790
31
0.0
0
LINE
8
0
6
CONTINUOUS
10
-0.090148
20
0.247974
30
0.0
11
-0.095266
21
0.230915
31
0.0
0
LINE
8
0
6
CONTINUOUS
10
-0.083088
20
0.211519
30
0.0
11
-0.079771
21
0.226929
31
0.0
0
LINE
8
0
6
CONTINUOUS
10
-0.095266
20
0.230915
30
0.0
11
-0.098844
21
0.214301
31
0.0
0
LINE
8
0
6
CONTINUOUS
10
-0.085223
20
0.196080
30
0.0
11
-0.083088
21
0.211519
31
0.0
0
LINE
8
0
6
CONTINUOUS
10
-0.098844
20
0.214301
30
0.0
11
-0.101133
21
0.197778
31
0.0
0
LINE
8
0
6
CONTINUOUS
10
-0.086420
20
0.180143
30
0.0
11
-0.085223
21
0.196080
31
0.0
0
LINE
8
0
6
CONTINUOUS
10
-0.101133
20
0.197778
30
0.0
11
-0.102398
21
0.180979
31
0.0
0
LINE
8
0
6
CONTINUOUS
10
-0.086917
20
0.163263
30
0.0
11
-0.086420
21
0.180143
31
0.0
0
LINE
8
0
6
CONTINUOUS
10
-0.102398
20
0.180979
30
0.0
11
-0.102915
21
0.163515
31
0.0
0
LINE
8
0
6
CONTINUOUS
10
-0.086954
20
0.145022
30
0.0
11
-0.086917
21
0.163263
31
0.0
0
LINE
8
0
6
CONTINUOUS
10
-0.102915
20
0.163515
30
0.0
11
-0.102954
21
0.144968
31
0.0
0
LINE
8
0
6
CONTINUOUS
10
-0.086779
20
0.125055
30
0.0
11
-0.086954
21
0.145022
31
0.0
0
LINE
8
0
6
CONTINUOUS
10
-0.102954
20
0.144968
30
0.0
11
-0.102778
21
0.124869
31
0.0
0
LINE
8
0
6
CONTINUOUS
10
-0.086175
20
0.083357
30
0.0
11
-0.086779
21
0.125055
31
0.0
0
LINE
8
0
6
CONTINUOUS
10
-0.102778
20
0.124869
30
0.0
11
-0.102172
21
0.083058
31
0.0
0
LINE
8
0
6
CONTINUOUS
10
-0.085194
20
0.040585
30
0.0
11
-0.086175
21
0.083357
31
0.0
0
LINE
8
0
6
CONTINUOUS
10
-0.102172
20
0.083058
30
0.0
11
-0.101189
21
0.040167
31
0.0
0
LINE
8
0
6
CONTINUOUS
10
-0.083940
20
-0.002306
30
0.0
11
-0.085194
21
0.040585
31
0.0
0
LINE
8
0
6
CONTINUOUS
10
-0.101189
20
0.040167
30
0.0
11
-0.099932
21
-0.002811
31
0.0
0
LINE
8
0
6
CONTINUOUS
10
-0.082516
20
-0.044337
30
0.0
11
-0.083940
21
-0.002306
31
0.0
0
LINE
8
0
6
CONTINUOUS
10
-0.099932
20
-0.002811
30
0.0
11
-0.098506
21
-0.044904
31
0.0
0
LINE
8
0
6
CONTINUOUS
10
-0.081027
20
-0.084534
30
0.0
11
-0.082516
21
-0.044337
31
0.0
0
LINE
8
0
6
CONTINUOUS
10
-0.098506
20
-0.044904
30
0.0
11
-0.097015
21
-0.085141
31
0.0
0
LINE
8
0
6
CONTINUOUS
10
-0.079575
20
-0.121923
30
0.0
11
-0.081027
21
-0.084534
31
0.0
0
LINE
8
0
6
CONTINUOUS
10
-0.097015
20
-0.085141
30
0.0
11
-0.095563
21
-0.122545
31
0.0
0
LINE
8
0
6
CONTINUOUS
10
-0.078265
20
-0.155532
30
0.0
11
-0.079575
21
-0.121923
31
0.0
0
LINE
8
0
6
CONTINUOUS
10
-0.095563
20
-0.122545
30
0.0
11
-0.094253
21
-0.156139
31
0.0
0
LINE
8
0
6
CONTINUOUS
10
-0.077652
20
-0.172132
30
0.0
11
-0.078265
21
-0.155532
31
0.0
0
LINE
8
0
6
CONTINUOUS
10
-0.094253
20
-0.156139
30
0.0
11
-0.093663
21
-0.172132
31
0.0
0
LINE
8
0
6
CONTINUOUS
10
-0.037647
20
0.305666
30
0.0
11
-0.038196
21
0.307692
31
0.0
0
LINE
8
0
6
CONTINUOUS
10
-0.038475
20
0.308539
30
0.0
11
-0.038452
21
0.308497
31
0.0
0
LINE
8
0
6
CONTINUOUS
10
-0.037647
20
0.305666
30
0.0
11
-0.038475
21
0.308539
31
0.0
0
LINE
8
0
6
CONTINUOUS
10
-0.038775
20
0.309205
30
0.0
11
-0.038475
21
0.308539
31
0.0
0
LINE
8
0
6
CONTINUOUS
10
-0.074705
20
0.297744
30
0.0
11
-0.073885
21
0.294896
31
0.0
0
LINE
8
0
6
CONTINUOUS
10
-0.073885
20
0.294896
30
0.0
11
-0.073844
21
0.294764
31
0.0
0
LINE
8
0
6
CONTINUOUS
10
-0.074705
20
0.297744
30
0.0
11
-0.073781
21
0.294659
31
0.0
0
LINE
8
0
6
CONTINUOUS
10
-0.073576
20
0.294205
30
0.0
11
-0.073781
21
0.294659
31
0.0
0
LINE
8
0
6
CONTINUOUS
10
-0.073696
20
0.294497
30
0.0
11
-0.073844
21
0.294764
31
0.0
0
LINE
8
0
6
CONTINUOUS
10
-0.037230
20
0.301975
30
0.0
11
-0.037647
21
0.305666
31
0.0
0
LINE
8
0
6
CONTINUOUS
10
-0.038261
20
0.307593
30
0.0
11
-0.038775
21
0.309205
31
0.0
0
LINE
8
0
6
CONTINUOUS
10
-0.066926
20
0.317307
30
0.0
11
-0.069763
21
0.314910
31
0.0
0
LINE
8
0
6
CONTINUOUS
10
-0.040273
20
0.291404
30
0.0
11
-0.038569
21
0.294705
31
0.0
0
LINE
8
0
6
CONTINUOUS
10
-0.037541
20
0.298274
30
0.0
11
-0.037230
21
0.301975
31
0.0
0
LINE
8
0
6
CONTINUOUS
10
-0.059607
20
0.283071
30
0.0
11
-0.055906
21
0.282760
31
0.0
0
LINE
8
0
6
CONTINUOUS
10
-0.042970
20
0.315292
30
0.0
11
-0.045874
21
0.317607
31
0.0
0
LINE
8
0
6
CONTINUOUS
10
-0.056446
20
0.320650
30
0.0
11
-0.060137
21
0.320233
31
0.0
0
LINE
8
0
6
CONTINUOUS
10
-0.052215
20
0.283177
30
0.0
11
-0.048676
21
0.284305
31
0.0
0
LINE
8
0
6
CONTINUOUS
10
-0.073783
20
0.308705
30
0.0
11
-0.074810
21
0.305136
31
0.0
0
LINE
8
0
6
CONTINUOUS
10
-0.069763
20
0.314910
30
0.0
11
-0.072079
21
0.312006
31
0.0
0
LINE
8
0
6
CONTINUOUS
10
-0.038775
20
0.309205
30
0.0
11
-0.040573
21
0.312455
31
0.0
0
LINE
8
0
6
CONTINUOUS
10
-0.063177
20
0.284098
30
0.0
11
-0.059607
21
0.283071
31
0.0
0
LINE
8
0
6
CONTINUOUS
10
-0.038569
20
0.294705
30
0.0
11
-0.037541
21
0.298274
31
0.0
0
LINE
8
0
6
CONTINUOUS
10
-0.066477
20
0.285802
30
0.0
11
-0.063177
21
0.284098
31
0.0
0
LINE
8
0
6
CONTINUOUS
10
-0.042588
20
0.288500
30
0.0
11
-0.040273
21
0.291404
31
0.0
0
LINE
8
0
6
CONTINUOUS
10
-0.063675
20
0.319105
30
0.0
11
-0.066926
21
0.317307
31
0.0
0
LINE
8
0
6
CONTINUOUS
10
-0.069382
20
0.288118
30
0.0
11
-0.066477
21
0.285802
31
0.0
0
LINE
8
0
6
CONTINUOUS
10
-0.075122
20
0.301435
30
0.0
11
-0.074705
21
0.297744
31
0.0
0
LINE
8
0
6
CONTINUOUS
10
-0.071779
20
0.290955
30
0.0
11
-0.069382
21
0.288118
31
0.0
0
LINE
8
0
6
CONTINUOUS
10
-0.072079
20
0.312006
30
0.0
11
-0.073783
21
0.308705
31
0.0
0
LINE
8
0
6
CONTINUOUS
10
-0.045874
20
0.317607
30
0.0
11
-0.046623
21
0.317994
31
0.0
0
LINE
8
0
6
CONTINUOUS
10
-0.074705
20
0.297744
30
0.0
11
-0.073576
21
0.294205
31
0.0
0
LINE
8
0
6
CONTINUOUS
10
-0.074810
20
0.305136
30
0.0
11
-0.075122
21
0.301435
31
0.0
0
LINE
8
0
6
CONTINUOUS
10
-0.052744
20
0.320339
30
0.0
11
-0.056446
21
0.320650
31
0.0
0
LINE
8
0
6
CONTINUOUS
10
-0.040573
20
0.312455
30
0.0
11
-0.042970
21
0.315292
31
0.0
0
LINE
8
0
6
CONTINUOUS
10
-0.060137
20
0.320233
30
0.0
11
-0.063675
21
0.319105
31
0.0
0
LINE
8
0
6
CONTINUOUS
10
-0.055906
20
0.282760
30
0.0
11
-0.052215
21
0.283177
31
0.0
0
LINE
8
0
6
CONTINUOUS
10
-0.073576
20
0.294205
30
0.0
11
-0.071779
21
0.290955
31
0.0
0
LINE
8
0
6
CONTINUOUS
10
-0.045426
20
0.286103
30
0.0
11
-0.042588
21
0.288500
31
0.0
0
LINE
8
0
6
CONTINUOUS
10
-0.048676
20
0.284305
30
0.0
11
-0.045426
21
0.286103
31
0.0
0
LINE
8
0
6
CONTINUOUS
10
-0.052217
20
0.320187
30
0.0
11
-0.052744
21
0.320339
31
0.0
0
LINE
8
0
6
CONTINUOUS
10
-0.075049
20
0.301705
30
0.0
11
-0.074406
21
0.306590
31
0.0
0
LINE
8
0
6
CONTINUOUS
10
-0.074406
20
0.296820
30
0.0
11
-0.075049
21
0.301705
31
0.0
0
LINE
8
0
6
CONTINUOUS
10
-0.074862
20
0.301697
30
0.0
11
-0.074406
21
0.296820
31
0.0
0
LINE
8
0
6
CONTINUOUS
10
-0.074406
20
0.296820
30
0.0
11
-0.072521
21
0.292269
31
0.0
0
LINE
8
0
6
CONTINUOUS
10
-0.072521
20
0.292269
30
0.0
11
-0.069521
21
0.288360
31
0.0
0
LINE
8
0
6
CONTINUOUS
10
-0.069521
20
0.288360
30
0.0
11
-0.065612
21
0.285361
31
0.0
0
LINE
8
0
6
CONTINUOUS
10
-0.065612
20
0.285361
30
0.0
11
-0.061061
21
0.283476
31
0.0
0
LINE
8
0
6
CONTINUOUS
10
-0.061061
20
0.283476
30
0.0
11
-0.056176
21
0.282833
31
0.0
0
LINE
8
0
6
CONTINUOUS
10
-0.056176
20
0.282833
30
0.0
11
-0.051291
21
0.283476
31
0.0
0
LINE
8
0
6
CONTINUOUS
10
-0.051291
20
0.283476
30
0.0
11
-0.046739
21
0.285361
31
0.0
0
LINE
8
0
6
CONTINUOUS
10
-0.046739
20
0.285361
30
0.0
11
-0.042830
21
0.288360
31
0.0
0
LINE
8
0
6
CONTINUOUS
10
-0.042830
20
0.288360
30
0.0
11
-0.039831
21
0.292269
31
0.0
0
LINE
8
0
6
CONTINUOUS
10
-0.039831
20
0.292269
30
0.0
11
-0.037946
21
0.296820
31
0.0
0
LINE
8
0
6
CONTINUOUS
10
-0.037946
20
0.296820
30
0.0
11
-0.037302
21
0.301705
31
0.0
0
LINE
8
0
6
CONTINUOUS
10
-0.037302
20
0.301705
30
0.0
11
-0.037946
21
0.306590
31
0.0
0
LINE
8
0
6
CONTINUOUS
10
-0.037946
20
0.306590
30
0.0
11
-0.039831
21
0.311141
31
0.0
0
LINE
8
0
6
CONTINUOUS
10
-0.039831
20
0.311141
30
0.0
11
-0.042830
21
0.315050
31
0.0
0
LINE
8
0
6
CONTINUOUS
10
-0.042830
20
0.315050
30
0.0
11
-0.046739
21
0.318049
31
0.0
0
LINE
8
0
6
CONTINUOUS
10
-0.046739
20
0.318049
30
0.0
11
-0.051291
21
0.319934
31
0.0
0
LINE
8
0
6
CONTINUOUS
10
-0.051291
20
0.319934
30
0.0
11
-0.056176
21
0.320577
31
0.0
0
LINE
8
0
6
CONTINUOUS
10
-0.056176
20
0.320577
30
0.0
11
-0.061061
21
0.319934
31
0.0
0
LINE
8
0
6
CONTINUOUS
10
-0.061061
20
0.319934
30
0.0
11
-0.065612
21
0.318049
31
0.0
0
LINE
8
0
6
CONTINUOUS
10
-0.065612
20
0.318049
30
0.0
11
-0.069521
21
0.315050
31
0.0
0
LINE
8
0
6
CONTINUOUS
10
-0.069521
20
0.315050
30
0.0
11
-0.072521
21
0.311141
31
0.0
0
LINE
8
0
6
CONTINUOUS
10
-0.072521
20
0.311141
30
0.0
11
-0.074406
21
0.306590
31
0.0
0
LINE
8
0
6
CONTINUOUS
10
-0.044027
20
0.325659
30
0.0
11
-0.044189
21
0.324892
31
0.0
0
LINE
8
0
6
CONTINUOUS
10
-0.044069
20
0.326442
30
0.0
11
-0.044027
21
0.325659
31
0.0
0
LINE
8
0
6
CONTINUOUS
10
-0.044311
20
0.327188
30
0.0
11
-0.044069
21
0.326442
31
0.0
0
LINE
8
0
6
CONTINUOUS
10
-0.044739
20
0.327845
30
0.0
11
-0.044311
21
0.327188
31
0.0
0
LINE
8
0
6
CONTINUOUS
10
-0.045322
20
0.328369
30
0.0
11
-0.044739
21
0.327845
31
0.0
0
LINE
8
0
6
CONTINUOUS
10
-0.046021
20
0.328724
30
0.0
11
-0.045342
21
0.328379
31
0.0
0
LINE
8
0
6
CONTINUOUS
10
-0.046788
20
0.328886
30
0.0
11
-0.046021
21
0.328724
31
0.0
0
LINE
8
0
6
CONTINUOUS
10
-0.044211
20
0.324892
30
0.0
11
-0.044051
21
0.325658
31
0.0
0
LINE
8
0
6
CONTINUOUS
10
-0.044051
20
0.325658
30
0.0
11
-0.044094
21
0.326440
31
0.0
0
LINE
8
0
6
CONTINUOUS
10
-0.044094
20
0.326440
30
0.0
11
-0.044338
21
0.327184
31
0.0
0
LINE
8
0
6
CONTINUOUS
10
-0.044338
20
0.327184
30
0.0
11
-0.044767
21
0.327840
31
0.0
0
LINE
8
0
6
CONTINUOUS
10
-0.044767
20
0.327840
30
0.0
11
-0.045342
21
0.328354
31
0.0
0
LINE
8
0
6
CONTINUOUS
10
-0.045351
20
0.328363
30
0.0
11
-0.046051
21
0.328717
31
0.0
0
LINE
8
0
6
CONTINUOUS
10
-0.046051
20
0.328717
30
0.0
11
-0.046818
21
0.328879
31
0.0
0
LINE
8
0
6
CONTINUOUS
10
-0.046818
20
0.328879
30
0.0
11
-0.047601
21
0.328837
31
0.0
0
LINE
8
0
6
CONTINUOUS
10
-0.047601
20
0.328837
30
0.0
11
-0.048345
21
0.328594
31
0.0
0
LINE
8
0
6
CONTINUOUS
10
-0.048345
20
0.328594
30
0.0
11
-0.049002
21
0.328166
31
0.0
0
LINE
8
0
6
CONTINUOUS
10
-0.049002
20
0.328166
30
0.0
11
-0.049524
21
0.327584
31
0.0
0
LINE
8
0
6
CONTINUOUS
10
-0.049524
20
0.327584
30
0.0
11
-0.049878
21
0.326886
31
0.0
0
LINE
8
0
6
CONTINUOUS
10
-0.046632
20
0.317967
30
0.0
11
-0.044189
21
0.324892
31
0.0
0
LINE
8
0
6
CONTINUOUS
10
-0.047574
20
0.328845
30
0.0
11
-0.046791
21
0.328887
31
0.0
0
LINE
8
0
6
CONTINUOUS
10
-0.046642
20
0.317975
30
0.0
11
-0.044211
21
0.324892
31
0.0
0
LINE
8
0
6
CONTINUOUS
10
-0.045742
20
-0.172132
30
0.0
11
-0.045342
21
-0.172132
31
0.0
0
LINE
8
0
6
CONTINUOUS
10
-0.056342
20
-0.224132
30
0.0
11
-0.117868
21
-0.224132
31
0.0
0
LINE
8
0
6
CONTINUOUS
10
-0.053542
20
-0.224132
30
0.0
11
-0.056342
21
-0.224132
31
0.0
0
LINE
8
0
6
CONTINUOUS
10
-0.050842
20
-0.224132
30
0.0
11
-0.053542
21
-0.224132
31
0.0
0
LINE
8
0
6
CONTINUOUS
10
-0.048542
20
-0.224132
30
0.0
11
-0.050842
21
-0.224132
31
0.0
0
LINE
8
0
6
CONTINUOUS
10
-0.046842
20
-0.224132
30
0.0
11
-0.048542
21
-0.224132
31
0.0
0
LINE
8
0
6
CONTINUOUS
10
-0.045742
20
-0.224132
30
0.0
11
-0.046842
21
-0.224132
31
0.0
0
LINE
8
0
6
CONTINUOUS
10
-0.045342
20
-0.224132
30
0.0
11
-0.045742
21
-0.224132
31
0.0
0
LINE
8
0
6
CONTINUOUS
10
-0.045742
20
-0.172132
30
0.0
11
-0.046842
21
-0.172132
31
0.0
0
LINE
8
0
6
CONTINUOUS
10
-0.046842
20
-0.172132
30
0.0
11
-0.048542
21
-0.172132
31
0.0
0
LINE
8
0
6
CONTINUOUS
10
-0.050842
20
-0.172132
30
0.0
11
-0.053542
21
-0.172132
31
0.0
0
LINE
8
0
6
CONTINUOUS
10
-0.045342
20
-0.223578
30
0.0
11
-0.045342
21
-0.224132
31
0.0
0
LINE
8
0
6
CONTINUOUS
10
-0.053542
20
-0.172132
30
0.0
11
-0.056342
21
-0.172132
31
0.0
0
LINE
8
0
6
CONTINUOUS
10
-0.048542
20
-0.172132
30
0.0
11
-0.050842
21
-0.172132
31
0.0
0
LINE
8
0
6
CONTINUOUS
10
-0.045342
20
0.444160
30
0.0
11
-0.045342
21
0.444868
31
0.0
0
LINE
8
0
6
CONTINUOUS
10
-0.056342
20
0.444868
30
0.0
11
-0.053542
21
0.444868
31
0.0
0
LINE
8
0
6
CONTINUOUS
10
-0.053542
20
0.444868
30
0.0
11
-0.050842
21
0.444868
31
0.0
0
LINE
8
0
6
CONTINUOUS
10
-0.050842
20
0.444868
30
0.0
11
-0.048542
21
0.444868
31
0.0
0
LINE
8
0
6
CONTINUOUS
10
-0.048542
20
0.444868
30
0.0
11
-0.046842
21
0.444868
31
0.0
0
LINE
8
0
6
CONTINUOUS
10
-0.046842
20
0.444868
30
0.0
11
-0.045742
21
0.444868
31
0.0
0
LINE
8
0
6
CONTINUOUS
10
-0.045742
20
0.444868
30
0.0
11
-0.045342
21
0.444868
31
0.0
0
LINE
8
0
6
CONTINUOUS
10
-0.045342
20
-0.171632
30
0.0
11
-0.045842
21
-0.172132
31
0.0
0
LINE
8
0
6
CONTINUOUS
10
-0.045342
20
0.392368
30
0.0
11
-0.045342
21
0.392055
31
0.0
0
LINE
8
0
6
CONTINUOUS
10
-0.045842
20
0.392868
30
0.0
11
-0.045342
21
0.392368
31
0.0
0
LINE
8
0
6
CONTINUOUS
10
-0.067343
20
0.392368
30
0.0
11
-0.066843
21
0.392868
31
0.0
0
LINE
8
0
6
CONTINUOUS
10
-0.067343
20
-0.171632
30
0.0
11
-0.066843
21
-0.172132
31
0.0
0
LINE
8
0
6
CONTINUOUS
10
-0.067343
20
0.392368
30
0.0
11
-0.067343
21
0.392055
31
0.0
0
LINE
8
0
6
CONTINUOUS
10
-0.056342
20
0.392868
30
0.0
11
-0.053542
21
0.392868
31
0.0
0
LINE
8
0
6
CONTINUOUS
10
-0.053542
20
0.392868
30
0.0
11
-0.050842
21
0.392868
31
0.0
0
LINE
8
0
6
CONTINUOUS
10
-0.050842
20
0.392868
30
0.0
11
-0.048542
21
0.392868
31
0.0
0
LINE
8
0
6
CONTINUOUS
10
-0.048542
20
0.392868
30
0.0
11
-0.046842
21
0.392868
31
0.0
0
LINE
8
0
6
CONTINUOUS
10
-0.046842
20
0.392868
30
0.0
11
-0.045742
21
0.392868
31
0.0
0
LINE
8
0
6
CONTINUOUS
10
-0.045342
20
0.392868
30
0.0
11
-0.045342
21
0.393576
31
0.0
0
LINE
8
0
6
CONTINUOUS
10
-0.045742
20
0.392868
30
0.0
11
-0.045342
21
0.392868
31
0.0
0
LINE
8
0
6
CONTINUOUS
10
-0.045342
20
0.393576
30
0.0
11
-0.045342
21
0.444160
31
0.0
0
LINE
8
0
6
CONTINUOUS
10
-0.118368
20
0.444868
30
0.0
11
-0.118368
21
0.444160
31
0.0
0
LINE
8
0
6
CONTINUOUS
10
-0.056342
20
0.392868
30
0.0
11
-0.117868
21
0.392868
31
0.0
0
LINE
8
0
6
CONTINUOUS
10
-0.118368
20
0.393576
30
0.0
11
-0.118368
21
0.392868
31
0.0
0
LINE
8
0
6
CONTINUOUS
10
-0.118368
20
0.444160
30
0.0
11
-0.118368
21
0.393576
31
0.0
0
LINE
8
0
6
CONTINUOUS
10
-0.045342
20
0.392055
30
0.0
11
-0.045342
21
0.391513
31
0.0
0
LINE
8
0
6
CONTINUOUS
10
-0.067343
20
0.392055
30
0.0
11
-0.067343
21
0.391513
31
0.0
0
LINE
8
0
6
CONTINUOUS
10
-0.045342
20
-0.172132
30
0.0
11
-0.045342
21
-0.172686
31
0.0
0
LINE
8
0
6
CONTINUOUS
10
-0.045342
20
-0.172686
30
0.0
11
-0.045342
21
-0.223578
31
0.0
0
LINE
8
0
6
CONTINUOUS
10
-0.118368
20
-0.172132
30
0.0
11
-0.118368
21
-0.172686
31
0.0
0
LINE
8
0
6
CONTINUOUS
10
-0.118368
20
-0.172686
30
0.0
11
-0.118368
21
-0.223578
31
0.0
0
LINE
8
0
6
CONTINUOUS
10
-0.118368
20
-0.224132
30
0.0
11
-0.117868
21
-0.224132
31
0.0
0
LINE
8
0
6
CONTINUOUS
10
-0.118368
20
-0.223578
30
0.0
11
-0.118368
21
-0.224132
31
0.0
0
LINE
8
0
6
CONTINUOUS
10
-0.117868
20
-0.172132
30
0.0
11
-0.056342
21
-0.172132
31
0.0
0
LINE
8
0
6
CONTINUOUS
10
-0.118368
20
-0.172132
30
0.0
11
-0.117868
21
-0.172132
31
0.0
0
LINE
8
0
6
CONTINUOUS
10
-0.045342
20
-0.171632
30
0.0
11
-0.045342
21
-0.171418
31
0.0
0
LINE
8
0
6
CONTINUOUS
10
-0.067343
20
-0.171632
30
0.0
11
-0.067343
21
-0.171418
31
0.0
0
LINE
8
0
6
CONTINUOUS
10
-0.045342
20
0.391513
30
0.0
11
-0.045342
21
0.328379
31
0.0
0
LINE
8
0
6
CONTINUOUS
10
-0.045342
20
0.321625
30
0.0
11
-0.045342
21
0.317183
31
0.0
0
LINE
8
0
6
CONTINUOUS
10
-0.045342
20
0.286174
30
0.0
11
-0.045342
21
-0.170838
31
0.0
0
LINE
8
0
6
CONTINUOUS
10
-0.067343
20
0.391513
30
0.0
11
-0.067343
21
0.316955
31
0.0
0
LINE
8
0
6
CONTINUOUS
10
-0.067343
20
0.286492
30
0.0
11
-0.067343
21
-0.170838
31
0.0
0
LINE
8
0
6
CONTINUOUS
10
-0.045342
20
-0.170838
30
0.0
11
-0.045342
21
-0.171418
31
0.0
0
LINE
8
0
6
CONTINUOUS
10
-0.067343
20
-0.170838
30
0.0
11
-0.067343
21
-0.171418
31
0.0
0
LINE
8
0
6
CONTINUOUS
10
-0.117868
20
0.392868
30
0.0
11
-0.118368
21
0.392868
31
0.0
0
LINE
8
0
6
CONTINUOUS
10
-0.117868
20
0.444868
30
0.0
11
-0.056342
21
0.444868
31
0.0
0
LINE
8
0
6
CONTINUOUS
10
-0.118368
20
0.444868
30
0.0
11
-0.117868
21
0.444868
31
0.0
0
LINE
8
0
6
CONTINUOUS
10
-0.083907
20
-0.445843
30
0.0
11
-0.090271
21
-0.445843
31
0.0
0
LINE
8
0
6
CONTINUOUS
10
-0.090704
20
-0.445843
30
0.0
11
-0.091447
21
-0.445843
31
0.0
0
LINE
8
0
6
CONTINUOUS
10
-0.090625
20
-0.445843
30
0.0
11
-0.090704
21
-0.445843
31
0.0
0
LINE
8
0
6
CONTINUOUS
10
-0.090271
20
-0.445843
30
0.0
11
-0.090625
21
-0.445843
31
0.0
0
LINE
8
0
6
CONTINUOUS
10
-0.077544
20
-0.445843
30
0.0
11
-0.083907
21
-0.445843
31
0.0
0
LINE
8
0
6
CONTINUOUS
10
-0.076367
20
-0.445843
30
0.0
11
-0.077110
21
-0.445843
31
0.0
0
LINE
8
0
6
CONTINUOUS
10
-0.077110
20
-0.445843
30
0.0
11
-0.077189
21
-0.445843
31
0.0
0
LINE
8
0
6
CONTINUOUS
10
-0.077189
20
-0.445843
30
0.0
11
-0.077544
21
-0.445843
31
0.0
0
LINE
8
0
6
CONTINUOUS
10
-0.091447
20
-0.454609
30
0.0
11
-0.091447
21
-0.467347
31
0.0
0
LINE
8
0
6
CONTINUOUS
10
-0.091447
20
-0.467347
30
0.0
11
-0.091447
21
-0.469747
31
0.0
0
LINE
8
0
6
CONTINUOUS
10
-0.083907
20
-0.445843
30
0.0
11
-0.091011
21
-0.445843
31
0.0
0
LINE
8
0
6
CONTINUOUS
10
-0.091011
20
-0.445843
30
0.0
11
-0.091404
21
-0.445843
31
0.0
0
LINE
8
0
6
CONTINUOUS
10
-0.091404
20
-0.445843
30
0.0
11
-0.091447
21
-0.445843
31
0.0
0
LINE
8
0
6
CONTINUOUS
10
-0.090271
20
-0.476113
30
0.0
11
-0.083907
21
-0.476113
31
0.0
0
LINE
8
0
6
CONTINUOUS
10
-0.091447
20
-0.469747
30
0.0
11
-0.091447
21
-0.476113
31
0.0
0
LINE
8
0
6
CONTINUOUS
10
-0.090704
20
-0.476113
30
0.0
11
-0.090625
21
-0.476113
31
0.0
0
LINE
8
0
6
CONTINUOUS
10
-0.090625
20
-0.476113
30
0.0
11
-0.090271
21
-0.476113
31
0.0
0
LINE
8
0
6
CONTINUOUS
10
-0.083907
20
-0.445846
30
0.0
11
-0.090340
21
-0.445846
31
0.0
0
LINE
8
0
6
CONTINUOUS
10
-0.091447
20
-0.445846
30
0.0
11
-0.091447
21
-0.452212
31
0.0
0
LINE
8
0
6
CONTINUOUS
10
-0.090774
20
-0.445846
30
0.0
11
-0.091447
21
-0.445846
31
0.0
0
LINE
8
0
6
CONTINUOUS
10
-0.090702
20
-0.445846
30
0.0
11
-0.090774
21
-0.445846
31
0.0
0
LINE
8
0
6
CONTINUOUS
10
-0.091447
20
-0.452212
30
0.0
11
-0.091447
21
-0.454609
31
0.0
0
LINE
8
0
6
CONTINUOUS
10
-0.090340
20
-0.445846
30
0.0
11
-0.090702
21
-0.445846
31
0.0
0
LINE
8
0
6
CONTINUOUS
10
-0.076367
20
-0.467347
30
0.0
11
-0.076367
21
-0.454609
31
0.0
0
LINE
8
0
6
CONTINUOUS
10
-0.076367
20
-0.469747
30
0.0
11
-0.076367
21
-0.467347
31
0.0
0
LINE
8
0
6
CONTINUOUS
10
-0.076803
20
-0.445843
30
0.0
11
-0.083907
21
-0.445843
31
0.0
0
LINE
8
0
6
CONTINUOUS
10
-0.076367
20
-0.445843
30
0.0
11
-0.076410
21
-0.445843
31
0.0
0
LINE
8
0
6
CONTINUOUS
10
-0.076410
20
-0.445843
30
0.0
11
-0.076803
21
-0.445843
31
0.0
0
LINE
8
0
6
CONTINUOUS
10
-0.083907
20
-0.476113
30
0.0
11
-0.077544
21
-0.476113
31
0.0
0
LINE
8
0
6
CONTINUOUS
10
-0.076367
20
-0.476113
30
0.0
11
-0.076367
21
-0.469747
31
0.0
0
LINE
8
0
6
CONTINUOUS
10
-0.077189
20
-0.476113
30
0.0
11
-0.077110
21
-0.476113
31
0.0
0
LINE
8
0
6
CONTINUOUS
10
-0.077544
20
-0.476113
30
0.0
11
-0.077189
21
-0.476113
31
0.0
0
LINE
8
0
6
CONTINUOUS
10
-0.077474
20
-0.445846
30
0.0
11
-0.083907
21
-0.445846
31
0.0
0
LINE
8
0
6
CONTINUOUS
10
-0.076367
20
-0.445846
30
0.0
11
-0.077040
21
-0.445846
31
0.0
0
LINE
8
0
6
CONTINUOUS
10
-0.076367
20
-0.452212
30
0.0
11
-0.076367
21
-0.445846
31
0.0
0
LINE
8
0
6
CONTINUOUS
10
-0.077040
20
-0.445846
30
0.0
11
-0.077112
21
-0.445846
31
0.0
0
LINE
8
0
6
CONTINUOUS
10
-0.076367
20
-0.454609
30
0.0
11
-0.076367
21
-0.452212
31
0.0
0
LINE
8
0
6
CONTINUOUS
10
-0.077112
20
-0.445846
30
0.0
11
-0.077474
21
-0.445846
31
0.0
0
LINE
8
0
6
CONTINUOUS
10
-0.030936
20
-0.477963
30
0.0
11
-0.030936
21
-0.475167
31
0.0
0
LINE
8
0
6
CONTINUOUS
10
-0.051123
20
-0.477963
30
0.0
11
-0.051123
21
-0.477140
31
0.0
0
LINE
8
0
6
CONTINUOUS
10
-0.029649
20
-0.477963
30
0.0
11
-0.031597
21
-0.477963
31
0.0
0
LINE
8
0
6
CONTINUOUS
10
-0.048627
20
-0.477963
30
0.0
11
-0.051443
21
-0.477963
31
0.0
0
LINE
8
0
6
CONTINUOUS
10
-0.035157
20
-0.477963
30
0.0
11
-0.039714
21
-0.477963
31
0.0
0
LINE
8
0
6
CONTINUOUS
10
-0.029649
20
-0.477963
30
0.0
11
-0.029649
21
-0.479343
31
0.0
0
LINE
8
0
6
CONTINUOUS
10
-0.044478
20
-0.477963
30
0.0
11
-0.048627
21
-0.477963
31
0.0
0
LINE
8
0
6
CONTINUOUS
10
-0.031597
20
-0.477963
30
0.0
11
-0.035157
21
-0.477963
31
0.0
0
LINE
8
0
6
CONTINUOUS
10
-0.052439
20
-0.477963
30
0.0
11
-0.052439
21
-0.479343
31
0.0
0
LINE
8
0
6
CONTINUOUS
10
-0.051443
20
-0.477963
30
0.0
11
-0.052439
21
-0.477963
31
0.0
0
LINE
8
0
6
CONTINUOUS
10
-0.039714
20
-0.477963
30
0.0
11
-0.044478
21
-0.477963
31
0.0
0
LINE
8
0
6
CONTINUOUS
10
-0.050339
20
-0.500611
30
0.0
11
-0.047819
21
-0.500611
31
0.0
0
LINE
8
0
6
CONTINUOUS
10
-0.051231
20
-0.500611
30
0.0
11
-0.050339
21
-0.500611
31
0.0
0
LINE
8
0
6
CONTINUOUS
10
-0.047819
20
-0.500611
30
0.0
11
-0.044105
21
-0.500611
31
0.0
0
LINE
8
0
6
CONTINUOUS
10
-0.044105
20
-0.500611
30
0.0
11
-0.039840
21
-0.500611
31
0.0
0
LINE
8
0
6
CONTINUOUS
10
-0.039840
20
-0.500611
30
0.0
11
-0.035761
21
-0.500611
31
0.0
0
LINE
8
0
6
CONTINUOUS
10
-0.035761
20
-0.500611
30
0.0
11
-0.032575
21
-0.500611
31
0.0
0
LINE
8
0
6
CONTINUOUS
10
-0.032575
20
-0.500611
30
0.0
11
-0.030830
21
-0.500611
31
0.0
0
LINE
8
0
6
CONTINUOUS
10
-0.030789
20
-0.499868
30
0.0
11
-0.030830
21
-0.500611
31
0.0
0
LINE
8
0
6
CONTINUOUS
10
-0.051231
20
-0.500611
30
0.0
11
-0.051273
21
-0.499868
31
0.0
0
LINE
8
0
6
CONTINUOUS
10
-0.029649
20
-0.479343
30
0.0
11
-0.030789
21
-0.499868
31
0.0
0
LINE
8
0
6
CONTINUOUS
10
-0.051273
20
-0.499868
30
0.0
11
-0.052439
21
-0.479343
31
0.0
0
LINE
8
0
6
CONTINUOUS
10
-0.097029
20
-0.494899
30
0.0
11
-0.096387
21
-0.494899
31
0.0
0
LINE
8
0
6
CONTINUOUS
10
-0.096387
20
-0.426995
30
0.0
11
-0.097029
21
-0.426995
31
0.0
0
LINE
8
0
6
CONTINUOUS
10
-0.118368
20
-0.494240
30
0.0
11
-0.118368
21
-0.494899
31
0.0
0
LINE
8
0
6
CONTINUOUS
10
-0.118368
20
-0.492378
30
0.0
11
-0.118368
21
-0.494240
31
0.0
0
LINE
8
0
6
CONTINUOUS
10
-0.118368
20
-0.489204
30
0.0
11
-0.118368
21
-0.492378
31
0.0
0
LINE
8
0
6
CONTINUOUS
10
-0.118368
20
-0.485031
30
0.0
11
-0.118368
21
-0.489204
31
0.0
0
LINE
8
0
6
CONTINUOUS
10
-0.118368
20
-0.479979
30
0.0
11
-0.118368
21
-0.485031
31
0.0
0
LINE
8
0
6
CONTINUOUS
10
-0.118368
20
-0.474068
30
0.0
11
-0.118368
21
-0.479979
31
0.0
0
LINE
8
0
6
CONTINUOUS
10
-0.118368
20
-0.467757
30
0.0
11
-0.118368
21
-0.474068
31
0.0
0
LINE
8
0
6
CONTINUOUS
10
-0.118368
20
-0.461185
30
0.0
11
-0.118368
21
-0.467757
31
0.0
0
LINE
8
0
6
CONTINUOUS
10
-0.118368
20
-0.454491
30
0.0
11
-0.118368
21
-0.461185
31
0.0
0
LINE
8
0
6
CONTINUOUS
10
-0.118368
20
-0.448145
30
0.0
11
-0.118368
21
-0.454491
31
0.0
0
LINE
8
0
6
CONTINUOUS
10
-0.118368
20
-0.442263
30
0.0
11
-0.118368
21
-0.448145
31
0.0
0
LINE
8
0
6
CONTINUOUS
10
-0.118368
20
-0.437019
30
0.0
11
-0.118368
21
-0.442263
31
0.0
0
LINE
8
0
6
CONTINUOUS
10
-0.118368
20
-0.432803
30
0.0
11
-0.118368
21
-0.437019
31
0.0
0
LINE
8
0
6
CONTINUOUS
10
-0.118368
20
-0.429632
30
0.0
11
-0.118368
21
-0.432803
31
0.0
0
LINE
8
0
6
CONTINUOUS
10
-0.118368
20
-0.427611
30
0.0
11
-0.118368
21
-0.429632
31
0.0
0
LINE
8
0
6
CONTINUOUS
10
-0.118368
20
-0.426995
30
0.0
11
-0.118368
21
-0.427611
31
0.0
0
LINE
8
0
6
CONTINUOUS
10
-0.096387
20
-0.494899
30
0.0
11
-0.095428
21
-0.494590
31
0.0
0
LINE
8
0
6
CONTINUOUS
10
-0.095211
20
-0.427622
30
0.0
11
-0.096387
21
-0.426995
31
0.0
0
LINE
8
0
6
CONTINUOUS
10
-0.073868
20
-0.461154
30
0.0
11
-0.073868
21
-0.456150
31
0.0
0
LINE
8
0
6
CONTINUOUS
10
-0.073868
20
-0.470401
30
0.0
11
-0.073868
21
-0.466159
31
0.0
0
LINE
8
0
6
CONTINUOUS
10
-0.073868
20
-0.474232
30
0.0
11
-0.073868
21
-0.473236
31
0.0
0
LINE
8
0
6
CONTINUOUS
10
-0.073868
20
-0.448077
30
0.0
11
-0.076367
21
-0.447995
31
0.0
0
LINE
8
0
6
CONTINUOUS
10
-0.091447
20
-0.447501
30
0.0
11
-0.093705
21
-0.447427
31
0.0
0
LINE
8
0
6
CONTINUOUS
10
-0.073868
20
-0.466159
30
0.0
11
-0.073868
21
-0.461154
31
0.0
0
LINE
8
0
6
CONTINUOUS
10
-0.073868
20
-0.473236
30
0.0
11
-0.073868
21
-0.470401
31
0.0
0
LINE
8
0
6
CONTINUOUS
10
-0.073868
20
-0.474232
30
0.0
11
-0.076367
21
-0.474266
31
0.0
0
LINE
8
0
6
CONTINUOUS
10
-0.091447
20
-0.474473
30
0.0
11
-0.093706
21
-0.474504
31
0.0
0
LINE
8
0
6
CONTINUOUS
10
-0.095428
20
-0.494590
30
0.0
11
-0.095293
21
-0.493011
31
0.0
0
LINE
8
0
6
CONTINUOUS
10
-0.095090
20
-0.429207
30
0.0
11
-0.095211
21
-0.427622
31
0.0
0
LINE
8
0
6
CONTINUOUS
10
-0.026770
20
-0.445327
30
0.0
11
-0.023773
21
-0.449362
31
0.0
0
LINE
8
0
6
CONTINUOUS
10
-0.073319
20
-0.476703
30
0.0
11
-0.059487
21
-0.476809
31
0.0
0
LINE
8
0
6
CONTINUOUS
10
-0.056694
20
-0.445001
30
0.0
11
-0.073323
21
-0.445190
31
0.0
0
LINE
8
0
6
CONTINUOUS
10
-0.055814
20
-0.448242
30
0.0
11
-0.054578
21
-0.446242
31
0.0
0
LINE
8
0
6
CONTINUOUS
10
-0.056497
20
-0.449438
30
0.0
11
-0.055814
21
-0.448242
31
0.0
0
LINE
8
0
6
CONTINUOUS
10
-0.052855
20
-0.444349
30
0.0
11
-0.051914
21
-0.443335
31
0.0
0
LINE
8
0
6
CONTINUOUS
10
-0.054578
20
-0.446242
30
0.0
11
-0.052855
21
-0.444349
31
0.0
0
LINE
8
0
6
CONTINUOUS
10
-0.053978
20
-0.444193
30
0.0
11
-0.056694
21
-0.445001
31
0.0
0
LINE
8
0
6
CONTINUOUS
10
-0.055618
20
-0.467088
30
0.0
11
-0.056441
21
-0.465993
31
0.0
0
LINE
8
0
6
CONTINUOUS
10
-0.052716
20
-0.470885
30
0.0
11
-0.055618
21
-0.467088
31
0.0
0
LINE
8
0
6
CONTINUOUS
10
-0.048905
20
-0.474170
30
0.0
11
-0.050906
21
-0.472835
31
0.0
0
LINE
8
0
6
CONTINUOUS
10
-0.044589
20
-0.476076
30
0.0
11
-0.048905
21
-0.474170
31
0.0
0
LINE
8
0
6
CONTINUOUS
10
-0.061897
20
-0.476860
30
0.0
11
-0.062570
21
-0.476830
31
0.0
0
LINE
8
0
6
CONTINUOUS
10
-0.051498
20
-0.442825
30
0.0
11
-0.049106
21
-0.441306
31
0.0
0
LINE
8
0
6
CONTINUOUS
10
-0.049133
20
-0.441256
30
0.0
11
-0.051794
21
-0.443070
31
0.0
0
LINE
8
0
6
CONTINUOUS
10
-0.053978
20
-0.444193
30
0.0
11
-0.051498
21
-0.442825
31
0.0
0
LINE
8
0
6
CONTINUOUS
10
-0.059487
20
-0.476809
30
0.0
11
-0.058466
21
-0.476834
31
0.0
0
LINE
8
0
6
CONTINUOUS
10
-0.073856
20
-0.476698
30
0.0
11
-0.073319
21
-0.476703
31
0.0
0
LINE
8
0
6
CONTINUOUS
10
-0.073323
20
-0.445190
30
0.0
11
-0.073860
21
-0.445195
31
0.0
0
LINE
8
0
6
CONTINUOUS
10
-0.039617
20
-0.438246
30
0.0
11
-0.034639
21
-0.438949
31
0.0
0
LINE
8
0
6
CONTINUOUS
10
-0.053213
20
-0.444130
30
0.0
11
-0.049286
21
-0.441028
31
0.0
0
LINE
8
0
6
CONTINUOUS
10
-0.055556
20
-0.466996
30
0.0
11
-0.057398
21
-0.462488
31
0.0
0
LINE
8
0
6
CONTINUOUS
10
-0.052670
20
-0.470804
30
0.0
11
-0.055556
21
-0.466996
31
0.0
0
LINE
8
0
6
CONTINUOUS
10
-0.048887
20
-0.473972
30
0.0
11
-0.052670
21
-0.470804
31
0.0
0
LINE
8
0
6
CONTINUOUS
10
-0.044533
20
-0.475866
30
0.0
11
-0.048887
21
-0.473972
31
0.0
0
LINE
8
0
6
CONTINUOUS
10
-0.039684
20
-0.476587
30
0.0
11
-0.044533
21
-0.475866
31
0.0
0
LINE
8
0
6
CONTINUOUS
10
-0.034766
20
-0.475998
30
0.0
11
-0.039684
21
-0.476587
31
0.0
0
LINE
8
0
6
CONTINUOUS
10
-0.030159
20
-0.474140
30
0.0
11
-0.030936
21
-0.474453
31
0.0
0
LINE
8
0
6
CONTINUOUS
10
-0.023115
20
-0.467211
30
0.0
11
-0.026183
21
-0.471146
31
0.0
0
LINE
8
0
6
CONTINUOUS
10
-0.020577
20
-0.457690
30
0.0
11
-0.021209
21
-0.462653
31
0.0
0
LINE
8
0
6
CONTINUOUS
10
-0.021255
20
-0.452745
30
0.0
11
-0.020577
21
-0.457690
31
0.0
0
LINE
8
0
6
CONTINUOUS
10
-0.022783
20
-0.449003
30
0.0
11
-0.021255
21
-0.452745
31
0.0
0
LINE
8
0
6
CONTINUOUS
10
-0.026204
20
-0.444260
30
0.0
11
-0.026098
21
-0.444394
31
0.0
0
LINE
8
0
6
CONTINUOUS
10
-0.034787
20
-0.439500
30
0.0
11
-0.030192
21
-0.441311
31
0.0
0
LINE
8
0
6
CONTINUOUS
10
-0.039668
20
-0.438898
30
0.0
11
-0.034787
21
-0.439500
31
0.0
0
LINE
8
0
6
CONTINUOUS
10
-0.044515
20
-0.439597
30
0.0
11
-0.039668
21
-0.438898
31
0.0
0
LINE
8
0
6
CONTINUOUS
10
-0.048967
20
-0.441531
30
0.0
11
-0.044515
21
-0.439597
31
0.0
0
LINE
8
0
6
CONTINUOUS
10
-0.052739
20
-0.444500
30
0.0
11
-0.048967
21
-0.441531
31
0.0
0
LINE
8
0
6
CONTINUOUS
10
-0.057354
20
-0.452833
30
0.0
11
-0.055666
21
-0.448360
31
0.0
0
LINE
8
0
6
CONTINUOUS
10
-0.118368
20
-0.494240
30
0.0
11
-0.118368
21
-0.494899
31
0.0
0
LINE
8
0
6
CONTINUOUS
10
-0.118368
20
-0.494899
30
0.0
11
-0.097029
21
-0.494899
31
0.0
0
LINE
8
0
6
CONTINUOUS
10
-0.118368
20
-0.492378
30
0.0
11
-0.118368
21
-0.494240
31
0.0
0
LINE
8
0
6
CONTINUOUS
10
-0.118368
20
-0.489204
30
0.0
11
-0.118368
21
-0.492378
31
0.0
0
LINE
8
0
6
CONTINUOUS
10
-0.118368
20
-0.485031
30
0.0
11
-0.118368
21
-0.489204
31
0.0
0
LINE
8
0
6
CONTINUOUS
10
-0.118368
20
-0.479979
30
0.0
11
-0.118368
21
-0.485031
31
0.0
0
LINE
8
0
6
CONTINUOUS
10
-0.118368
20
-0.474068
30
0.0
11
-0.118368
21
-0.479979
31
0.0
0
LINE
8
0
6
CONTINUOUS
10
-0.118368
20
-0.467757
30
0.0
11
-0.118368
21
-0.474068
31
0.0
0
LINE
8
0
6
CONTINUOUS
10
-0.118368
20
-0.461185
30
0.0
11
-0.118368
21
-0.467757
31
0.0
0
LINE
8
0
6
CONTINUOUS
10
-0.118368
20
-0.454491
30
0.0
11
-0.118368
21
-0.461185
31
0.0
0
LINE
8
0
6
CONTINUOUS
10
-0.118368
20
-0.448145
30
0.0
11
-0.118368
21
-0.454491
31
0.0
0
LINE
8
0
6
CONTINUOUS
10
-0.118368
20
-0.442263
30
0.0
11
-0.118368
21
-0.448145
31
0.0
0
LINE
8
0
6
CONTINUOUS
10
-0.118368
20
-0.437019
30
0.0
11
-0.118368
21
-0.442263
31
0.0
0
LINE
8
0
6
CONTINUOUS
10
-0.118368
20
-0.432803
30
0.0
11
-0.118368
21
-0.437019
31
0.0
0
LINE
8
0
6
CONTINUOUS
10
-0.118368
20
-0.429632
30
0.0
11
-0.118368
21
-0.432803
31
0.0
0
LINE
8
0
6
CONTINUOUS
10
-0.118368
20
-0.426995
30
0.0
11
-0.118368
21
-0.427611
31
0.0
0
LINE
8
0
6
CONTINUOUS
10
-0.097029
20
-0.426995
30
0.0
11
-0.118368
21
-0.426995
31
0.0
0
LINE
8
0
6
CONTINUOUS
10
-0.118368
20
-0.427611
30
0.0
11
-0.118368
21
-0.429632
31
0.0
0
LINE
8
0
6
CONTINUOUS
10
-0.095293
20
-0.493011
30
0.0
11
-0.093706
21
-0.474504
31
0.0
0
LINE
8
0
6
CONTINUOUS
10
-0.093705
20
-0.447427
30
0.0
11
-0.095090
21
-0.429207
31
0.0
0
LINE
8
0
6
CONTINUOUS
10
-0.073855
20
-0.472128
30
0.0
11
-0.073856
21
-0.468941
31
0.0
0
LINE
8
0
6
CONTINUOUS
10
-0.073858
20
-0.457076
30
0.0
11
-0.073858
21
-0.453272
31
0.0
0
LINE
8
0
6
CONTINUOUS
10
-0.073859
20
-0.449956
30
0.0
11
-0.073858
21
-0.447411
31
0.0
0
LINE
8
0
6
CONTINUOUS
10
-0.014453
20
-0.442621
30
0.0
11
-0.015344
21
-0.443738
31
0.0
0
LINE
8
0
6
CONTINUOUS
10
-0.014237
20
-0.441208
30
0.0
11
-0.014453
21
-0.442621
31
0.0
0
LINE
8
0
6
CONTINUOUS
10
-0.014755
20
-0.439876
30
0.0
11
-0.014237
21
-0.441208
31
0.0
0
LINE
8
0
6
CONTINUOUS
10
-0.017394
20
-0.438608
30
0.0
11
-0.015985
21
-0.438823
31
0.0
0
LINE
8
0
6
CONTINUOUS
10
-0.018722
20
-0.439129
30
0.0
11
-0.017394
21
-0.438608
31
0.0
0
LINE
8
0
6
CONTINUOUS
10
-0.015344
20
-0.443738
30
0.0
11
-0.022769
21
-0.449038
31
0.0
0
LINE
8
0
6
CONTINUOUS
10
-0.026098
20
-0.444394
30
0.0
11
-0.018722
21
-0.439129
31
0.0
0
LINE
8
0
6
CONTINUOUS
10
-0.015985
20
-0.438823
30
0.0
11
-0.014755
21
-0.439876
31
0.0
0
LINE
8
0
6
CONTINUOUS
10
-0.015670
20
-0.443931
30
0.0
11
-0.014781
21
-0.442816
31
0.0
0
LINE
8
0
6
CONTINUOUS
10
-0.023601
20
-0.449593
30
0.0
11
-0.015670
21
-0.443931
31
0.0
0
LINE
8
0
6
CONTINUOUS
10
-0.023773
20
-0.449362
30
0.0
11
-0.023601
21
-0.449593
31
0.0
0
LINE
8
0
6
CONTINUOUS
10
-0.026942
20
-0.445096
30
0.0
11
-0.026770
21
-0.445327
31
0.0
0
LINE
8
0
6
CONTINUOUS
10
-0.095428
20
-0.494590
30
0.0
11
-0.096387
21
-0.494899
31
0.0
0
LINE
8
0
6
CONTINUOUS
10
-0.061899
20
-0.477105
30
0.0
11
-0.062756
21
-0.476784
31
0.0
0
LINE
8
0
6
CONTINUOUS
10
-0.055453
20
-0.477112
30
0.0
11
-0.061899
21
-0.477105
31
0.0
0
LINE
8
0
6
CONTINUOUS
10
-0.029813
20
-0.474736
30
0.0
11
-0.030936
21
-0.475167
31
0.0
0
LINE
8
0
6
CONTINUOUS
10
-0.025708
20
-0.471573
30
0.0
11
-0.029813
21
-0.474736
31
0.0
0
LINE
8
0
6
CONTINUOUS
10
-0.022609
20
-0.467567
30
0.0
11
-0.025708
21
-0.471573
31
0.0
0
LINE
8
0
6
CONTINUOUS
10
-0.020578
20
-0.462764
30
0.0
11
-0.022609
21
-0.467567
31
0.0
0
LINE
8
0
6
CONTINUOUS
10
-0.019876
20
-0.457653
30
0.0
11
-0.020578
21
-0.462764
31
0.0
0
LINE
8
0
6
CONTINUOUS
10
-0.020627
20
-0.452597
30
0.0
11
-0.019876
21
-0.457653
31
0.0
0
LINE
8
0
6
CONTINUOUS
10
-0.022294
20
-0.448654
30
0.0
11
-0.020627
21
-0.452597
31
0.0
0
LINE
8
0
6
CONTINUOUS
10
-0.025807
20
-0.443845
30
0.0
11
-0.025634
21
-0.444063
31
0.0
0
LINE
8
0
6
CONTINUOUS
10
-0.029942
20
-0.440693
30
0.0
11
-0.025807
21
-0.443845
31
0.0
0
LINE
8
0
6
CONTINUOUS
10
-0.034639
20
-0.438949
30
0.0
11
-0.029942
21
-0.440693
31
0.0
0
LINE
8
0
6
CONTINUOUS
10
-0.044658
20
-0.439067
30
0.0
11
-0.039617
21
-0.438246
31
0.0
0
LINE
8
0
6
CONTINUOUS
10
-0.049286
20
-0.441028
30
0.0
11
-0.044658
21
-0.439067
31
0.0
0
LINE
8
0
6
CONTINUOUS
10
-0.051123
20
-0.477140
30
0.0
11
-0.055453
21
-0.477112
31
0.0
0
LINE
8
0
6
CONTINUOUS
10
-0.093706
20
-0.474504
30
0.0
11
-0.095293
21
-0.493011
31
0.0
0
LINE
8
0
6
CONTINUOUS
10
-0.076367
20
-0.445843
30
0.0
11
-0.076803
21
-0.445843
31
0.0
0
LINE
8
0
6
CONTINUOUS
10
-0.076803
20
-0.445843
30
0.0
11
-0.083907
21
-0.445843
31
0.0
0
LINE
8
0
6
CONTINUOUS
10
-0.091011
20
-0.445843
30
0.0
11
-0.091447
21
-0.445843
31
0.0
0
LINE
8
0
6
CONTINUOUS
10
-0.083907
20
-0.445843
30
0.0
11
-0.091011
21
-0.445843
31
0.0
0
LINE
8
0
6
CONTINUOUS
10
-0.077544
20
-0.445843
30
0.0
11
-0.077189
21
-0.445843
31
0.0
0
LINE
8
0
6
CONTINUOUS
10
-0.077189
20
-0.445843
30
0.0
11
-0.077110
21
-0.445843
31
0.0
0
LINE
8
0
6
CONTINUOUS
10
-0.076367
20
-0.445843
30
0.0
11
-0.077110
21
-0.445843
31
0.0
0
LINE
8
0
6
CONTINUOUS
10
-0.077544
20
-0.445843
30
0.0
11
-0.083907
21
-0.445843
31
0.0
0
LINE
8
0
6
CONTINUOUS
10
-0.090704
20
-0.445843
30
0.0
11
-0.090625
21
-0.445843
31
0.0
0
LINE
8
0
6
CONTINUOUS
10
-0.090625
20
-0.445843
30
0.0
11
-0.090271
21
-0.445843
31
0.0
0
LINE
8
0
6
CONTINUOUS
10
-0.090704
20
-0.445843
30
0.0
11
-0.091447
21
-0.445843
31
0.0
0
LINE
8
0
6
CONTINUOUS
10
-0.083907
20
-0.445843
30
0.0
11
-0.090271
21
-0.445843
31
0.0
0
LINE
8
0
6
CONTINUOUS
10
0.118368
20
0.486240
30
0.0
11
0.117888
21
0.487408
31
0.0
0
LINE
8
0
6
CONTINUOUS
10
0.021014
20
0.442541
30
0.0
11
0.018583
21
0.439658
31
0.0
0
LINE
8
0
6
CONTINUOUS
10
0.103435
20
0.497011
30
0.0
11
0.099211
21
0.494081
31
0.0
0
LINE
8
0
6
CONTINUOUS
10
0.108752
20
0.500611
30
0.0
11
0.108203
21
0.500415
31
0.0
0
LINE
8
0
6
CONTINUOUS
10
0.099211
20
0.494081
30
0.0
11
0.093950
21
0.490374
31
0.0
0
LINE
8
0
6
CONTINUOUS
10
-0.031983
20
0.317023
30
0.0
11
-0.023743
21
0.330512
31
0.0
0
LINE
8
0
6
CONTINUOUS
10
-0.044224
20
0.342529
30
0.0
11
-0.045342
21
0.340732
31
0.0
0
LINE
8
0
6
CONTINUOUS
10
-0.025609
20
0.372027
30
0.0
11
-0.044224
21
0.342529
31
0.0
0
LINE
8
0
6
CONTINUOUS
10
-0.005425
20
0.360165
30
0.0
11
0.009259
21
0.382860
31
0.0
0
LINE
8
0
6
CONTINUOUS
10
0.009259
20
0.382860
30
0.0
11
0.019180
21
0.400245
31
0.0
0
LINE
8
0
6
CONTINUOUS
10
-0.011341
20
0.394690
30
0.0
11
-0.025609
21
0.372027
31
0.0
0
LINE
8
0
6
CONTINUOUS
10
0.000434
20
0.413339
30
0.0
11
-0.011341
21
0.394690
31
0.0
0
LINE
8
0
6
CONTINUOUS
10
0.006669
20
0.423016
30
0.0
11
0.000434
21
0.413339
31
0.0
0
LINE
8
0
6
CONTINUOUS
10
0.011118
20
0.429650
30
0.0
11
0.006669
21
0.423016
31
0.0
0
LINE
8
0
6
CONTINUOUS
10
0.013762
20
0.433401
30
0.0
11
0.011118
21
0.429650
31
0.0
0
LINE
8
0
6
CONTINUOUS
10
0.018583
20
0.439658
30
0.0
11
0.016320
21
0.436768
31
0.0
0
LINE
8
0
6
CONTINUOUS
10
0.110355
20
0.500144
30
0.0
11
0.108752
21
0.500611
31
0.0
0
LINE
8
0
6
CONTINUOUS
10
0.110789
20
0.499431
30
0.0
11
0.110355
21
0.500144
31
0.0
0
LINE
8
0
6
CONTINUOUS
10
0.117803
20
0.487560
30
0.0
11
0.115518
21
0.491665
31
0.0
0
LINE
8
0
6
CONTINUOUS
10
0.016320
20
0.436768
30
0.0
11
0.013762
21
0.433401
31
0.0
0
LINE
8
0
6
CONTINUOUS
10
-0.023743
20
0.330512
30
0.0
11
-0.005425
21
0.360165
31
0.0
0
LINE
8
0
6
CONTINUOUS
10
0.024000
20
0.445893
30
0.0
11
0.021014
21
0.442541
31
0.0
0
LINE
8
0
6
CONTINUOUS
10
0.027116
20
0.449267
30
0.0
11
0.024000
21
0.445893
31
0.0
0
LINE
8
0
6
CONTINUOUS
10
0.037340
20
0.458798
30
0.0
11
0.034764
21
0.456513
31
0.0
0
LINE
8
0
6
CONTINUOUS
10
0.032188
20
0.454228
30
0.0
11
0.029652
21
0.451747
31
0.0
0
LINE
8
0
6
CONTINUOUS
10
0.052008
20
0.470247
30
0.0
11
0.037340
21
0.458798
31
0.0
0
LINE
8
0
6
CONTINUOUS
10
0.068587
20
0.481278
30
0.0
11
0.060297
21
0.475763
31
0.0
0
LINE
8
0
6
CONTINUOUS
10
0.086415
20
0.491078
30
0.0
11
0.077501
21
0.486178
31
0.0
0
LINE
8
0
6
CONTINUOUS
10
0.100021
20
0.497259
30
0.0
11
0.093218
21
0.494169
31
0.0
0
LINE
8
0
6
CONTINUOUS
10
0.046233
20
0.435652
30
0.0
11
0.050010
21
0.438249
31
0.0
0
LINE
8
0
6
CONTINUOUS
10
0.108203
20
0.500415
30
0.0
11
0.100021
21
0.497259
31
0.0
0
LINE
8
0
6
CONTINUOUS
10
0.041422
20
0.431970
30
0.0
11
0.043443
21
0.433549
31
0.0
0
LINE
8
0
6
CONTINUOUS
10
0.115209
20
0.483813
30
0.0
11
0.117293
21
0.485241
31
0.0
0
LINE
8
0
6
CONTINUOUS
10
0.037664
20
0.428784
30
0.0
11
0.041422
21
0.431970
31
0.0
0
LINE
8
0
6
CONTINUOUS
10
0.054851
20
0.441570
30
0.0
11
0.062106
21
0.446715
31
0.0
0
LINE
8
0
6
CONTINUOUS
10
0.115518
20
0.491665
30
0.0
11
0.110789
21
0.499431
31
0.0
0
LINE
8
0
6
CONTINUOUS
10
0.117888
20
0.487408
30
0.0
11
0.117803
21
0.487560
31
0.0
0
LINE
8
0
6
CONTINUOUS
10
-0.032490
20
0.316788
30
0.0
11
-0.032056
21
0.316900
31
0.0
0
LINE
8
0
6
CONTINUOUS
10
-0.044594
20
0.323807
30
0.0
11
-0.042918
21
0.322835
31
0.0
0
LINE
8
0
6
CONTINUOUS
10
-0.032056
20
0.316900
30
0.0
11
-0.031983
21
0.317023
31
0.0
0
LINE
8
0
6
CONTINUOUS
10
0.020393
20
0.403592
30
0.0
11
0.020673
21
0.405713
31
0.0
0
LINE
8
0
6
CONTINUOUS
10
0.020467
20
0.402611
30
0.0
11
0.020393
21
0.403592
31
0.0
0
LINE
8
0
6
CONTINUOUS
10
0.020446
20
0.402330
30
0.0
11
0.020467
21
0.402611
31
0.0
0
LINE
8
0
6
CONTINUOUS
10
0.019180
20
0.400245
30
0.0
11
0.020446
21
0.402330
31
0.0
0
LINE
8
0
6
CONTINUOUS
10
0.020673
20
0.405713
30
0.0
11
0.025445
21
0.413971
31
0.0
0
LINE
8
0
6
CONTINUOUS
10
0.025445
20
0.413971
30
0.0
11
0.031632
21
0.421369
31
0.0
0
LINE
8
0
6
CONTINUOUS
10
0.034872
20
0.426037
30
0.0
11
0.037664
21
0.428784
31
0.0
0
LINE
8
0
6
CONTINUOUS
10
0.108997
20
0.479306
30
0.0
11
0.112434
21
0.481688
31
0.0
0
LINE
8
0
6
CONTINUOUS
10
0.112434
20
0.481688
30
0.0
11
0.115209
21
0.483813
31
0.0
0
LINE
8
0
6
CONTINUOUS
10
0.117937
20
0.485666
30
0.0
11
0.118368
21
0.486240
31
0.0
0
LINE
8
0
6
CONTINUOUS
10
0.117293
20
0.485241
30
0.0
11
0.117937
21
0.485666
31
0.0
0
LINE
8
0
6
CONTINUOUS
10
0.077997
20
0.457642
30
0.0
11
0.085052
21
0.462492
31
0.0
0
LINE
8
0
6
CONTINUOUS
10
0.104131
20
0.475922
30
0.0
11
0.108997
21
0.479306
31
0.0
0
LINE
8
0
6
CONTINUOUS
10
0.097948
20
0.471516
30
0.0
11
0.104131
21
0.475922
31
0.0
0
LINE
8
0
6
CONTINUOUS
10
0.062106
20
0.446715
30
0.0
11
0.070292
21
0.452342
31
0.0
0
LINE
8
0
6
CONTINUOUS
10
0.034368
20
0.424660
30
0.0
11
0.034872
21
0.426037
31
0.0
0
LINE
8
0
6
CONTINUOUS
10
0.031632
20
0.421369
30
0.0
11
0.034317
21
0.424519
31
0.0
0
LINE
8
0
6
CONTINUOUS
10
0.034317
20
0.424519
30
0.0
11
0.034368
21
0.424660
31
0.0
0
LINE
8
0
6
CONTINUOUS
10
0.034764
20
0.456513
30
0.0
11
0.032188
21
0.454228
31
0.0
0
LINE
8
0
6
CONTINUOUS
10
0.050010
20
0.438249
30
0.0
11
0.054851
21
0.441570
31
0.0
0
LINE
8
0
6
CONTINUOUS
10
0.029652
20
0.451747
30
0.0
11
0.027116
21
0.449267
31
0.0
0
LINE
8
0
6
CONTINUOUS
10
0.043443
20
0.433549
30
0.0
11
0.046233
21
0.435652
31
0.0
0
LINE
8
0
6
CONTINUOUS
10
0.060297
20
0.475763
30
0.0
11
0.052008
21
0.470247
31
0.0
0
LINE
8
0
6
CONTINUOUS
10
0.070293
20
0.452343
30
0.0
11
0.077997
21
0.457642
31
0.0
0
LINE
8
0
6
CONTINUOUS
10
0.093218
20
0.494169
30
0.0
11
0.086415
21
0.491078
31
0.0
0
LINE
8
0
6
CONTINUOUS
10
0.091766
20
0.467109
30
0.0
11
0.097948
21
0.471516
31
0.0
0
LINE
8
0
6
CONTINUOUS
10
0.077501
20
0.486178
30
0.0
11
0.068587
21
0.481278
31
0.0
0
LINE
8
0
6
CONTINUOUS
10
0.085052
20
0.462492
30
0.0
11
0.091766
21
0.467109
31
0.0
0
LINE
8
0
6
CONTINUOUS
10
-0.038196
20
0.307692
30
0.0
11
-0.033460
21
0.314925
31
0.0
0
LINE
8
0
6
CONTINUOUS
10
-0.033766
20
0.317528
30
0.0
11
-0.035377
21
0.318463
31
0.0
0
LINE
8
0
6
CONTINUOUS
10
-0.039923
20
0.321098
30
0.0
11
-0.042547
21
0.322620
31
0.0
0
LINE
8
0
6
CONTINUOUS
10
-0.032454
20
0.316660
30
0.0
11
-0.032408
21
0.316740
31
0.0
0
LINE
8
0
6
CONTINUOUS
10
-0.033460
20
0.314925
30
0.0
11
-0.032454
21
0.316660
31
0.0
0
LINE
8
0
6
CONTINUOUS
10
0.041422
20
0.431970
30
0.0
11
0.037664
21
0.428784
31
0.0
0
LINE
8
0
6
CONTINUOUS
10
0.117293
20
0.485241
30
0.0
11
0.115209
21
0.483813
31
0.0
0
LINE
8
0
6
CONTINUOUS
10
0.048267
20
0.430380
30
0.0
11
0.048900
21
0.430685
31
0.0
0
LINE
8
0
6
CONTINUOUS
10
0.038549
20
0.425640
30
0.0
11
0.039474
21
0.425740
31
0.0
0
LINE
8
0
6
CONTINUOUS
10
0.034872
20
0.426037
30
0.0
11
0.034368
21
0.424660
31
0.0
0
LINE
8
0
6
CONTINUOUS
10
0.037664
20
0.428784
30
0.0
11
0.034872
21
0.426037
31
0.0
0
LINE
8
0
6
CONTINUOUS
10
0.097948
20
0.471516
30
0.0
11
0.091766
21
0.467109
31
0.0
0
LINE
8
0
6
CONTINUOUS
10
0.112434
20
0.481688
30
0.0
11
0.108997
21
0.479306
31
0.0
0
LINE
8
0
6
CONTINUOUS
10
0.108997
20
0.479306
30
0.0
11
0.104131
21
0.475922
31
0.0
0
LINE
8
0
6
CONTINUOUS
10
0.115209
20
0.483813
30
0.0
11
0.112434
21
0.481688
31
0.0
0
LINE
8
0
6
CONTINUOUS
10
0.117937
20
0.485666
30
0.0
11
0.117293
21
0.485241
31
0.0
0
LINE
8
0
6
CONTINUOUS
10
0.113933
20
0.480792
30
0.0
11
0.117937
21
0.485666
31
0.0
0
LINE
8
0
6
CONTINUOUS
10
0.080861
20
0.459611
30
0.0
11
0.077997
21
0.457642
31
0.0
0
LINE
8
0
6
CONTINUOUS
10
0.091094
20
0.457959
30
0.0
11
0.091457
21
0.458271
31
0.0
0
LINE
8
0
6
CONTINUOUS
10
0.067864
20
0.450672
30
0.0
11
0.062106
21
0.446715
31
0.0
0
LINE
8
0
6
CONTINUOUS
10
0.073301
20
0.444551
30
0.0
11
0.077446
21
0.447470
31
0.0
0
LINE
8
0
6
CONTINUOUS
10
0.062106
20
0.446715
30
0.0
11
0.054851
21
0.441570
31
0.0
0
LINE
8
0
6
CONTINUOUS
10
0.066636
20
0.440517
30
0.0
11
0.069050
21
0.441901
31
0.0
0
LINE
8
0
6
CONTINUOUS
10
0.049399
20
0.437828
30
0.0
11
0.046233
21
0.435652
31
0.0
0
LINE
8
0
6
CONTINUOUS
10
0.054489
20
0.433617
30
0.0
11
0.056141
21
0.434547
31
0.0
0
LINE
8
0
6
CONTINUOUS
10
0.045136
20
0.434825
30
0.0
11
0.043443
21
0.433549
31
0.0
0
LINE
8
0
6
CONTINUOUS
10
0.039866
20
0.425947
30
0.0
11
0.044477
21
0.428500
31
0.0
0
LINE
8
0
6
CONTINUOUS
10
0.039474
20
0.425740
30
0.0
11
0.039559
21
0.425762
31
0.0
0
LINE
8
0
6
CONTINUOUS
10
0.039559
20
0.425762
30
0.0
11
0.039866
21
0.425947
31
0.0
0
LINE
8
0
6
CONTINUOUS
10
0.034317
20
0.424519
30
0.0
11
0.038549
21
0.425640
31
0.0
0
LINE
8
0
6
CONTINUOUS
10
0.034368
20
0.424660
30
0.0
11
0.034317
21
0.424519
31
0.0
0
LINE
8
0
6
CONTINUOUS
10
0.054410
20
0.441267
30
0.0
11
0.050010
21
0.438249
31
0.0
0
LINE
8
0
6
CONTINUOUS
10
0.041816
20
0.432278
30
0.0
11
0.041422
21
0.431970
31
0.0
0
LINE
8
0
6
CONTINUOUS
10
0.048900
20
0.430685
30
0.0
11
0.049203
21
0.430844
31
0.0
0
LINE
8
0
6
CONTINUOUS
10
0.076294
20
0.456470
30
0.0
11
0.070293
21
0.452343
31
0.0
0
LINE
8
0
6
CONTINUOUS
10
0.080914
20
0.449912
30
0.0
11
0.085093
21
0.452856
31
0.0
0
LINE
8
0
6
CONTINUOUS
10
0.104131
20
0.475922
30
0.0
11
0.097948
21
0.471516
31
0.0
0
LINE
8
0
6
CONTINUOUS
10
0.108415
20
0.474436
30
0.0
11
0.110195
21
0.476243
31
0.0
0
LINE
8
0
6
CONTINUOUS
10
0.087044
20
0.463862
30
0.0
11
0.085052
21
0.462492
31
0.0
0
LINE
8
0
6
CONTINUOUS
10
0.098050
20
0.463934
30
0.0
11
0.098157
21
0.464026
31
0.0
0
LINE
8
0
6
CONTINUOUS
10
0.034309
20
0.424309
30
0.0
11
0.038188
21
0.425331
31
0.0
0
LINE
8
0
6
CONTINUOUS
10
0.031618
20
0.421178
30
0.0
11
0.034309
21
0.424309
31
0.0
0
LINE
8
0
6
CONTINUOUS
10
0.039116
20
0.425429
30
0.0
11
0.039203
21
0.425448
31
0.0
0
LINE
8
0
6
CONTINUOUS
10
0.020935
20
0.405908
30
0.0
11
0.025519
21
0.413839
31
0.0
0
LINE
8
0
6
CONTINUOUS
10
0.025519
20
0.413839
30
0.0
11
0.031618
21
0.421178
31
0.0
0
LINE
8
0
6
CONTINUOUS
10
0.020721
20
0.403027
30
0.0
11
0.020699
21
0.404091
31
0.0
0
LINE
8
0
6
CONTINUOUS
10
0.020699
20
0.404091
30
0.0
11
0.020935
21
0.405908
31
0.0
0
LINE
8
0
6
CONTINUOUS
10
0.020693
20
0.402737
30
0.0
11
0.020721
21
0.403027
31
0.0
0
LINE
8
0
6
CONTINUOUS
10
0.038188
20
0.425331
30
0.0
11
0.039116
21
0.425429
31
0.0
0
LINE
8
0
6
CONTINUOUS
10
0.020721
20
0.403027
30
0.0
11
0.020693
21
0.402737
31
0.0
0
LINE
8
0
6
CONTINUOUS
10
0.020693
20
0.402737
30
0.0
11
0.026300
21
0.411974
31
0.0
0
LINE
8
0
6
CONTINUOUS
10
0.020699
20
0.404091
30
0.0
11
0.020721
21
0.403027
31
0.0
0
LINE
8
0
6
CONTINUOUS
10
0.031618
20
0.421178
30
0.0
11
0.025519
21
0.413839
31
0.0
0
LINE
8
0
6
CONTINUOUS
10
0.026300
20
0.411974
30
0.0
11
0.031071
21
0.418270
31
0.0
0
LINE
8
0
6
CONTINUOUS
10
0.038188
20
0.425331
30
0.0
11
0.034309
21
0.424309
31
0.0
0
LINE
8
0
6
CONTINUOUS
10
0.034309
20
0.424309
30
0.0
11
0.031618
21
0.421178
31
0.0
0
LINE
8
0
6
CONTINUOUS
10
0.020935
20
0.405908
30
0.0
11
0.020699
21
0.404091
31
0.0
0
LINE
8
0
6
CONTINUOUS
10
0.025519
20
0.413839
30
0.0
11
0.020935
21
0.405908
31
0.0
0
LINE
8
0
6
CONTINUOUS
10
0.039116
20
0.425429
30
0.0
11
0.038188
21
0.425331
31
0.0
0
LINE
8
0
6
CONTINUOUS
10
0.039203
20
0.425448
30
0.0
11
0.039116
21
0.425429
31
0.0
0
LINE
8
0
6
CONTINUOUS
10
0.031071
20
0.418270
30
0.0
11
0.039203
21
0.425448
31
0.0
0
LINE
8
0
6
CONTINUOUS
10
0.063561
20
0.437622
30
0.0
11
0.064149
21
0.438037
31
0.0
0
LINE
8
0
6
CONTINUOUS
10
0.062992
20
0.438430
30
0.0
11
0.063561
21
0.437622
31
0.0
0
LINE
8
0
6
CONTINUOUS
10
0.065949
20
0.446130
30
0.0
11
0.067069
21
0.446919
31
0.0
0
LINE
8
0
6
CONTINUOUS
10
0.065314
20
0.447031
30
0.0
11
0.065949
21
0.446130
31
0.0
0
LINE
8
0
6
CONTINUOUS
10
0.067069
20
0.446919
30
0.0
11
0.068779
21
0.448123
31
0.0
0
LINE
8
0
6
CONTINUOUS
10
0.091205
20
0.463617
30
0.0
11
0.090385
21
0.464782
31
0.0
0
LINE
8
0
6
CONTINUOUS
10
0.090422
20
0.463066
30
0.0
11
0.091205
21
0.463617
31
0.0
0
LINE
8
0
6
CONTINUOUS
10
0.088688
20
0.461845
30
0.0
11
0.090422
21
0.463066
31
0.0
0
LINE
8
0
6
CONTINUOUS
10
0.087737
20
0.461175
30
0.0
11
0.088688
21
0.461845
31
0.0
0
LINE
8
0
6
CONTINUOUS
10
0.087360
20
0.461710
30
0.0
11
0.087737
21
0.461175
31
0.0
0
LINE
8
0
6
CONTINUOUS
10
0.100513
20
0.469691
30
0.0
11
0.100952
21
0.470000
31
0.0
0
LINE
8
0
6
CONTINUOUS
10
0.098839
20
0.468512
30
0.0
11
0.100513
21
0.469691
31
0.0
0
LINE
8
0
6
CONTINUOUS
10
0.097603
20
0.467642
30
0.0
11
0.098839
21
0.468512
31
0.0
0
LINE
8
0
6
CONTINUOUS
10
0.097080
20
0.468384
30
0.0
11
0.097603
21
0.467642
31
0.0
0
LINE
8
0
6
CONTINUOUS
10
0.112610
20
0.478344
30
0.0
11
0.114268
21
0.479511
31
0.0
0
LINE
8
0
6
CONTINUOUS
10
0.108051
20
0.475018
30
0.0
11
0.108126
21
0.475071
31
0.0
0
LINE
8
0
6
CONTINUOUS
10
0.112692
20
0.478185
30
0.0
11
0.112277
21
0.478776
31
0.0
0
LINE
8
0
6
CONTINUOUS
10
0.111356
20
0.477244
30
0.0
11
0.112692
21
0.478185
31
0.0
0
LINE
8
0
6
CONTINUOUS
10
0.109727
20
0.476097
30
0.0
11
0.111356
21
0.477244
31
0.0
0
LINE
8
0
6
CONTINUOUS
10
0.109435
20
0.475892
30
0.0
11
0.109727
21
0.476097
31
0.0
0
LINE
8
0
6
CONTINUOUS
10
0.109333
20
0.476037
30
0.0
11
0.109435
21
0.475892
31
0.0
0
LINE
8
0
6
CONTINUOUS
10
0.079171
20
0.455395
30
0.0
11
0.080291
21
0.456184
31
0.0
0
LINE
8
0
6
CONTINUOUS
10
0.077461
20
0.454191
30
0.0
11
0.079171
21
0.455395
31
0.0
0
LINE
8
0
6
CONTINUOUS
10
0.076873
20
0.453777
30
0.0
11
0.077461
21
0.454191
31
0.0
0
LINE
8
0
6
CONTINUOUS
10
0.076454
20
0.454371
30
0.0
11
0.076873
21
0.453777
31
0.0
0
LINE
8
0
6
CONTINUOUS
10
0.081198
20
0.449509
30
0.0
11
0.080914
21
0.449912
31
0.0
0
LINE
8
0
6
CONTINUOUS
10
0.080415
20
0.448957
30
0.0
11
0.081198
21
0.449509
31
0.0
0
LINE
8
0
6
CONTINUOUS
10
0.078681
20
0.447736
30
0.0
11
0.080415
21
0.448957
31
0.0
0
LINE
8
0
6
CONTINUOUS
10
0.077730
20
0.447067
30
0.0
11
0.078681
21
0.447736
31
0.0
0
LINE
8
0
6
CONTINUOUS
10
0.077140
20
0.447904
30
0.0
11
0.077730
21
0.447067
31
0.0
0
LINE
8
0
6
CONTINUOUS
10
0.083575
20
0.451798
30
0.0
11
0.083126
21
0.452435
31
0.0
0
LINE
8
0
6
CONTINUOUS
10
0.082792
20
0.451246
30
0.0
11
0.083575
21
0.451798
31
0.0
0
LINE
8
0
6
CONTINUOUS
10
0.081058
20
0.450025
30
0.0
11
0.082792
21
0.451246
31
0.0
0
LINE
8
0
6
CONTINUOUS
10
0.085702
20
0.454440
30
0.0
11
0.085078
21
0.455327
31
0.0
0
LINE
8
0
6
CONTINUOUS
10
0.084919
20
0.453889
30
0.0
11
0.085702
21
0.454440
31
0.0
0
LINE
8
0
6
CONTINUOUS
10
0.083186
20
0.452668
30
0.0
11
0.084919
21
0.453889
31
0.0
0
LINE
8
0
6
CONTINUOUS
10
0.082234
20
0.451998
30
0.0
11
0.083186
21
0.452668
31
0.0
0
LINE
8
0
6
CONTINUOUS
10
0.081709
20
0.452743
30
0.0
11
0.082234
21
0.451998
31
0.0
0
LINE
8
0
6
CONTINUOUS
10
0.087676
20
0.457302
30
0.0
11
0.087367
21
0.457740
31
0.0
0
LINE
8
0
6
CONTINUOUS
10
0.086893
20
0.456750
30
0.0
11
0.087676
21
0.457302
31
0.0
0
LINE
8
0
6
CONTINUOUS
10
0.085159
20
0.455529
30
0.0
11
0.086893
21
0.456750
31
0.0
0
LINE
8
0
6
CONTINUOUS
10
0.084208
20
0.454859
30
0.0
11
0.085159
21
0.455529
31
0.0
0
LINE
8
0
6
CONTINUOUS
10
0.089601
20
0.460230
30
0.0
11
0.088635
21
0.461603
31
0.0
0
LINE
8
0
6
CONTINUOUS
10
0.088819
20
0.459679
30
0.0
11
0.089601
21
0.460230
31
0.0
0
LINE
8
0
6
CONTINUOUS
10
0.087085
20
0.458458
30
0.0
11
0.088819
21
0.459679
31
0.0
0
LINE
8
0
6
CONTINUOUS
10
0.086134
20
0.457788
30
0.0
11
0.087085
21
0.458458
31
0.0
0
LINE
8
0
6
CONTINUOUS
10
0.085463
20
0.458741
30
0.0
11
0.086134
21
0.457788
31
0.0
0
LINE
8
0
6
CONTINUOUS
10
0.088735
20
0.454799
30
0.0
11
0.088373
21
0.455313
31
0.0
0
LINE
8
0
6
CONTINUOUS
10
0.088296
20
0.454490
30
0.0
11
0.088735
21
0.454799
31
0.0
0
LINE
8
0
6
CONTINUOUS
10
0.086622
20
0.453311
30
0.0
11
0.088296
21
0.454490
31
0.0
0
LINE
8
0
6
CONTINUOUS
10
0.085386
20
0.452440
30
0.0
11
0.086622
21
0.453311
31
0.0
0
LINE
8
0
6
CONTINUOUS
10
0.084943
20
0.453070
30
0.0
11
0.085386
21
0.452440
31
0.0
0
LINE
8
0
6
CONTINUOUS
10
0.088088
20
0.455113
30
0.0
11
0.089324
21
0.455983
31
0.0
0
LINE
8
0
6
CONTINUOUS
10
0.087661
20
0.455719
30
0.0
11
0.088088
21
0.455113
31
0.0
0
LINE
8
0
6
CONTINUOUS
10
0.093977
20
0.460375
30
0.0
11
0.093435
21
0.461144
31
0.0
0
LINE
8
0
6
CONTINUOUS
10
0.093538
20
0.460066
30
0.0
11
0.093977
21
0.460375
31
0.0
0
LINE
8
0
6
CONTINUOUS
10
0.091864
20
0.458887
30
0.0
11
0.093538
21
0.460066
31
0.0
0
LINE
8
0
6
CONTINUOUS
10
0.090628
20
0.458017
30
0.0
11
0.091864
21
0.458887
31
0.0
0
LINE
8
0
6
CONTINUOUS
10
0.090128
20
0.458727
30
0.0
11
0.090628
21
0.458017
31
0.0
0
LINE
8
0
6
CONTINUOUS
10
0.096500
20
0.463302
30
0.0
11
0.096013
21
0.463994
31
0.0
0
LINE
8
0
6
CONTINUOUS
10
0.096061
20
0.462993
30
0.0
11
0.096500
21
0.463302
31
0.0
0
LINE
8
0
6
CONTINUOUS
10
0.094387
20
0.461814
30
0.0
11
0.096061
21
0.462993
31
0.0
0
LINE
8
0
6
CONTINUOUS
10
0.093151
20
0.460944
30
0.0
11
0.094387
21
0.461814
31
0.0
0
LINE
8
0
6
CONTINUOUS
10
0.092603
20
0.461722
30
0.0
11
0.093151
21
0.460944
31
0.0
0
LINE
8
0
6
CONTINUOUS
10
0.098660
20
0.466745
30
0.0
11
0.097888
21
0.467842
31
0.0
0
LINE
8
0
6
CONTINUOUS
10
0.098221
20
0.466436
30
0.0
11
0.098660
21
0.466745
31
0.0
0
LINE
8
0
6
CONTINUOUS
10
0.096546
20
0.465257
30
0.0
11
0.098221
21
0.466436
31
0.0
0
LINE
8
0
6
CONTINUOUS
10
0.095311
20
0.464387
30
0.0
11
0.096546
21
0.465257
31
0.0
0
LINE
8
0
6
CONTINUOUS
10
0.094771
20
0.465153
30
0.0
11
0.095311
21
0.464387
31
0.0
0
LINE
8
0
6
CONTINUOUS
10
0.093315
20
0.458743
30
0.0
11
0.094855
21
0.459828
31
0.0
0
LINE
8
0
6
CONTINUOUS
10
0.091850
20
0.457712
30
0.0
11
0.093315
21
0.458743
31
0.0
0
LINE
8
0
6
CONTINUOUS
10
0.091414
20
0.458331
30
0.0
11
0.091850
21
0.457712
31
0.0
0
LINE
8
0
6
CONTINUOUS
10
0.095420
20
0.461124
30
0.0
11
0.096885
21
0.462156
31
0.0
0
LINE
8
0
6
CONTINUOUS
10
0.094991
20
0.461733
30
0.0
11
0.095420
21
0.461124
31
0.0
0
LINE
8
0
6
CONTINUOUS
10
0.101891
20
0.466960
30
0.0
11
0.101292
21
0.467811
31
0.0
0
LINE
8
0
6
CONTINUOUS
10
0.101816
20
0.466908
30
0.0
11
0.101891
21
0.466960
31
0.0
0
LINE
8
0
6
CONTINUOUS
10
0.100276
20
0.465823
30
0.0
11
0.101816
21
0.466908
31
0.0
0
LINE
8
0
6
CONTINUOUS
10
0.098811
20
0.464791
30
0.0
11
0.100276
21
0.465823
31
0.0
0
LINE
8
0
6
CONTINUOUS
10
0.098430
20
0.465332
30
0.0
11
0.098811
21
0.464791
31
0.0
0
LINE
8
0
6
CONTINUOUS
10
0.104914
20
0.470991
30
0.0
11
0.104989
21
0.471044
31
0.0
0
LINE
8
0
6
CONTINUOUS
10
0.103374
20
0.469906
30
0.0
11
0.104914
21
0.470991
31
0.0
0
LINE
8
0
6
CONTINUOUS
10
0.101909
20
0.468875
30
0.0
11
0.103374
21
0.469906
31
0.0
0
LINE
8
0
6
CONTINUOUS
10
0.101502
20
0.469453
30
0.0
11
0.101909
21
0.468875
31
0.0
0
LINE
8
0
6
CONTINUOUS
10
0.105040
20
0.469403
30
0.0
11
0.104380
21
0.470341
31
0.0
0
LINE
8
0
6
CONTINUOUS
10
0.103704
20
0.468462
30
0.0
11
0.105040
21
0.469403
31
0.0
0
LINE
8
0
6
CONTINUOUS
10
0.102075
20
0.467315
30
0.0
11
0.103704
21
0.468462
31
0.0
0
LINE
8
0
6
CONTINUOUS
10
0.101783
20
0.467109
30
0.0
11
0.102075
21
0.467315
31
0.0
0
LINE
8
0
6
CONTINUOUS
10
0.073374
20
0.444447
30
0.0
11
0.072847
21
0.445196
31
0.0
0
LINE
8
0
6
CONTINUOUS
10
0.072253
20
0.443658
30
0.0
11
0.073374
21
0.444447
31
0.0
0
LINE
8
0
6
CONTINUOUS
10
0.070544
20
0.442454
30
0.0
11
0.072253
21
0.443658
31
0.0
0
LINE
8
0
6
CONTINUOUS
10
0.069956
20
0.442040
30
0.0
11
0.070544
21
0.442454
31
0.0
0
LINE
8
0
6
CONTINUOUS
10
0.069239
20
0.443057
30
0.0
11
0.069956
21
0.442040
31
0.0
0
LINE
8
0
6
CONTINUOUS
10
0.075351
20
0.447030
30
0.0
11
0.074697
21
0.447958
31
0.0
0
LINE
8
0
6
CONTINUOUS
10
0.074230
20
0.446241
30
0.0
11
0.075351
21
0.447030
31
0.0
0
LINE
8
0
6
CONTINUOUS
10
0.072521
20
0.445037
30
0.0
11
0.074230
21
0.446241
31
0.0
0
LINE
8
0
6
CONTINUOUS
10
0.071932
20
0.444622
30
0.0
11
0.072521
21
0.445037
31
0.0
0
LINE
8
0
6
CONTINUOUS
10
0.071258
20
0.445580
30
0.0
11
0.071932
21
0.444622
31
0.0
0
LINE
8
0
6
CONTINUOUS
10
0.077235
20
0.449745
30
0.0
11
0.076923
21
0.450188
31
0.0
0
LINE
8
0
6
CONTINUOUS
10
0.076114
20
0.448956
30
0.0
11
0.077235
21
0.449745
31
0.0
0
LINE
8
0
6
CONTINUOUS
10
0.074405
20
0.447752
30
0.0
11
0.076114
21
0.448956
31
0.0
0
LINE
8
0
6
CONTINUOUS
10
0.073816
20
0.447337
30
0.0
11
0.074405
21
0.447752
31
0.0
0
LINE
8
0
6
CONTINUOUS
10
0.079020
20
0.452600
30
0.0
11
0.077855
21
0.454254
31
0.0
0
LINE
8
0
6
CONTINUOUS
10
0.077899
20
0.451811
30
0.0
11
0.079020
21
0.452600
31
0.0
0
LINE
8
0
6
CONTINUOUS
10
0.076190
20
0.450607
30
0.0
11
0.077899
21
0.451811
31
0.0
0
LINE
8
0
6
CONTINUOUS
10
0.075601
20
0.450192
30
0.0
11
0.076190
21
0.450607
31
0.0
0
LINE
8
0
6
CONTINUOUS
10
0.074923
20
0.451155
30
0.0
11
0.075601
21
0.450192
31
0.0
0
LINE
8
0
6
CONTINUOUS
10
0.044161
20
0.429330
30
0.0
11
0.045282
21
0.430119
31
0.0
0
LINE
8
0
6
CONTINUOUS
10
0.042452
20
0.428126
30
0.0
11
0.044161
21
0.429330
31
0.0
0
LINE
8
0
6
CONTINUOUS
10
0.041863
20
0.427712
30
0.0
11
0.042452
21
0.428126
31
0.0
0
LINE
8
0
6
CONTINUOUS
10
0.041246
20
0.428588
30
0.0
11
0.041863
21
0.427712
31
0.0
0
LINE
8
0
6
CONTINUOUS
10
0.052669
20
0.433185
30
0.0
11
0.052329
21
0.433667
31
0.0
0
LINE
8
0
6
CONTINUOUS
10
0.051548
20
0.432395
30
0.0
11
0.052669
21
0.433185
31
0.0
0
LINE
8
0
6
CONTINUOUS
10
0.049839
20
0.431192
30
0.0
11
0.051548
21
0.432395
31
0.0
0
LINE
8
0
6
CONTINUOUS
10
0.049250
20
0.430777
30
0.0
11
0.049839
21
0.431192
31
0.0
0
LINE
8
0
6
CONTINUOUS
10
0.048355
20
0.432049
30
0.0
11
0.049250
21
0.430777
31
0.0
0
LINE
8
0
6
CONTINUOUS
10
0.059659
20
0.436813
30
0.0
11
0.059244
21
0.437402
31
0.0
0
LINE
8
0
6
CONTINUOUS
10
0.058539
20
0.436023
30
0.0
11
0.059659
21
0.436813
31
0.0
0
LINE
8
0
6
CONTINUOUS
10
0.056829
20
0.434820
30
0.0
11
0.058539
21
0.436023
31
0.0
0
LINE
8
0
6
CONTINUOUS
10
0.066553
20
0.440579
30
0.0
11
0.065791
21
0.441660
31
0.0
0
LINE
8
0
6
CONTINUOUS
10
0.065432
20
0.439790
30
0.0
11
0.066553
21
0.440579
31
0.0
0
LINE
8
0
6
CONTINUOUS
10
0.063723
20
0.438586
30
0.0
11
0.065432
21
0.439790
31
0.0
0
LINE
8
0
6
CONTINUOUS
10
0.063134
20
0.438171
30
0.0
11
0.063723
21
0.438586
31
0.0
0
LINE
8
0
6
CONTINUOUS
10
0.062327
20
0.439317
30
0.0
11
0.063134
21
0.438171
31
0.0
0
LINE
8
0
6
CONTINUOUS
10
0.065898
20
0.443454
30
0.0
11
0.067607
21
0.444658
31
0.0
0
LINE
8
0
6
CONTINUOUS
10
0.068195
20
0.445073
30
0.0
11
0.067551
21
0.445987
31
0.0
0
LINE
8
0
6
CONTINUOUS
10
0.067607
20
0.444658
30
0.0
11
0.068195
21
0.445073
31
0.0
0
LINE
8
0
6
CONTINUOUS
10
0.063466
20
0.440131
30
0.0
11
0.064586
21
0.440920
31
0.0
0
LINE
8
0
6
CONTINUOUS
10
0.064586
20
0.440920
30
0.0
11
0.066296
21
0.442124
31
0.0
0
LINE
8
0
6
CONTINUOUS
10
0.066296
20
0.442124
30
0.0
11
0.066884
21
0.442538
31
0.0
0
LINE
8
0
6
CONTINUOUS
10
0.056748
20
0.436909
30
0.0
11
0.058457
21
0.438113
31
0.0
0
LINE
8
0
6
CONTINUOUS
10
0.059045
20
0.438527
30
0.0
11
0.058464
21
0.439353
31
0.0
0
LINE
8
0
6
CONTINUOUS
10
0.058457
20
0.438113
30
0.0
11
0.059045
21
0.438527
31
0.0
0
LINE
8
0
6
CONTINUOUS
10
0.048127
20
0.432605
30
0.0
11
0.049248
21
0.433394
31
0.0
0
LINE
8
0
6
CONTINUOUS
10
0.047293
20
0.433789
30
0.0
11
0.048127
21
0.432605
31
0.0
0
LINE
8
0
6
CONTINUOUS
10
0.049248
20
0.433394
30
0.0
11
0.050957
21
0.434598
31
0.0
0
LINE
8
0
6
CONTINUOUS
10
0.051545
20
0.435012
30
0.0
11
0.051115
21
0.435623
31
0.0
0
LINE
8
0
6
CONTINUOUS
10
0.050957
20
0.434598
30
0.0
11
0.051545
21
0.435012
31
0.0
0
LINE
8
0
6
CONTINUOUS
10
0.056005
20
0.439002
30
0.0
11
0.057126
21
0.439791
31
0.0
0
LINE
8
0
6
CONTINUOUS
10
0.055400
20
0.439861
30
0.0
11
0.056005
21
0.439002
31
0.0
0
LINE
8
0
6
CONTINUOUS
10
0.057126
20
0.439791
30
0.0
11
0.058835
21
0.440995
31
0.0
0
LINE
8
0
6
CONTINUOUS
10
0.059424
20
0.441409
30
0.0
11
0.059139
21
0.441813
31
0.0
0
LINE
8
0
6
CONTINUOUS
10
0.058835
20
0.440995
30
0.0
11
0.059424
21
0.441409
31
0.0
0
LINE
8
0
6
CONTINUOUS
10
0.073034
20
0.443506
30
0.0
11
0.072739
21
0.443924
31
0.0
0
LINE
8
0
6
CONTINUOUS
10
0.071913
20
0.442717
30
0.0
11
0.073034
21
0.443506
31
0.0
0
LINE
8
0
6
CONTINUOUS
10
0.070204
20
0.441513
30
0.0
11
0.071913
21
0.442717
31
0.0
0
LINE
8
0
6
CONTINUOUS
10
0.048526
20
0.430012
30
0.0
11
0.048267
21
0.430380
31
0.0
0
LINE
8
0
6
CONTINUOUS
10
0.047405
20
0.429223
30
0.0
11
0.048526
21
0.430012
31
0.0
0
LINE
8
0
6
CONTINUOUS
10
0.045696
20
0.428019
30
0.0
11
0.047405
21
0.429223
31
0.0
0
LINE
8
0
6
CONTINUOUS
10
0.045107
20
0.427605
30
0.0
11
0.045696
21
0.428019
31
0.0
0
LINE
8
0
6
CONTINUOUS
10
0.044378
20
0.428640
30
0.0
11
0.045107
21
0.427605
31
0.0
0
LINE
8
0
6
CONTINUOUS
10
0.054853
20
0.433101
30
0.0
11
0.054328
21
0.433847
31
0.0
0
LINE
8
0
6
CONTINUOUS
10
0.053732
20
0.432312
30
0.0
11
0.054853
21
0.433101
31
0.0
0
LINE
8
0
6
CONTINUOUS
10
0.052023
20
0.431108
30
0.0
11
0.053732
21
0.432312
31
0.0
0
LINE
8
0
6
CONTINUOUS
10
0.051435
20
0.430693
30
0.0
11
0.052023
21
0.431108
31
0.0
0
LINE
8
0
6
CONTINUOUS
10
0.050590
20
0.431893
30
0.0
11
0.051435
21
0.430693
31
0.0
0
LINE
8
0
6
CONTINUOUS
10
0.060937
20
0.436535
30
0.0
11
0.060577
21
0.437046
31
0.0
0
LINE
8
0
6
CONTINUOUS
10
0.059816
20
0.435746
30
0.0
11
0.060937
21
0.436535
31
0.0
0
LINE
8
0
6
CONTINUOUS
10
0.058107
20
0.434542
30
0.0
11
0.059816
21
0.435746
31
0.0
0
LINE
8
0
6
CONTINUOUS
10
0.057519
20
0.434128
30
0.0
11
0.058107
21
0.434542
31
0.0
0
LINE
8
0
6
CONTINUOUS
10
0.056739
20
0.435235
30
0.0
11
0.057519
21
0.434128
31
0.0
0
LINE
8
0
6
CONTINUOUS
10
0.066979
20
0.440029
30
0.0
11
0.066492
21
0.440721
31
0.0
0
LINE
8
0
6
CONTINUOUS
10
0.065859
20
0.439240
30
0.0
11
0.066979
21
0.440029
31
0.0
0
LINE
8
0
6
CONTINUOUS
10
0.064149
20
0.438037
30
0.0
11
0.065859
21
0.439240
31
0.0
0
LINE
8
0
6
CONTINUOUS
10
0.066404
20
0.439596
30
0.0
11
0.066993
21
0.440010
31
0.0
0
LINE
8
0
6
CONTINUOUS
10
0.064695
20
0.438392
30
0.0
11
0.066404
21
0.439596
31
0.0
0
LINE
8
0
6
CONTINUOUS
10
0.060354
20
0.436113
30
0.0
11
0.060943
21
0.436527
31
0.0
0
LINE
8
0
6
CONTINUOUS
10
0.058645
20
0.434909
30
0.0
11
0.060354
21
0.436113
31
0.0
0
LINE
8
0
6
CONTINUOUS
10
0.048017
20
0.429484
30
0.0
11
0.048606
21
0.429898
31
0.0
0
LINE
8
0
6
CONTINUOUS
10
0.045187
20
0.427491
30
0.0
11
0.046308
21
0.428280
31
0.0
0
LINE
8
0
6
CONTINUOUS
10
0.046308
20
0.428280
30
0.0
11
0.048017
21
0.429484
31
0.0
0
LINE
8
0
6
CONTINUOUS
10
0.072458
20
0.443073
30
0.0
11
0.073046
21
0.443488
31
0.0
0
LINE
8
0
6
CONTINUOUS
10
0.069628
20
0.441080
30
0.0
11
0.070749
21
0.441870
31
0.0
0
LINE
8
0
6
CONTINUOUS
10
0.072821
20
0.443982
30
0.0
11
0.073410
21
0.444397
31
0.0
0
LINE
8
0
6
CONTINUOUS
10
0.072739
20
0.443924
30
0.0
11
0.072821
21
0.443982
31
0.0
0
LINE
8
0
6
CONTINUOUS
10
0.100449
20
0.465897
30
0.0
11
0.101914
21
0.466928
31
0.0
0
LINE
8
0
6
CONTINUOUS
10
0.098909
20
0.464812
30
0.0
11
0.100449
21
0.465897
31
0.0
0
LINE
8
0
6
CONTINUOUS
10
0.097049
20
0.462242
30
0.0
11
0.098514
21
0.463274
31
0.0
0
LINE
8
0
6
CONTINUOUS
10
0.095434
20
0.461105
30
0.0
11
0.095509
21
0.461158
31
0.0
0
LINE
8
0
6
CONTINUOUS
10
0.095509
20
0.461158
30
0.0
11
0.097049
21
0.462242
31
0.0
0
LINE
8
0
6
CONTINUOUS
10
0.091925
20
0.457765
30
0.0
11
0.093465
21
0.458849
31
0.0
0
LINE
8
0
6
CONTINUOUS
10
0.090223
20
0.456571
30
0.0
11
0.091458
21
0.457442
31
0.0
0
LINE
8
0
6
CONTINUOUS
10
0.088548
20
0.455392
30
0.0
11
0.090223
21
0.456571
31
0.0
0
LINE
8
0
6
CONTINUOUS
10
0.087512
20
0.453911
30
0.0
11
0.088747
21
0.454781
31
0.0
0
LINE
8
0
6
CONTINUOUS
10
0.085398
20
0.452423
30
0.0
11
0.085837
21
0.452732
31
0.0
0
LINE
8
0
6
CONTINUOUS
10
0.085837
20
0.452732
30
0.0
11
0.087512
21
0.453911
31
0.0
0
LINE
8
0
6
CONTINUOUS
10
0.083614
20
0.451742
30
0.0
11
0.083580
21
0.451790
31
0.0
0
LINE
8
0
6
CONTINUOUS
10
0.082663
20
0.451072
30
0.0
11
0.083614
21
0.451742
31
0.0
0
LINE
8
0
6
CONTINUOUS
10
0.080929
20
0.449851
30
0.0
11
0.082663
21
0.451072
31
0.0
0
LINE
8
0
6
CONTINUOUS
10
0.080268
20
0.448809
30
0.0
11
0.081219
21
0.449478
31
0.0
0
LINE
8
0
6
CONTINUOUS
10
0.078534
20
0.447588
30
0.0
11
0.080268
21
0.448809
31
0.0
0
LINE
8
0
6
CONTINUOUS
10
0.112716
20
0.478152
30
0.0
11
0.112692
21
0.478185
31
0.0
0
LINE
8
0
6
CONTINUOUS
10
0.112424
20
0.477946
30
0.0
11
0.112716
21
0.478152
31
0.0
0
LINE
8
0
6
CONTINUOUS
10
0.110795
20
0.476799
30
0.0
11
0.112424
21
0.477946
31
0.0
0
LINE
8
0
6
CONTINUOUS
10
0.063574
20
0.437603
30
0.0
11
0.064695
21
0.438392
31
0.0
0
LINE
8
0
6
CONTINUOUS
10
0.069367
20
0.448538
30
0.0
11
0.068929
21
0.449159
31
0.0
0
LINE
8
0
6
CONTINUOUS
10
0.068779
20
0.448123
30
0.0
11
0.069367
21
0.448538
31
0.0
0
LINE
8
0
6
CONTINUOUS
10
0.114647
20
0.479778
30
0.0
11
0.113933
21
0.480792
31
0.0
0
LINE
8
0
6
CONTINUOUS
10
0.114268
20
0.479511
30
0.0
11
0.114647
21
0.479778
31
0.0
0
LINE
8
0
6
CONTINUOUS
10
0.106511
20
0.473934
30
0.0
11
0.108020
21
0.474996
31
0.0
0
LINE
8
0
6
CONTINUOUS
10
0.105046
20
0.472902
30
0.0
11
0.106511
21
0.473934
31
0.0
0
LINE
8
0
6
CONTINUOUS
10
0.104720
20
0.473365
30
0.0
11
0.105046
21
0.472902
31
0.0
0
LINE
8
0
6
CONTINUOUS
10
0.080107
20
0.449355
30
0.0
11
0.081058
21
0.450025
31
0.0
0
LINE
8
0
6
CONTINUOUS
10
0.079435
20
0.450310
30
0.0
11
0.080107
21
0.449355
31
0.0
0
LINE
8
0
6
CONTINUOUS
10
0.091437
20
0.457472
30
0.0
11
0.091053
21
0.458018
31
0.0
0
LINE
8
0
6
CONTINUOUS
10
0.090999
20
0.457163
30
0.0
11
0.091437
21
0.457472
31
0.0
0
LINE
8
0
6
CONTINUOUS
10
0.089324
20
0.455983
30
0.0
11
0.090999
21
0.457163
31
0.0
0
LINE
8
0
6
CONTINUOUS
10
0.098501
20
0.463293
30
0.0
11
0.098050
21
0.463934
31
0.0
0
LINE
8
0
6
CONTINUOUS
10
0.098426
20
0.463241
30
0.0
11
0.098501
21
0.463293
31
0.0
0
LINE
8
0
6
CONTINUOUS
10
0.096885
20
0.462156
30
0.0
11
0.098426
21
0.463241
31
0.0
0
LINE
8
0
6
CONTINUOUS
10
0.108945
20
0.473682
30
0.0
11
0.108415
21
0.474436
31
0.0
0
LINE
8
0
6
CONTINUOUS
10
0.107608
20
0.472741
30
0.0
11
0.108945
21
0.473682
31
0.0
0
LINE
8
0
6
CONTINUOUS
10
0.105980
20
0.471594
30
0.0
11
0.107608
21
0.472741
31
0.0
0
LINE
8
0
6
CONTINUOUS
10
0.105688
20
0.471389
30
0.0
11
0.105980
21
0.471594
31
0.0
0
LINE
8
0
6
CONTINUOUS
10
0.105422
20
0.471766
30
0.0
11
0.105688
21
0.471389
31
0.0
0
LINE
8
0
6
CONTINUOUS
10
0.056241
20
0.434405
30
0.0
11
0.056829
21
0.434820
31
0.0
0
LINE
8
0
6
CONTINUOUS
10
0.064777
20
0.442665
30
0.0
11
0.065898
21
0.443454
31
0.0
0
LINE
8
0
6
CONTINUOUS
10
0.063934
20
0.443863
30
0.0
11
0.064777
21
0.442665
31
0.0
0
LINE
8
0
6
CONTINUOUS
10
0.055627
20
0.436120
30
0.0
11
0.056748
21
0.436909
31
0.0
0
LINE
8
0
6
CONTINUOUS
10
0.054687
20
0.437454
30
0.0
11
0.055627
21
0.436120
31
0.0
0
LINE
8
0
6
CONTINUOUS
10
0.069615
20
0.441098
30
0.0
11
0.070204
21
0.441513
31
0.0
0
LINE
8
0
6
CONTINUOUS
10
0.068895
20
0.442122
30
0.0
11
0.069615
21
0.441098
31
0.0
0
LINE
8
0
6
CONTINUOUS
10
0.070749
20
0.441870
30
0.0
11
0.072458
21
0.443073
31
0.0
0
LINE
8
0
6
CONTINUOUS
10
0.108666
20
0.473458
30
0.0
11
0.108958
21
0.473664
31
0.0
0
LINE
8
0
6
CONTINUOUS
10
0.107038
20
0.472311
30
0.0
11
0.108666
21
0.473458
31
0.0
0
LINE
8
0
6
CONTINUOUS
10
0.105701
20
0.471370
30
0.0
11
0.107038
21
0.472311
31
0.0
0
LINE
8
0
6
CONTINUOUS
10
0.094931
20
0.459881
30
0.0
11
0.094286
21
0.460796
31
0.0
0
LINE
8
0
6
CONTINUOUS
10
0.093465
20
0.458849
30
0.0
11
0.094931
21
0.459881
31
0.0
0
LINE
8
0
6
CONTINUOUS
10
0.077751
20
0.447036
30
0.0
11
0.078534
21
0.447588
31
0.0
0
LINE
8
0
6
CONTINUOUS
10
0.105431
20
0.470805
30
0.0
11
0.105555
21
0.471578
31
0.0
0
LINE
8
0
6
CONTINUOUS
10
0.105178
20
0.470622
30
0.0
11
0.105431
21
0.470805
31
0.0
0
LINE
8
0
6
CONTINUOUS
10
0.104441
20
0.470089
30
0.0
11
0.105178
21
0.470622
31
0.0
0
LINE
8
0
6
CONTINUOUS
10
0.103254
20
0.469230
30
0.0
11
0.104441
21
0.470089
31
0.0
0
LINE
8
0
6
CONTINUOUS
10
0.101648
20
0.468069
30
0.0
11
0.103254
21
0.469230
31
0.0
0
LINE
8
0
6
CONTINUOUS
10
0.099658
20
0.466630
30
0.0
11
0.101648
21
0.468069
31
0.0
0
LINE
8
0
6
CONTINUOUS
10
0.099714
20
0.467936
30
0.0
11
0.098460
21
0.467029
31
0.0
0
LINE
8
0
6
CONTINUOUS
10
0.097316
20
0.464936
30
0.0
11
0.099658
21
0.466630
31
0.0
0
LINE
8
0
6
CONTINUOUS
10
0.095141
20
0.464628
30
0.0
11
0.094563
21
0.464210
31
0.0
0
LINE
8
0
6
CONTINUOUS
10
0.094656
20
0.463012
30
0.0
11
0.097316
21
0.464936
31
0.0
0
LINE
8
0
6
CONTINUOUS
10
0.094563
20
0.464210
30
0.0
11
0.091528
21
0.462016
31
0.0
0
LINE
8
0
6
CONTINUOUS
10
0.091709
20
0.460881
30
0.0
11
0.094656
21
0.463012
31
0.0
0
LINE
8
0
6
CONTINUOUS
10
0.091528
20
0.462016
30
0.0
11
0.089419
21
0.460490
31
0.0
0
LINE
8
0
6
CONTINUOUS
10
0.088511
20
0.458568
30
0.0
11
0.091709
21
0.460881
31
0.0
0
LINE
8
0
6
CONTINUOUS
10
0.085982
20
0.458004
30
0.0
11
0.084712
21
0.457086
31
0.0
0
LINE
8
0
6
CONTINUOUS
10
0.085093
20
0.456096
30
0.0
11
0.088511
21
0.458568
31
0.0
0
LINE
8
0
6
CONTINUOUS
10
0.084712
20
0.457086
30
0.0
11
0.080998
21
0.454401
31
0.0
0
LINE
8
0
6
CONTINUOUS
10
0.081488
20
0.453489
30
0.0
11
0.085093
21
0.456096
31
0.0
0
LINE
8
0
6
CONTINUOUS
10
0.080998
20
0.454401
30
0.0
11
0.078848
21
0.452845
31
0.0
0
LINE
8
0
6
CONTINUOUS
10
0.077730
20
0.450771
30
0.0
11
0.081488
21
0.453489
31
0.0
0
LINE
8
0
6
CONTINUOUS
10
0.075459
20
0.450394
30
0.0
11
0.073260
21
0.448804
31
0.0
0
LINE
8
0
6
CONTINUOUS
10
0.073972
20
0.448054
30
0.0
11
0.077730
21
0.450771
31
0.0
0
LINE
8
0
6
CONTINUOUS
10
0.073260
20
0.448804
30
0.0
11
0.069547
21
0.446119
31
0.0
0
LINE
8
0
6
CONTINUOUS
10
0.070368
20
0.445447
30
0.0
11
0.073972
21
0.448054
31
0.0
0
LINE
8
0
6
CONTINUOUS
10
0.069547
20
0.446119
30
0.0
11
0.068163
21
0.445118
31
0.0
0
LINE
8
0
6
CONTINUOUS
10
0.066950
20
0.442975
30
0.0
11
0.070368
21
0.445447
31
0.0
0
LINE
8
0
6
CONTINUOUS
10
0.064775
20
0.442668
30
0.0
11
0.062730
21
0.441189
31
0.0
0
LINE
8
0
6
CONTINUOUS
10
0.063751
20
0.440661
30
0.0
11
0.066950
21
0.442975
31
0.0
0
LINE
8
0
6
CONTINUOUS
10
0.062730
20
0.441189
30
0.0
11
0.059696
21
0.438994
31
0.0
0
LINE
8
0
6
CONTINUOUS
10
0.060805
20
0.438531
30
0.0
11
0.063751
21
0.440661
31
0.0
0
LINE
8
0
6
CONTINUOUS
10
0.059696
20
0.438994
30
0.0
11
0.059047
21
0.438525
31
0.0
0
LINE
8
0
6
CONTINUOUS
10
0.058654
20
0.438241
30
0.0
11
0.056956
21
0.437013
31
0.0
0
LINE
8
0
6
CONTINUOUS
10
0.058144
20
0.436607
30
0.0
11
0.060805
21
0.438531
31
0.0
0
LINE
8
0
6
CONTINUOUS
10
0.056956
20
0.437013
30
0.0
11
0.054544
21
0.435269
31
0.0
0
LINE
8
0
6
CONTINUOUS
10
0.055802
20
0.434913
30
0.0
11
0.058144
21
0.436607
31
0.0
0
LINE
8
0
6
CONTINUOUS
10
0.054544
20
0.435269
30
0.0
11
0.052494
21
0.433786
31
0.0
0
LINE
8
0
6
CONTINUOUS
10
0.053812
20
0.433474
30
0.0
11
0.055802
21
0.434913
31
0.0
0
LINE
8
0
6
CONTINUOUS
10
0.052494
20
0.433786
30
0.0
11
0.052329
21
0.433667
31
0.0
0
LINE
8
0
6
CONTINUOUS
10
0.052207
20
0.432313
30
0.0
11
0.053812
21
0.433474
31
0.0
0
LINE
8
0
6
CONTINUOUS
10
0.051019
20
0.431454
30
0.0
11
0.052207
21
0.432313
31
0.0
0
LINE
8
0
6
CONTINUOUS
10
0.050282
20
0.430921
30
0.0
11
0.051019
21
0.431454
31
0.0
0
LINE
8
0
6
CONTINUOUS
10
0.049190
20
0.430873
30
0.0
11
0.050029
21
0.430738
31
0.0
0
LINE
8
0
6
CONTINUOUS
10
0.050029
20
0.430738
30
0.0
11
0.050282
21
0.430921
31
0.0
0
LINE
8
0
6
CONTINUOUS
10
0.095248
20
0.460972
30
0.0
11
0.095401
21
0.461080
31
0.0
0
LINE
8
0
6
CONTINUOUS
10
0.094805
20
0.460660
30
0.0
11
0.095248
21
0.460972
31
0.0
0
LINE
8
0
6
CONTINUOUS
10
0.094993
20
0.461543
30
0.0
11
0.094253
21
0.461023
31
0.0
0
LINE
8
0
6
CONTINUOUS
10
0.094090
20
0.460156
30
0.0
11
0.094805
21
0.460660
31
0.0
0
LINE
8
0
6
CONTINUOUS
10
0.093123
20
0.459476
30
0.0
11
0.094090
21
0.460156
31
0.0
0
LINE
8
0
6
CONTINUOUS
10
0.091925
20
0.458632
30
0.0
11
0.093123
21
0.459476
31
0.0
0
LINE
8
0
6
CONTINUOUS
10
0.090515
20
0.457639
30
0.0
11
0.091925
21
0.458632
31
0.0
0
LINE
8
0
6
CONTINUOUS
10
0.090415
20
0.458319
30
0.0
11
0.088903
21
0.457255
31
0.0
0
LINE
8
0
6
CONTINUOUS
10
0.088913
20
0.456511
30
0.0
11
0.090515
21
0.457639
31
0.0
0
LINE
8
0
6
CONTINUOUS
10
0.088903
20
0.457255
30
0.0
11
0.087070
21
0.455964
31
0.0
0
LINE
8
0
6
CONTINUOUS
10
0.087140
20
0.455262
30
0.0
11
0.088913
21
0.456511
31
0.0
0
LINE
8
0
6
CONTINUOUS
10
0.087070
20
0.455964
30
0.0
11
0.085438
21
0.454815
31
0.0
0
LINE
8
0
6
CONTINUOUS
10
0.085214
20
0.453906
30
0.0
11
0.087140
21
0.455262
31
0.0
0
LINE
8
0
6
CONTINUOUS
10
0.083157
20
0.452457
30
0.0
11
0.085214
21
0.453906
31
0.0
0
LINE
8
0
6
CONTINUOUS
10
0.081970
20
0.452373
30
0.0
11
0.080708
21
0.451484
31
0.0
0
LINE
8
0
6
CONTINUOUS
10
0.080987
20
0.450929
30
0.0
11
0.083126
21
0.452435
31
0.0
0
LINE
8
0
6
CONTINUOUS
10
0.080708
20
0.451484
30
0.0
11
0.078371
21
0.449838
31
0.0
0
LINE
8
0
6
CONTINUOUS
10
0.078724
20
0.449335
30
0.0
11
0.080987
21
0.450929
31
0.0
0
LINE
8
0
6
CONTINUOUS
10
0.078371
20
0.449838
30
0.0
11
0.076033
21
0.448191
31
0.0
0
LINE
8
0
6
CONTINUOUS
10
0.076462
20
0.447742
30
0.0
11
0.078724
21
0.449335
31
0.0
0
LINE
8
0
6
CONTINUOUS
10
0.076033
20
0.448191
30
0.0
11
0.075030
21
0.447485
31
0.0
0
LINE
8
0
6
CONTINUOUS
10
0.074292
20
0.446214
30
0.0
11
0.076462
21
0.447742
31
0.0
0
LINE
8
0
6
CONTINUOUS
10
0.072234
20
0.444765
30
0.0
11
0.074292
21
0.446214
31
0.0
0
LINE
8
0
6
CONTINUOUS
10
0.071612
20
0.445078
30
0.0
11
0.069671
21
0.443711
31
0.0
0
LINE
8
0
6
CONTINUOUS
10
0.070309
20
0.443409
30
0.0
11
0.072234
21
0.444765
31
0.0
0
LINE
8
0
6
CONTINUOUS
10
0.069671
20
0.443711
30
0.0
11
0.067838
21
0.442420
31
0.0
0
LINE
8
0
6
CONTINUOUS
10
0.068535
20
0.442160
30
0.0
11
0.070309
21
0.443409
31
0.0
0
LINE
8
0
6
CONTINUOUS
10
0.067838
20
0.442420
30
0.0
11
0.066183
21
0.441254
31
0.0
0
LINE
8
0
6
CONTINUOUS
10
0.066933
20
0.441032
30
0.0
11
0.068535
21
0.442160
31
0.0
0
LINE
8
0
6
CONTINUOUS
10
0.066183
20
0.441254
30
0.0
11
0.066138
21
0.441223
31
0.0
0
LINE
8
0
6
CONTINUOUS
10
0.066466
20
0.440703
30
0.0
11
0.066933
21
0.441032
31
0.0
0
LINE
8
0
6
CONTINUOUS
10
0.062644
20
0.438011
30
0.0
11
0.063359
21
0.438515
31
0.0
0
LINE
8
0
6
CONTINUOUS
10
0.062200
20
0.437699
30
0.0
11
0.062644
21
0.438011
31
0.0
0
LINE
8
0
6
CONTINUOUS
10
0.061552
20
0.437649
30
0.0
11
0.062048
21
0.437592
31
0.0
0
LINE
8
0
6
CONTINUOUS
10
0.062048
20
0.437592
30
0.0
11
0.062200
21
0.437699
31
0.0
0
LINE
8
0
6
CONTINUOUS
10
0.067069
20
0.446919
30
0.0
11
0.065949
21
0.446130
31
0.0
0
LINE
8
0
6
CONTINUOUS
10
0.068779
20
0.448123
30
0.0
11
0.067069
21
0.446919
31
0.0
0
LINE
8
0
6
CONTINUOUS
10
0.069367
20
0.448538
30
0.0
11
0.068779
21
0.448123
31
0.0
0
LINE
8
0
6
CONTINUOUS
10
0.109727
20
0.476097
30
0.0
11
0.109435
21
0.475892
31
0.0
0
LINE
8
0
6
CONTINUOUS
10
0.111356
20
0.477244
30
0.0
11
0.109727
21
0.476097
31
0.0
0
LINE
8
0
6
CONTINUOUS
10
0.112692
20
0.478185
30
0.0
11
0.111356
21
0.477244
31
0.0
0
LINE
8
0
6
CONTINUOUS
10
0.088819
20
0.459679
30
0.0
11
0.087085
21
0.458458
31
0.0
0
LINE
8
0
6
CONTINUOUS
10
0.089601
20
0.460230
30
0.0
11
0.088819
21
0.459679
31
0.0
0
LINE
8
0
6
CONTINUOUS
10
0.087085
20
0.458458
30
0.0
11
0.086134
21
0.457788
31
0.0
0
LINE
8
0
6
CONTINUOUS
10
0.094931
20
0.459881
30
0.0
11
0.093465
21
0.458849
31
0.0
0
LINE
8
0
6
CONTINUOUS
10
0.093465
20
0.458849
30
0.0
11
0.091925
21
0.457765
31
0.0
0
LINE
8
0
6
CONTINUOUS
10
0.048606
20
0.429898
30
0.0
11
0.048017
21
0.429484
31
0.0
0
LINE
8
0
6
CONTINUOUS
10
0.046308
20
0.428280
30
0.0
11
0.045187
21
0.427491
31
0.0
0
LINE
8
0
6
CONTINUOUS
10
0.048017
20
0.429484
30
0.0
11
0.046308
21
0.428280
31
0.0
0
LINE
8
0
6
CONTINUOUS
10
0.077235
20
0.449745
30
0.0
11
0.076114
21
0.448956
31
0.0
0
LINE
8
0
6
CONTINUOUS
10
0.074405
20
0.447752
30
0.0
11
0.073816
21
0.447337
31
0.0
0
LINE
8
0
6
CONTINUOUS
10
0.076114
20
0.448956
30
0.0
11
0.074405
21
0.447752
31
0.0
0
LINE
8
0
6
CONTINUOUS
10
0.098514
20
0.463274
30
0.0
11
0.097049
21
0.462242
31
0.0
0
LINE
8
0
6
CONTINUOUS
10
0.095509
20
0.461158
30
0.0
11
0.095434
21
0.461105
31
0.0
0
LINE
8
0
6
CONTINUOUS
10
0.097049
20
0.462242
30
0.0
11
0.095509
21
0.461158
31
0.0
0
LINE
8
0
6
CONTINUOUS
10
0.073410
20
0.444397
30
0.0
11
0.072821
21
0.443982
31
0.0
0
LINE
8
0
6
CONTINUOUS
10
0.072821
20
0.443982
30
0.0
11
0.072739
21
0.443924
31
0.0
0
LINE
8
0
6
CONTINUOUS
10
0.098426
20
0.463241
30
0.0
11
0.096885
21
0.462156
31
0.0
0
LINE
8
0
6
CONTINUOUS
10
0.098501
20
0.463293
30
0.0
11
0.098426
21
0.463241
31
0.0
0
LINE
8
0
6
CONTINUOUS
10
0.096885
20
0.462156
30
0.0
11
0.095420
21
0.461124
31
0.0
0
LINE
8
0
6
CONTINUOUS
10
0.102075
20
0.467315
30
0.0
11
0.101783
21
0.467109
31
0.0
0
LINE
8
0
6
CONTINUOUS
10
0.103704
20
0.468462
30
0.0
11
0.102075
21
0.467315
31
0.0
0
LINE
8
0
6
CONTINUOUS
10
0.105040
20
0.469403
30
0.0
11
0.103704
21
0.468462
31
0.0
0
LINE
8
0
6
CONTINUOUS
10
0.083575
20
0.451798
30
0.0
11
0.082792
21
0.451246
31
0.0
0
LINE
8
0
6
CONTINUOUS
10
0.081058
20
0.450025
30
0.0
11
0.080107
21
0.449355
31
0.0
0
LINE
8
0
6
CONTINUOUS
10
0.082792
20
0.451246
30
0.0
11
0.081058
21
0.450025
31
0.0
0
LINE
8
0
6
CONTINUOUS
10
0.101891
20
0.466960
30
0.0
11
0.101816
21
0.466908
31
0.0
0
LINE
8
0
6
CONTINUOUS
10
0.100276
20
0.465823
30
0.0
11
0.098811
21
0.464791
31
0.0
0
LINE
8
0
6
CONTINUOUS
10
0.101816
20
0.466908
30
0.0
11
0.100276
21
0.465823
31
0.0
0
LINE
8
0
6
CONTINUOUS
10
0.078534
20
0.447588
30
0.0
11
0.077751
21
0.447036
31
0.0
0
LINE
8
0
6
CONTINUOUS
10
0.080268
20
0.448809
30
0.0
11
0.078534
21
0.447588
31
0.0
0
LINE
8
0
6
CONTINUOUS
10
0.081219
20
0.449478
30
0.0
11
0.080268
21
0.448809
31
0.0
0
LINE
8
0
6
CONTINUOUS
10
0.049248
20
0.433394
30
0.0
11
0.048127
21
0.432605
31
0.0
0
LINE
8
0
6
CONTINUOUS
10
0.050957
20
0.434598
30
0.0
11
0.049248
21
0.433394
31
0.0
0
LINE
8
0
6
CONTINUOUS
10
0.051545
20
0.435012
30
0.0
11
0.050957
21
0.434598
31
0.0
0
LINE
8
0
6
CONTINUOUS
10
0.048526
20
0.430012
30
0.0
11
0.047405
21
0.429223
31
0.0
0
LINE
8
0
6
CONTINUOUS
10
0.045696
20
0.428019
30
0.0
11
0.045107
21
0.427605
31
0.0
0
LINE
8
0
6
CONTINUOUS
10
0.047405
20
0.429223
30
0.0
11
0.045696
21
0.428019
31
0.0
0
LINE
8
0
6
CONTINUOUS
10
0.090422
20
0.463066
30
0.0
11
0.088688
21
0.461845
31
0.0
0
LINE
8
0
6
CONTINUOUS
10
0.091205
20
0.463617
30
0.0
11
0.090422
21
0.463066
31
0.0
0
LINE
8
0
6
CONTINUOUS
10
0.088688
20
0.461845
30
0.0
11
0.087737
21
0.461175
31
0.0
0
LINE
8
0
6
CONTINUOUS
10
0.094387
20
0.461814
30
0.0
11
0.093151
21
0.460944
31
0.0
0
LINE
8
0
6
CONTINUOUS
10
0.096061
20
0.462993
30
0.0
11
0.094387
21
0.461814
31
0.0
0
LINE
8
0
6
CONTINUOUS
10
0.096500
20
0.463302
30
0.0
11
0.096061
21
0.462993
31
0.0
0
LINE
8
0
6
CONTINUOUS
10
0.075351
20
0.447030
30
0.0
11
0.074230
21
0.446241
31
0.0
0
LINE
8
0
6
CONTINUOUS
10
0.072521
20
0.445037
30
0.0
11
0.071932
21
0.444622
31
0.0
0
LINE
8
0
6
CONTINUOUS
10
0.074230
20
0.446241
30
0.0
11
0.072521
21
0.445037
31
0.0
0
LINE
8
0
6
CONTINUOUS
10
0.089324
20
0.455983
30
0.0
11
0.088088
21
0.455113
31
0.0
0
LINE
8
0
6
CONTINUOUS
10
0.090999
20
0.457163
30
0.0
11
0.089324
21
0.455983
31
0.0
0
LINE
8
0
6
CONTINUOUS
10
0.091437
20
0.457472
30
0.0
11
0.090999
21
0.457163
31
0.0
0
LINE
8
0
6
CONTINUOUS
10
0.064695
20
0.438392
30
0.0
11
0.063574
21
0.437603
31
0.0
0
LINE
8
0
6
CONTINUOUS
10
0.066404
20
0.439596
30
0.0
11
0.064695
21
0.438392
31
0.0
0
LINE
8
0
6
CONTINUOUS
10
0.066993
20
0.440010
30
0.0
11
0.066404
21
0.439596
31
0.0
0
LINE
8
0
6
CONTINUOUS
10
0.060943
20
0.436527
30
0.0
11
0.060354
21
0.436113
31
0.0
0
LINE
8
0
6
CONTINUOUS
10
0.060354
20
0.436113
30
0.0
11
0.058645
21
0.434909
31
0.0
0
LINE
8
0
6
CONTINUOUS
10
0.052023
20
0.431108
30
0.0
11
0.051435
21
0.430693
31
0.0
0
LINE
8
0
6
CONTINUOUS
10
0.053732
20
0.432312
30
0.0
11
0.052023
21
0.431108
31
0.0
0
LINE
8
0
6
CONTINUOUS
10
0.054853
20
0.433101
30
0.0
11
0.053732
21
0.432312
31
0.0
0
LINE
8
0
6
CONTINUOUS
10
0.082663
20
0.451072
30
0.0
11
0.080947
21
0.449864
31
0.0
0
LINE
8
0
6
CONTINUOUS
10
0.083614
20
0.451742
30
0.0
11
0.082663
21
0.451072
31
0.0
0
LINE
8
0
6
CONTINUOUS
10
0.066296
20
0.442124
30
0.0
11
0.064586
21
0.440920
31
0.0
0
LINE
8
0
6
CONTINUOUS
10
0.066884
20
0.442538
30
0.0
11
0.066296
21
0.442124
31
0.0
0
LINE
8
0
6
CONTINUOUS
10
0.064586
20
0.440920
30
0.0
11
0.063466
21
0.440131
31
0.0
0
LINE
8
0
6
CONTINUOUS
10
0.108126
20
0.475071
30
0.0
11
0.108051
21
0.475018
31
0.0
0
LINE
8
0
6
CONTINUOUS
10
0.106511
20
0.473934
30
0.0
11
0.105046
21
0.472902
31
0.0
0
LINE
8
0
6
CONTINUOUS
10
0.108051
20
0.475018
30
0.0
11
0.106511
21
0.473934
31
0.0
0
LINE
8
0
6
CONTINUOUS
10
0.064149
20
0.438037
30
0.0
11
0.063561
21
0.437622
31
0.0
0
LINE
8
0
6
CONTINUOUS
10
0.065859
20
0.439240
30
0.0
11
0.064149
21
0.438037
31
0.0
0
LINE
8
0
6
CONTINUOUS
10
0.066979
20
0.440029
30
0.0
11
0.065859
21
0.439240
31
0.0
0
LINE
8
0
6
CONTINUOUS
10
0.073046
20
0.443488
30
0.0
11
0.072458
21
0.443073
31
0.0
0
LINE
8
0
6
CONTINUOUS
10
0.070749
20
0.441870
30
0.0
11
0.069628
21
0.441080
31
0.0
0
LINE
8
0
6
CONTINUOUS
10
0.072458
20
0.443073
30
0.0
11
0.070749
21
0.441870
31
0.0
0
LINE
8
0
6
CONTINUOUS
10
0.077461
20
0.454191
30
0.0
11
0.076873
21
0.453777
31
0.0
0
LINE
8
0
6
CONTINUOUS
10
0.079171
20
0.455395
30
0.0
11
0.077461
21
0.454191
31
0.0
0
LINE
8
0
6
CONTINUOUS
10
0.080291
20
0.456184
30
0.0
11
0.079171
21
0.455395
31
0.0
0
LINE
8
0
6
CONTINUOUS
10
-0.038452
20
0.308497
30
0.0
11
-0.038397
21
0.308310
31
0.0
0
LINE
8
0
6
CONTINUOUS
10
-0.038397
20
0.308310
30
0.0
11
-0.038352
21
0.308155
31
0.0
0
LINE
8
0
6
CONTINUOUS
10
-0.038352
20
0.308155
30
0.0
11
-0.038196
21
0.307692
31
0.0
0
LINE
8
0
6
CONTINUOUS
10
0.064504
20
0.444422
30
0.0
11
0.064261
21
0.444161
31
0.0
0
LINE
8
0
6
CONTINUOUS
10
0.064261
20
0.444161
30
0.0
11
0.063934
21
0.443863
31
0.0
0
LINE
8
0
6
CONTINUOUS
10
0.058284
20
0.441777
30
0.0
11
0.056415
21
0.440801
31
0.0
0
LINE
8
0
6
CONTINUOUS
10
0.056415
20
0.440801
30
0.0
11
0.055400
21
0.439861
31
0.0
0
LINE
8
0
6
CONTINUOUS
10
0.050273
20
0.435568
30
0.0
11
0.050529
21
0.435584
31
0.0
0
LINE
8
0
6
CONTINUOUS
10
0.050529
20
0.435584
30
0.0
11
0.051115
21
0.435623
31
0.0
0
LINE
8
0
6
CONTINUOUS
10
0.048456
20
0.434702
30
0.0
11
0.048362
21
0.434651
31
0.0
0
LINE
8
0
6
CONTINUOUS
10
0.048362
20
0.434651
30
0.0
11
0.047293
21
0.433789
31
0.0
0
LINE
8
0
6
CONTINUOUS
10
0.057629
20
0.439288
30
0.0
11
0.055756
21
0.438317
31
0.0
0
LINE
8
0
6
CONTINUOUS
10
0.064633
20
0.442869
30
0.0
11
0.063598
21
0.442324
31
0.0
0
LINE
8
0
6
CONTINUOUS
10
0.063598
20
0.442324
30
0.0
11
0.063028
21
0.441805
31
0.0
0
LINE
8
0
6
CONTINUOUS
10
0.096337
20
0.462934
30
0.0
11
0.094991
21
0.461733
31
0.0
0
LINE
8
0
6
CONTINUOUS
10
0.068041
20
0.449170
30
0.0
11
0.066236
21
0.448103
31
0.0
0
LINE
8
0
6
CONTINUOUS
10
0.065581
20
0.447333
30
0.0
11
0.065314
21
0.447031
31
0.0
0
LINE
8
0
6
CONTINUOUS
10
0.061525
20
0.437781
30
0.0
11
0.061552
21
0.437649
31
0.0
0
LINE
8
0
6
CONTINUOUS
10
0.061864
20
0.438116
30
0.0
11
0.061525
21
0.437781
31
0.0
0
ENDSEC
0
EOF
