999
unknown String-ID: 20550
0
SECTION
2
HEADER
9
$ACADVER
1
AC1009
9
$DWGCODEPAGE
3
unknown String-ID: 20561
0
ENDSEC
0
SECTION
2
TABLES
0
TABLE
2
LAYER
70
1
0
LAYER
2
0
70
0
62
7
6
CONTINUOUS
0
ENDTAB
0
ENDSEC
0
SECTION
2
ENTITIES
0
LINE
8
0
6
CONTINUOUS
10
-0.165456
20
0.281314
30
0.0
11
-0.165456
21
0.282760
31
0.0
0
LINE
8
0
6
CONTINUOUS
10
-0.181456
20
0.281314
30
0.0
11
-0.181456
21
0.282760
31
0.0
0
LINE
8
0
6
CONTINUOUS
10
-0.165456
20
0.262706
30
0.0
11
-0.165456
21
0.281314
31
0.0
0
LINE
8
0
6
CONTINUOUS
10
-0.181456
20
0.262706
30
0.0
11
-0.181456
21
0.281314
31
0.0
0
LINE
8
0
6
CONTINUOUS
10
-0.165456
20
0.245382
30
0.0
11
-0.165456
21
0.262706
31
0.0
0
LINE
8
0
6
CONTINUOUS
10
-0.181456
20
0.245382
30
0.0
11
-0.181456
21
0.262706
31
0.0
0
LINE
8
0
6
CONTINUOUS
10
-0.165456
20
0.228922
30
0.0
11
-0.165456
21
0.245382
31
0.0
0
LINE
8
0
6
CONTINUOUS
10
-0.181456
20
0.228922
30
0.0
11
-0.181456
21
0.245382
31
0.0
0
LINE
8
0
6
CONTINUOUS
10
-0.165456
20
0.212910
30
0.0
11
-0.165456
21
0.228922
31
0.0
0
LINE
8
0
6
CONTINUOUS
10
-0.181456
20
0.212910
30
0.0
11
-0.181456
21
0.228922
31
0.0
0
LINE
8
0
6
CONTINUOUS
10
-0.165456
20
0.196929
30
0.0
11
-0.165456
21
0.212910
31
0.0
0
LINE
8
0
6
CONTINUOUS
10
-0.181456
20
0.196929
30
0.0
11
-0.181456
21
0.212910
31
0.0
0
LINE
8
0
6
CONTINUOUS
10
-0.165456
20
0.180561
30
0.0
11
-0.165456
21
0.196929
31
0.0
0
LINE
8
0
6
CONTINUOUS
10
-0.181456
20
0.180561
30
0.0
11
-0.181456
21
0.196929
31
0.0
0
LINE
8
0
6
CONTINUOUS
10
-0.165456
20
0.163389
30
0.0
11
-0.165456
21
0.180561
31
0.0
0
LINE
8
0
6
CONTINUOUS
10
-0.181456
20
0.163389
30
0.0
11
-0.181456
21
0.180561
31
0.0
0
LINE
8
0
6
CONTINUOUS
10
-0.165456
20
0.144995
30
0.0
11
-0.165456
21
0.163389
31
0.0
0
LINE
8
0
6
CONTINUOUS
10
-0.181456
20
0.144995
30
0.0
11
-0.181456
21
0.163389
31
0.0
0
LINE
8
0
6
CONTINUOUS
10
-0.165456
20
0.124962
30
0.0
11
-0.165456
21
0.144995
31
0.0
0
LINE
8
0
6
CONTINUOUS
10
-0.181456
20
0.124962
30
0.0
11
-0.181456
21
0.144995
31
0.0
0
LINE
8
0
6
CONTINUOUS
10
-0.165456
20
0.083207
30
0.0
11
-0.165456
21
0.124962
31
0.0
0
LINE
8
0
6
CONTINUOUS
10
-0.181456
20
0.083207
30
0.0
11
-0.181456
21
0.124962
31
0.0
0
LINE
8
0
6
CONTINUOUS
10
-0.165456
20
0.040376
30
0.0
11
-0.165456
21
0.083207
31
0.0
0
LINE
8
0
6
CONTINUOUS
10
-0.181456
20
0.040376
30
0.0
11
-0.181456
21
0.083207
31
0.0
0
LINE
8
0
6
CONTINUOUS
10
-0.165456
20
-0.002558
30
0.0
11
-0.165456
21
0.040376
31
0.0
0
LINE
8
0
6
CONTINUOUS
10
-0.181456
20
-0.002558
30
0.0
11
-0.181456
21
0.040376
31
0.0
0
LINE
8
0
6
CONTINUOUS
10
-0.165456
20
-0.044621
30
0.0
11
-0.165456
21
-0.002558
31
0.0
0
LINE
8
0
6
CONTINUOUS
10
-0.181456
20
-0.044621
30
0.0
11
-0.181456
21
-0.002558
31
0.0
0
LINE
8
0
6
CONTINUOUS
10
-0.165456
20
-0.084837
30
0.0
11
-0.165456
21
-0.044621
31
0.0
0
LINE
8
0
6
CONTINUOUS
10
-0.181456
20
-0.084837
30
0.0
11
-0.181456
21
-0.044621
31
0.0
0
LINE
8
0
6
CONTINUOUS
10
-0.165456
20
-0.122234
30
0.0
11
-0.165456
21
-0.084837
31
0.0
0
LINE
8
0
6
CONTINUOUS
10
-0.181456
20
-0.122234
30
0.0
11
-0.181456
21
-0.084837
31
0.0
0
LINE
8
0
6
CONTINUOUS
10
-0.165456
20
-0.155836
30
0.0
11
-0.165456
21
-0.122234
31
0.0
0
LINE
8
0
6
CONTINUOUS
10
-0.181456
20
-0.155836
30
0.0
11
-0.181456
21
-0.122234
31
0.0
0
LINE
8
0
6
CONTINUOUS
10
-0.165456
20
-0.184669
30
0.0
11
-0.165456
21
-0.155836
31
0.0
0
LINE
8
0
6
CONTINUOUS
10
-0.181456
20
-0.184669
30
0.0
11
-0.181456
21
-0.155836
31
0.0
0
LINE
8
0
6
CONTINUOUS
10
-0.165456
20
-0.207759
30
0.0
11
-0.165456
21
-0.184669
31
0.0
0
LINE
8
0
6
CONTINUOUS
10
-0.181456
20
-0.207759
30
0.0
11
-0.181456
21
-0.184669
31
0.0
0
LINE
8
0
6
CONTINUOUS
10
-0.165456
20
-0.224132
30
0.0
11
-0.165456
21
-0.207759
31
0.0
0
LINE
8
0
6
CONTINUOUS
10
-0.166528
20
-0.224132
30
0.0
11
-0.165456
21
-0.224132
31
0.0
0
LINE
8
0
6
CONTINUOUS
10
-0.169456
20
-0.224132
30
0.0
11
-0.166528
21
-0.224132
31
0.0
0
LINE
8
0
6
CONTINUOUS
10
-0.173456
20
-0.224132
30
0.0
11
-0.169456
21
-0.224132
31
0.0
0
LINE
8
0
6
CONTINUOUS
10
-0.177456
20
-0.224132
30
0.0
11
-0.173456
21
-0.224132
31
0.0
0
LINE
8
0
6
CONTINUOUS
10
-0.180384
20
-0.224132
30
0.0
11
-0.177456
21
-0.224132
31
0.0
0
LINE
8
0
6
CONTINUOUS
10
-0.181456
20
-0.224132
30
0.0
11
-0.180384
21
-0.224132
31
0.0
0
LINE
8
0
6
CONTINUOUS
10
-0.181456
20
-0.224132
30
0.0
11
-0.181456
21
-0.207759
31
0.0
0
LINE
8
0
6
CONTINUOUS
10
-0.184560
20
0.317214
30
0.0
11
-0.184232
21
0.316512
31
0.0
0
LINE
8
0
6
CONTINUOUS
10
-0.164537
20
0.298274
30
0.0
11
-0.164537
21
0.301975
31
0.0
0
LINE
8
0
6
CONTINUOUS
10
-0.164537
20
0.291404
30
0.0
11
-0.164537
21
0.294705
31
0.0
0
LINE
8
0
6
CONTINUOUS
10
-0.164537
20
0.294705
30
0.0
11
-0.164537
21
0.298274
31
0.0
0
LINE
8
0
6
CONTINUOUS
10
-0.164537
20
0.305666
30
0.0
11
-0.164537
21
0.309205
31
0.0
0
LINE
8
0
6
CONTINUOUS
10
-0.164537
20
0.309205
30
0.0
11
-0.164537
21
0.311298
31
0.0
0
LINE
8
0
6
CONTINUOUS
10
-0.225025
20
0.320650
30
0.0
11
-0.225345
21
0.320650
31
0.0
0
LINE
8
0
6
CONTINUOUS
10
-0.184492
20
0.320650
30
0.0
11
-0.193967
21
0.320650
31
0.0
0
LINE
8
0
6
CONTINUOUS
10
-0.215967
20
0.320650
30
0.0
11
-0.225025
21
0.320650
31
0.0
0
LINE
8
0
6
CONTINUOUS
10
-0.225025
20
0.282760
30
0.0
11
-0.225345
21
0.282760
31
0.0
0
LINE
8
0
6
CONTINUOUS
10
-0.168099
20
0.282760
30
0.0
11
-0.172715
21
0.282087
31
0.0
0
LINE
8
0
6
CONTINUOUS
10
-0.177624
20
0.282094
30
0.0
11
-0.172715
21
0.282070
31
0.0
0
LINE
8
0
6
CONTINUOUS
10
-0.177624
20
0.282094
30
0.0
11
-0.181185
21
0.282760
31
0.0
0
LINE
8
0
6
CONTINUOUS
10
-0.164537
20
0.283177
30
0.0
11
-0.164537
21
0.284305
31
0.0
0
LINE
8
0
6
CONTINUOUS
10
-0.164537
20
0.284305
30
0.0
11
-0.164537
21
0.286103
31
0.0
0
LINE
8
0
6
CONTINUOUS
10
-0.164537
20
0.288500
30
0.0
11
-0.164537
21
0.291404
31
0.0
0
LINE
8
0
6
CONTINUOUS
10
-0.164537
20
0.286103
30
0.0
11
-0.164537
21
0.288500
31
0.0
0
LINE
8
0
6
CONTINUOUS
10
-0.164537
20
0.282760
30
0.0
11
-0.164537
21
0.283177
31
0.0
0
LINE
8
0
6
CONTINUOUS
10
-0.164537
20
0.282760
30
0.0
11
-0.164938
21
0.282760
31
0.0
0
LINE
8
0
6
CONTINUOUS
10
-0.181185
20
0.282760
30
0.0
11
-0.193967
21
0.282760
31
0.0
0
LINE
8
0
6
CONTINUOUS
10
-0.215967
20
0.282760
30
0.0
11
-0.225025
21
0.282760
31
0.0
0
LINE
8
0
6
CONTINUOUS
10
-0.164938
20
0.282760
30
0.0
11
-0.168099
21
0.282760
31
0.0
0
LINE
8
0
6
CONTINUOUS
10
-0.225345
20
0.301975
30
0.0
11
-0.225345
21
0.305666
31
0.0
0
LINE
8
0
6
CONTINUOUS
10
-0.225345
20
0.305666
30
0.0
11
-0.225345
21
0.309205
31
0.0
0
LINE
8
0
6
CONTINUOUS
10
-0.225345
20
0.291404
30
0.0
11
-0.225345
21
0.294705
31
0.0
0
LINE
8
0
6
CONTINUOUS
10
-0.225345
20
0.298274
30
0.0
11
-0.225345
21
0.301975
31
0.0
0
LINE
8
0
6
CONTINUOUS
10
-0.225345
20
0.315292
30
0.0
11
-0.225345
21
0.317607
31
0.0
0
LINE
8
0
6
CONTINUOUS
10
-0.225345
20
0.283177
30
0.0
11
-0.225345
21
0.284305
31
0.0
0
LINE
8
0
6
CONTINUOUS
10
-0.225345
20
0.309205
30
0.0
11
-0.225345
21
0.312455
31
0.0
0
LINE
8
0
6
CONTINUOUS
10
-0.225345
20
0.294705
30
0.0
11
-0.225345
21
0.298274
31
0.0
0
LINE
8
0
6
CONTINUOUS
10
-0.225345
20
0.288500
30
0.0
11
-0.225345
21
0.291404
31
0.0
0
LINE
8
0
6
CONTINUOUS
10
-0.225345
20
0.317607
30
0.0
11
-0.225345
21
0.319312
31
0.0
0
LINE
8
0
6
CONTINUOUS
10
-0.225345
20
0.320339
30
0.0
11
-0.225345
21
0.320650
31
0.0
0
LINE
8
0
6
CONTINUOUS
10
-0.225345
20
0.312455
30
0.0
11
-0.225345
21
0.315292
31
0.0
0
LINE
8
0
6
CONTINUOUS
10
-0.225345
20
0.282760
30
0.0
11
-0.225345
21
0.283177
31
0.0
0
LINE
8
0
6
CONTINUOUS
10
-0.225345
20
0.286103
30
0.0
11
-0.225345
21
0.288500
31
0.0
0
LINE
8
0
6
CONTINUOUS
10
-0.225345
20
0.284305
30
0.0
11
-0.225345
21
0.286103
31
0.0
0
LINE
8
0
6
CONTINUOUS
10
-0.225345
20
0.319312
30
0.0
11
-0.225345
21
0.320339
31
0.0
0
LINE
8
0
6
CONTINUOUS
10
-0.246478
20
0.282833
30
0.0
11
-0.247190
21
0.282833
31
0.0
0
LINE
8
0
6
CONTINUOUS
10
-0.246478
20
0.282833
30
0.0
11
-0.226217
21
0.282833
31
0.0
0
LINE
8
0
6
CONTINUOUS
10
-0.230724
20
0.320577
30
0.0
11
-0.226217
21
0.320577
31
0.0
0
LINE
8
0
6
CONTINUOUS
10
-0.226217
20
0.282833
30
0.0
11
-0.225926
21
0.282833
31
0.0
0
LINE
8
0
6
CONTINUOUS
10
-0.226217
20
0.320577
30
0.0
11
-0.225926
21
0.320577
31
0.0
0
LINE
8
0
6
CONTINUOUS
10
-0.247190
20
0.282833
30
0.0
11
-0.247190
21
0.283476
31
0.0
0
LINE
8
0
6
CONTINUOUS
10
-0.247190
20
0.283476
30
0.0
11
-0.247190
21
0.285361
31
0.0
0
LINE
8
0
6
CONTINUOUS
10
-0.247190
20
0.285361
30
0.0
11
-0.247190
21
0.288360
31
0.0
0
LINE
8
0
6
CONTINUOUS
10
-0.247190
20
0.288360
30
0.0
11
-0.247190
21
0.292269
31
0.0
0
LINE
8
0
6
CONTINUOUS
10
-0.247190
20
0.292269
30
0.0
11
-0.247190
21
0.296820
31
0.0
0
LINE
8
0
6
CONTINUOUS
10
-0.247190
20
0.296820
30
0.0
11
-0.247190
21
0.301705
31
0.0
0
LINE
8
0
6
CONTINUOUS
10
-0.247190
20
0.301705
30
0.0
11
-0.247190
21
0.306590
31
0.0
0
LINE
8
0
6
CONTINUOUS
10
-0.247190
20
0.306590
30
0.0
11
-0.247190
21
0.311141
31
0.0
0
LINE
8
0
6
CONTINUOUS
10
-0.247190
20
0.311141
30
0.0
11
-0.247190
21
0.315050
31
0.0
0
LINE
8
0
6
CONTINUOUS
10
-0.247190
20
0.315050
30
0.0
11
-0.247190
21
0.318049
31
0.0
0
LINE
8
0
6
CONTINUOUS
10
-0.247190
20
0.318049
30
0.0
11
-0.247190
21
0.319934
31
0.0
0
LINE
8
0
6
CONTINUOUS
10
-0.247190
20
0.319934
30
0.0
11
-0.247190
21
0.320577
31
0.0
0
LINE
8
0
6
CONTINUOUS
10
-0.246276
20
0.328873
30
0.0
11
-0.246389
21
0.328879
31
0.0
0
LINE
8
0
6
CONTINUOUS
10
-0.246276
20
0.328873
30
0.0
11
-0.230836
21
0.328886
31
0.0
0
LINE
8
0
6
CONTINUOUS
10
-0.230724
20
0.317009
30
0.0
11
-0.230724
21
0.324892
31
0.0
0
LINE
8
0
6
CONTINUOUS
10
-0.230836
20
0.328886
30
0.0
11
-0.230724
21
0.328887
31
0.0
0
LINE
8
0
6
CONTINUOUS
10
-0.246389
20
0.328879
30
0.0
11
-0.246413
21
0.328837
31
0.0
0
LINE
8
0
6
CONTINUOUS
10
-0.246413
20
0.328837
30
0.0
11
-0.246446
21
0.328594
31
0.0
0
LINE
8
0
6
CONTINUOUS
10
-0.246446
20
0.328594
30
0.0
11
-0.246488
21
0.328166
31
0.0
0
LINE
8
0
6
CONTINUOUS
10
-0.246488
20
0.328166
30
0.0
11
-0.246534
21
0.327584
31
0.0
0
LINE
8
0
6
CONTINUOUS
10
-0.246534
20
0.327584
30
0.0
11
-0.246583
21
0.326886
31
0.0
0
LINE
8
0
6
CONTINUOUS
10
-0.247130
20
0.319015
30
0.0
11
-0.246583
21
0.326886
31
0.0
0
LINE
8
0
6
CONTINUOUS
10
-0.230724
20
0.325659
30
0.0
11
-0.230724
21
0.324892
31
0.0
0
LINE
8
0
6
CONTINUOUS
10
-0.230724
20
0.326442
30
0.0
11
-0.230724
21
0.325659
31
0.0
0
LINE
8
0
6
CONTINUOUS
10
-0.230724
20
0.327188
30
0.0
11
-0.230724
21
0.326442
31
0.0
0
LINE
8
0
6
CONTINUOUS
10
-0.230724
20
0.327845
30
0.0
11
-0.230724
21
0.327188
31
0.0
0
LINE
8
0
6
CONTINUOUS
10
-0.230724
20
0.328369
30
0.0
11
-0.230724
21
0.327845
31
0.0
0
LINE
8
0
6
CONTINUOUS
10
-0.230724
20
0.328724
30
0.0
11
-0.230724
21
0.328369
31
0.0
0
LINE
8
0
6
CONTINUOUS
10
-0.230724
20
0.328887
30
0.0
11
-0.230724
21
0.328724
31
0.0
0
LINE
8
0
6
CONTINUOUS
10
-0.225926
20
0.283476
30
0.0
11
-0.225926
21
0.282833
31
0.0
0
LINE
8
0
6
CONTINUOUS
10
-0.225926
20
0.285361
30
0.0
11
-0.225926
21
0.283476
31
0.0
0
LINE
8
0
6
CONTINUOUS
10
-0.225926
20
0.288360
30
0.0
11
-0.225926
21
0.285361
31
0.0
0
LINE
8
0
6
CONTINUOUS
10
-0.225926
20
0.292269
30
0.0
11
-0.225926
21
0.288360
31
0.0
0
LINE
8
0
6
CONTINUOUS
10
-0.225926
20
0.296820
30
0.0
11
-0.225926
21
0.292269
31
0.0
0
LINE
8
0
6
CONTINUOUS
10
-0.225926
20
0.301705
30
0.0
11
-0.225926
21
0.296820
31
0.0
0
LINE
8
0
6
CONTINUOUS
10
-0.225926
20
0.306590
30
0.0
11
-0.225926
21
0.301705
31
0.0
0
LINE
8
0
6
CONTINUOUS
10
-0.225926
20
0.311141
30
0.0
11
-0.225926
21
0.306590
31
0.0
0
LINE
8
0
6
CONTINUOUS
10
-0.225926
20
0.315050
30
0.0
11
-0.225926
21
0.311141
31
0.0
0
LINE
8
0
6
CONTINUOUS
10
-0.225926
20
0.319934
30
0.0
11
-0.225926
21
0.318049
31
0.0
0
LINE
8
0
6
CONTINUOUS
10
-0.225926
20
0.320577
30
0.0
11
-0.225926
21
0.319934
31
0.0
0
LINE
8
0
6
CONTINUOUS
10
-0.207767
20
-0.172132
30
0.0
11
-0.204967
21
-0.172132
31
0.0
0
LINE
8
0
6
CONTINUOUS
10
-0.215967
20
-0.223578
30
0.0
11
-0.215967
21
-0.224132
31
0.0
0
LINE
8
0
6
CONTINUOUS
10
-0.215567
20
-0.224132
30
0.0
11
-0.215967
21
-0.224132
31
0.0
0
LINE
8
0
6
CONTINUOUS
10
-0.214467
20
-0.224132
30
0.0
11
-0.215567
21
-0.224132
31
0.0
0
LINE
8
0
6
CONTINUOUS
10
-0.212767
20
-0.224132
30
0.0
11
-0.214467
21
-0.224132
31
0.0
0
LINE
8
0
6
CONTINUOUS
10
-0.210467
20
-0.224132
30
0.0
11
-0.212767
21
-0.224132
31
0.0
0
LINE
8
0
6
CONTINUOUS
10
-0.207767
20
-0.224132
30
0.0
11
-0.210467
21
-0.224132
31
0.0
0
LINE
8
0
6
CONTINUOUS
10
-0.204967
20
-0.224132
30
0.0
11
-0.207767
21
-0.224132
31
0.0
0
LINE
8
0
6
CONTINUOUS
10
-0.207767
20
-0.172132
30
0.0
11
-0.210467
21
-0.172132
31
0.0
0
LINE
8
0
6
CONTINUOUS
10
-0.210467
20
-0.172132
30
0.0
11
-0.212767
21
-0.172132
31
0.0
0
LINE
8
0
6
CONTINUOUS
10
-0.214467
20
-0.172132
30
0.0
11
-0.215567
21
-0.172132
31
0.0
0
LINE
8
0
6
CONTINUOUS
10
-0.193967
20
-0.224132
30
0.0
11
-0.194367
21
-0.224132
31
0.0
0
LINE
8
0
6
CONTINUOUS
10
-0.194367
20
-0.224132
30
0.0
11
-0.195467
21
-0.224132
31
0.0
0
LINE
8
0
6
CONTINUOUS
10
-0.195467
20
-0.224132
30
0.0
11
-0.197167
21
-0.224132
31
0.0
0
LINE
8
0
6
CONTINUOUS
10
-0.197167
20
-0.224132
30
0.0
11
-0.199467
21
-0.224132
31
0.0
0
LINE
8
0
6
CONTINUOUS
10
-0.199467
20
-0.224132
30
0.0
11
-0.202167
21
-0.224132
31
0.0
0
LINE
8
0
6
CONTINUOUS
10
-0.202167
20
-0.224132
30
0.0
11
-0.204967
21
-0.224132
31
0.0
0
LINE
8
0
6
CONTINUOUS
10
-0.215567
20
-0.172132
30
0.0
11
-0.215967
21
-0.172132
31
0.0
0
LINE
8
0
6
CONTINUOUS
10
-0.215967
20
-0.172686
30
0.0
11
-0.215967
21
-0.172132
31
0.0
0
LINE
8
0
6
CONTINUOUS
10
-0.215967
20
-0.223578
30
0.0
11
-0.215967
21
-0.172686
31
0.0
0
LINE
8
0
6
CONTINUOUS
10
-0.212767
20
-0.172132
30
0.0
11
-0.214467
21
-0.172132
31
0.0
0
LINE
8
0
6
CONTINUOUS
10
-0.193967
20
-0.171632
30
0.0
11
-0.194467
21
-0.172132
31
0.0
0
LINE
8
0
6
CONTINUOUS
10
-0.193967
20
0.392368
30
0.0
11
-0.193967
21
0.392055
31
0.0
0
LINE
8
0
6
CONTINUOUS
10
-0.194467
20
0.392868
30
0.0
11
-0.193967
21
0.392368
31
0.0
0
LINE
8
0
6
CONTINUOUS
10
-0.215467
20
-0.172132
30
0.0
11
-0.215967
21
-0.171632
31
0.0
0
LINE
8
0
6
CONTINUOUS
10
-0.215967
20
0.392055
30
0.0
11
-0.215967
21
0.392368
31
0.0
0
LINE
8
0
6
CONTINUOUS
10
-0.215967
20
0.392368
30
0.0
11
-0.215467
21
0.392868
31
0.0
0
LINE
8
0
6
CONTINUOUS
10
-0.194367
20
0.392868
30
0.0
11
-0.193967
21
0.392868
31
0.0
0
LINE
8
0
6
CONTINUOUS
10
-0.195467
20
0.392868
30
0.0
11
-0.194367
21
0.392868
31
0.0
0
LINE
8
0
6
CONTINUOUS
10
-0.197167
20
0.392868
30
0.0
11
-0.195467
21
0.392868
31
0.0
0
LINE
8
0
6
CONTINUOUS
10
-0.199467
20
0.392868
30
0.0
11
-0.197167
21
0.392868
31
0.0
0
LINE
8
0
6
CONTINUOUS
10
-0.202167
20
0.392868
30
0.0
11
-0.199467
21
0.392868
31
0.0
0
LINE
8
0
6
CONTINUOUS
10
-0.204967
20
0.392868
30
0.0
11
-0.202167
21
0.392868
31
0.0
0
LINE
8
0
6
CONTINUOUS
10
-0.215967
20
0.393576
30
0.0
11
-0.215967
21
0.392868
31
0.0
0
LINE
8
0
6
CONTINUOUS
10
-0.215967
20
0.392868
30
0.0
11
-0.215567
21
0.392868
31
0.0
0
LINE
8
0
6
CONTINUOUS
10
-0.215967
20
0.434872
30
0.0
11
-0.215967
21
0.393576
31
0.0
0
LINE
8
0
6
CONTINUOUS
10
-0.215567
20
0.392868
30
0.0
11
-0.214467
21
0.392868
31
0.0
0
LINE
8
0
6
CONTINUOUS
10
-0.214467
20
0.392868
30
0.0
11
-0.212767
21
0.392868
31
0.0
0
LINE
8
0
6
CONTINUOUS
10
-0.212767
20
0.392868
30
0.0
11
-0.210467
21
0.392868
31
0.0
0
LINE
8
0
6
CONTINUOUS
10
-0.210467
20
0.392868
30
0.0
11
-0.207767
21
0.392868
31
0.0
0
LINE
8
0
6
CONTINUOUS
10
-0.207767
20
0.392868
30
0.0
11
-0.204967
21
0.392868
31
0.0
0
LINE
8
0
6
CONTINUOUS
10
-0.193967
20
0.393576
30
0.0
11
-0.193967
21
0.392868
31
0.0
0
LINE
8
0
6
CONTINUOUS
10
-0.193967
20
0.423373
30
0.0
11
-0.193967
21
0.393576
31
0.0
0
LINE
8
0
6
CONTINUOUS
10
-0.193967
20
0.392055
30
0.0
11
-0.193967
21
0.391513
31
0.0
0
LINE
8
0
6
CONTINUOUS
10
-0.215967
20
0.391513
30
0.0
11
-0.215967
21
0.392055
31
0.0
0
LINE
8
0
6
CONTINUOUS
10
-0.193967
20
-0.172132
30
0.0
11
-0.194367
21
-0.172132
31
0.0
0
LINE
8
0
6
CONTINUOUS
10
-0.194367
20
-0.172132
30
0.0
11
-0.195467
21
-0.172132
31
0.0
0
LINE
8
0
6
CONTINUOUS
10
-0.195467
20
-0.172132
30
0.0
11
-0.197167
21
-0.172132
31
0.0
0
LINE
8
0
6
CONTINUOUS
10
-0.197167
20
-0.172132
30
0.0
11
-0.199467
21
-0.172132
31
0.0
0
LINE
8
0
6
CONTINUOUS
10
-0.199467
20
-0.172132
30
0.0
11
-0.202167
21
-0.172132
31
0.0
0
LINE
8
0
6
CONTINUOUS
10
-0.202167
20
-0.172132
30
0.0
11
-0.204967
21
-0.172132
31
0.0
0
LINE
8
0
6
CONTINUOUS
10
-0.193967
20
-0.172132
30
0.0
11
-0.193967
21
-0.172686
31
0.0
0
LINE
8
0
6
CONTINUOUS
10
-0.193967
20
-0.172686
30
0.0
11
-0.193967
21
-0.223578
31
0.0
0
LINE
8
0
6
CONTINUOUS
10
-0.193967
20
-0.223578
30
0.0
11
-0.193967
21
-0.224132
31
0.0
0
LINE
8
0
6
CONTINUOUS
10
-0.215967
20
-0.171418
30
0.0
11
-0.215967
21
-0.171632
31
0.0
0
LINE
8
0
6
CONTINUOUS
10
-0.193967
20
-0.171418
30
0.0
11
-0.193967
21
-0.171632
31
0.0
0
LINE
8
0
6
CONTINUOUS
10
-0.193967
20
0.391513
30
0.0
11
-0.193967
21
0.320650
31
0.0
0
LINE
8
0
6
CONTINUOUS
10
-0.193967
20
0.282760
30
0.0
11
-0.193967
21
-0.170838
31
0.0
0
LINE
8
0
6
CONTINUOUS
10
-0.215967
20
-0.170838
30
0.0
11
-0.215967
21
0.282760
31
0.0
0
LINE
8
0
6
CONTINUOUS
10
-0.215967
20
0.320650
30
0.0
11
-0.215967
21
0.391513
31
0.0
0
LINE
8
0
6
CONTINUOUS
10
-0.193967
20
-0.170838
30
0.0
11
-0.193967
21
-0.171418
31
0.0
0
LINE
8
0
6
CONTINUOUS
10
-0.215967
20
-0.171418
30
0.0
11
-0.215967
21
-0.170838
31
0.0
0
LINE
8
0
6
CONTINUOUS
10
0.105183
20
-0.477963
30
0.0
11
0.105183
21
-0.477159
31
0.0
0
LINE
8
0
6
CONTINUOUS
10
0.084884
20
-0.477159
30
0.0
11
0.084884
21
-0.477963
31
0.0
0
LINE
8
0
6
CONTINUOUS
10
0.092638
20
-0.477963
30
0.0
11
0.088261
21
-0.477963
31
0.0
0
LINE
8
0
6
CONTINUOUS
10
0.105011
20
-0.477963
30
0.0
11
0.101805
21
-0.477963
31
0.0
0
LINE
8
0
6
CONTINUOUS
10
0.085056
20
-0.477963
30
0.0
11
0.083575
21
-0.477963
31
0.0
0
LINE
8
0
6
CONTINUOUS
10
0.097429
20
-0.477963
30
0.0
11
0.092638
21
-0.477963
31
0.0
0
LINE
8
0
6
CONTINUOUS
10
0.106491
20
-0.477963
30
0.0
11
0.105011
21
-0.477963
31
0.0
0
LINE
8
0
6
CONTINUOUS
10
0.106491
20
-0.479343
30
0.0
11
0.106491
21
-0.477963
31
0.0
0
LINE
8
0
6
CONTINUOUS
10
0.088261
20
-0.477963
30
0.0
11
0.085056
21
-0.477963
31
0.0
0
LINE
8
0
6
CONTINUOUS
10
0.101805
20
-0.477963
30
0.0
11
0.097429
21
-0.477963
31
0.0
0
LINE
8
0
6
CONTINUOUS
10
0.083575
20
-0.479343
30
0.0
11
0.083575
21
-0.477963
31
0.0
0
LINE
8
0
6
CONTINUOUS
10
0.084777
20
-0.500611
30
0.0
11
0.086102
21
-0.500611
31
0.0
0
LINE
8
0
6
CONTINUOUS
10
0.084735
20
-0.499868
30
0.0
11
0.084777
21
-0.500611
31
0.0
0
LINE
8
0
6
CONTINUOUS
10
0.086102
20
-0.500611
30
0.0
11
0.088971
21
-0.500611
31
0.0
0
LINE
8
0
6
CONTINUOUS
10
0.088971
20
-0.500611
30
0.0
11
0.092889
21
-0.500611
31
0.0
0
LINE
8
0
6
CONTINUOUS
10
0.092889
20
-0.500611
30
0.0
11
0.097177
21
-0.500611
31
0.0
0
LINE
8
0
6
CONTINUOUS
10
0.097177
20
-0.500611
30
0.0
11
0.101095
21
-0.500611
31
0.0
0
LINE
8
0
6
CONTINUOUS
10
0.101095
20
-0.500611
30
0.0
11
0.103965
21
-0.500611
31
0.0
0
LINE
8
0
6
CONTINUOUS
10
0.103965
20
-0.500611
30
0.0
11
0.105290
21
-0.500611
31
0.0
0
LINE
8
0
6
CONTINUOUS
10
0.105332
20
-0.499868
30
0.0
11
0.105290
21
-0.500611
31
0.0
0
LINE
8
0
6
CONTINUOUS
10
0.083575
20
-0.479343
30
0.0
11
0.084735
21
-0.499868
31
0.0
0
LINE
8
0
6
CONTINUOUS
10
0.106491
20
-0.479343
30
0.0
11
0.105332
21
-0.499868
31
0.0
0
LINE
8
0
6
CONTINUOUS
10
0.019757
20
-0.494899
30
0.0
11
0.026432
21
-0.494294
31
0.0
0
LINE
8
0
6
CONTINUOUS
10
0.026438
20
-0.427649
30
0.0
11
0.019798
21
-0.426995
31
0.0
0
LINE
8
0
6
CONTINUOUS
10
0.032840
20
-0.429550
30
0.0
11
0.026438
21
-0.427649
31
0.0
0
LINE
8
0
6
CONTINUOUS
10
0.038779
20
-0.432760
30
0.0
11
0.032840
21
-0.429550
31
0.0
0
LINE
8
0
6
CONTINUOUS
10
0.043910
20
-0.437021
30
0.0
11
0.038779
21
-0.432760
31
0.0
0
LINE
8
0
6
CONTINUOUS
10
0.045093
20
-0.438462
30
0.0
11
0.043910
21
-0.437021
31
0.0
0
LINE
8
0
6
CONTINUOUS
10
0.047964
20
-0.479954
30
0.0
11
0.049537
21
-0.477046
31
0.0
0
LINE
8
0
6
CONTINUOUS
10
0.043742
20
-0.485119
30
0.0
11
0.047964
21
-0.479954
31
0.0
0
LINE
8
0
6
CONTINUOUS
10
0.038549
20
-0.489271
30
0.0
11
0.043742
21
-0.485119
31
0.0
0
LINE
8
0
6
CONTINUOUS
10
0.032726
20
-0.492349
30
0.0
11
0.038549
21
-0.489271
31
0.0
0
LINE
8
0
6
CONTINUOUS
10
0.026432
20
-0.494294
30
0.0
11
0.032726
21
-0.492349
31
0.0
0
LINE
8
0
6
CONTINUOUS
10
0.019757
20
-0.494899
30
0.0
11
0.026432
21
-0.494294
31
0.0
0
LINE
8
0
6
CONTINUOUS
10
0.013215
20
-0.494240
30
0.0
11
0.019757
21
-0.494899
31
0.0
0
LINE
8
0
6
CONTINUOUS
10
0.006904
20
-0.492378
30
0.0
11
0.013215
21
-0.494240
31
0.0
0
LINE
8
0
6
CONTINUOUS
10
0.001001
20
-0.489204
30
0.0
11
0.006904
21
-0.492378
31
0.0
0
LINE
8
0
6
CONTINUOUS
10
-0.004086
20
-0.485031
30
0.0
11
0.001001
21
-0.489204
31
0.0
0
LINE
8
0
6
CONTINUOUS
10
-0.008317
20
-0.479979
30
0.0
11
-0.004086
21
-0.485031
31
0.0
0
LINE
8
0
6
CONTINUOUS
10
-0.010133
20
-0.476598
30
0.0
11
-0.008317
21
-0.479979
31
0.0
0
LINE
8
0
6
CONTINUOUS
10
-0.004299
20
-0.437019
30
0.0
11
-0.005774
21
-0.438847
31
0.0
0
LINE
8
0
6
CONTINUOUS
10
0.000853
20
-0.432803
30
0.0
11
-0.004299
21
-0.437019
31
0.0
0
LINE
8
0
6
CONTINUOUS
10
0.006711
20
-0.429632
30
0.0
11
0.000853
21
-0.432803
31
0.0
0
LINE
8
0
6
CONTINUOUS
10
0.013140
20
-0.427611
30
0.0
11
0.006711
21
-0.429632
31
0.0
0
LINE
8
0
6
CONTINUOUS
10
0.019798
20
-0.426995
30
0.0
11
0.013140
21
-0.427611
31
0.0
0
LINE
8
0
6
CONTINUOUS
10
0.020284
20
-0.438604
30
0.0
11
0.010713
21
-0.438690
31
0.0
0
LINE
8
0
6
CONTINUOUS
10
0.027879
20
-0.476977
30
0.0
11
0.084884
21
-0.477159
31
0.0
0
LINE
8
0
6
CONTINUOUS
10
0.027878
20
-0.438536
30
0.0
11
0.095033
21
-0.438246
31
0.0
0
LINE
8
0
6
CONTINUOUS
10
-0.010698
20
-0.476592
30
0.0
11
0.010712
21
-0.476827
31
0.0
0
LINE
8
0
6
CONTINUOUS
10
-0.010698
20
-0.438894
30
0.0
11
0.010713
21
-0.438690
31
0.0
0
LINE
8
0
6
CONTINUOUS
10
0.020280
20
-0.476927
30
0.0
11
0.027879
21
-0.476977
31
0.0
0
LINE
8
0
6
CONTINUOUS
10
0.020284
20
-0.438604
30
0.0
11
0.027878
21
-0.438536
31
0.0
0
LINE
8
0
6
CONTINUOUS
10
0.020280
20
-0.476927
30
0.0
11
0.010712
21
-0.476827
31
0.0
0
LINE
8
0
6
CONTINUOUS
10
-0.010958
20
-0.476590
30
0.0
11
-0.010698
21
-0.476592
31
0.0
0
LINE
8
0
6
CONTINUOUS
10
-0.010957
20
-0.438896
30
0.0
11
-0.010698
21
-0.438894
31
0.0
0
LINE
8
0
6
CONTINUOUS
10
-0.056014
20
-0.476133
30
0.0
11
-0.011735
21
-0.476586
31
0.0
0
LINE
8
0
6
CONTINUOUS
10
-0.036287
20
-0.439118
30
0.0
11
-0.011734
21
-0.438899
31
0.0
0
LINE
8
0
6
CONTINUOUS
10
-0.011735
20
-0.476586
30
0.0
11
-0.011476
21
-0.476587
31
0.0
0
LINE
8
0
6
CONTINUOUS
10
-0.011476
20
-0.476587
30
0.0
11
-0.011217
21
-0.475552
31
0.0
0
LINE
8
0
6
CONTINUOUS
10
-0.011217
20
-0.475552
30
0.0
11
-0.010958
21
-0.476590
31
0.0
0
LINE
8
0
6
CONTINUOUS
10
-0.011734
20
-0.438899
30
0.0
11
-0.011475
21
-0.438898
31
0.0
0
LINE
8
0
6
CONTINUOUS
10
-0.011475
20
-0.438898
30
0.0
11
-0.011216
21
-0.439929
31
0.0
0
LINE
8
0
6
CONTINUOUS
10
-0.011216
20
-0.439929
30
0.0
11
-0.010957
21
-0.438896
31
0.0
0
LINE
8
0
6
CONTINUOUS
10
-0.056014
20
-0.476133
30
0.0
11
-0.056823
21
-0.476125
31
0.0
0
LINE
8
0
6
CONTINUOUS
10
0.019757
20
-0.494899
30
0.0
11
0.026432
21
-0.494294
31
0.0
0
LINE
8
0
6
CONTINUOUS
10
-0.056823
20
-0.476125
30
0.0
11
-0.056823
21
-0.475530
31
0.0
0
LINE
8
0
6
CONTINUOUS
10
-0.056823
20
-0.475530
30
0.0
11
-0.056823
21
-0.473712
31
0.0
0
LINE
8
0
6
CONTINUOUS
10
-0.056823
20
-0.473712
30
0.0
11
-0.056823
21
-0.470791
31
0.0
0
LINE
8
0
6
CONTINUOUS
10
-0.056823
20
-0.470791
30
0.0
11
-0.056823
21
-0.466970
31
0.0
0
LINE
8
0
6
CONTINUOUS
10
-0.056823
20
-0.466970
30
0.0
11
-0.056823
21
-0.462491
31
0.0
0
LINE
8
0
6
CONTINUOUS
10
-0.056823
20
-0.462491
30
0.0
11
-0.056823
21
-0.457684
31
0.0
0
LINE
8
0
6
CONTINUOUS
10
-0.056823
20
-0.457684
30
0.0
11
-0.056823
21
-0.452882
31
0.0
0
LINE
8
0
6
CONTINUOUS
10
-0.056823
20
-0.452882
30
0.0
11
-0.056823
21
-0.448335
31
0.0
0
LINE
8
0
6
CONTINUOUS
10
-0.036857
20
-0.438616
30
0.0
11
-0.036295
21
-0.438608
31
0.0
0
LINE
8
0
6
CONTINUOUS
10
-0.057116
20
-0.438913
30
0.0
11
-0.056571
21
-0.438900
31
0.0
0
LINE
8
0
6
CONTINUOUS
10
-0.056571
20
-0.438900
30
0.0
11
-0.036857
21
-0.438616
31
0.0
0
LINE
8
0
6
CONTINUOUS
10
-0.036286
20
-0.439129
30
0.0
11
-0.036295
21
-0.438608
31
0.0
0
LINE
8
0
6
CONTINUOUS
10
-0.036233
20
-0.444790
30
0.0
11
-0.036286
21
-0.439129
31
0.0
0
LINE
8
0
6
CONTINUOUS
10
-0.057107
20
-0.443931
30
0.0
11
-0.057115
21
-0.442816
31
0.0
0
LINE
8
0
6
CONTINUOUS
10
-0.057115
20
-0.442816
30
0.0
11
-0.057121
21
-0.441407
31
0.0
0
LINE
8
0
6
CONTINUOUS
10
-0.057121
20
-0.441407
30
0.0
11
-0.057124
21
-0.440080
31
0.0
0
LINE
8
0
6
CONTINUOUS
10
-0.057122
20
-0.439124
30
0.0
11
-0.057116
21
-0.438913
31
0.0
0
LINE
8
0
6
CONTINUOUS
10
-0.057054
20
-0.449593
30
0.0
11
-0.057107
21
-0.443931
31
0.0
0
LINE
8
0
6
CONTINUOUS
10
-0.057124
20
-0.440080
30
0.0
11
-0.057122
21
-0.439124
31
0.0
0
LINE
8
0
6
CONTINUOUS
10
0.163634
20
-0.494294
30
0.0
11
0.170309
21
-0.494899
31
0.0
0
LINE
8
0
6
CONTINUOUS
10
0.170269
20
-0.426995
30
0.0
11
0.163628
21
-0.427649
31
0.0
0
LINE
8
0
6
CONTINUOUS
10
0.163628
20
-0.427649
30
0.0
11
0.157226
21
-0.429550
31
0.0
0
LINE
8
0
6
CONTINUOUS
10
0.157226
20
-0.429550
30
0.0
11
0.151288
21
-0.432760
31
0.0
0
LINE
8
0
6
CONTINUOUS
10
0.151288
20
-0.432760
30
0.0
11
0.146157
21
-0.437021
31
0.0
0
LINE
8
0
6
CONTINUOUS
10
0.146157
20
-0.437021
30
0.0
11
0.144974
21
-0.438462
31
0.0
0
LINE
8
0
6
CONTINUOUS
10
0.140530
20
-0.477046
30
0.0
11
0.142103
21
-0.479954
31
0.0
0
LINE
8
0
6
CONTINUOUS
10
0.142103
20
-0.479954
30
0.0
11
0.146325
21
-0.485119
31
0.0
0
LINE
8
0
6
CONTINUOUS
10
0.146325
20
-0.485119
30
0.0
11
0.151517
21
-0.489271
31
0.0
0
LINE
8
0
6
CONTINUOUS
10
0.151517
20
-0.489271
30
0.0
11
0.157340
21
-0.492349
31
0.0
0
LINE
8
0
6
CONTINUOUS
10
0.157340
20
-0.492349
30
0.0
11
0.163634
21
-0.494294
31
0.0
0
LINE
8
0
6
CONTINUOUS
10
0.163634
20
-0.494294
30
0.0
11
0.170309
21
-0.494899
31
0.0
0
LINE
8
0
6
CONTINUOUS
10
0.170309
20
-0.494899
30
0.0
11
0.176851
21
-0.494240
31
0.0
0
LINE
8
0
6
CONTINUOUS
10
0.176851
20
-0.494240
30
0.0
11
0.183163
21
-0.492378
31
0.0
0
LINE
8
0
6
CONTINUOUS
10
0.183163
20
-0.492378
30
0.0
11
0.189065
21
-0.489204
31
0.0
0
LINE
8
0
6
CONTINUOUS
10
0.189065
20
-0.489204
30
0.0
11
0.194153
21
-0.485031
31
0.0
0
LINE
8
0
6
CONTINUOUS
10
0.194153
20
-0.485031
30
0.0
11
0.198384
21
-0.479979
31
0.0
0
LINE
8
0
6
CONTINUOUS
10
0.198384
20
-0.479979
30
0.0
11
0.200200
21
-0.476598
31
0.0
0
LINE
8
0
6
CONTINUOUS
10
0.195840
20
-0.438847
30
0.0
11
0.194366
21
-0.437019
31
0.0
0
LINE
8
0
6
CONTINUOUS
10
0.194366
20
-0.437019
30
0.0
11
0.189214
21
-0.432803
31
0.0
0
LINE
8
0
6
CONTINUOUS
10
0.189214
20
-0.432803
30
0.0
11
0.183356
21
-0.429632
31
0.0
0
LINE
8
0
6
CONTINUOUS
10
0.183356
20
-0.429632
30
0.0
11
0.176926
21
-0.427611
31
0.0
0
LINE
8
0
6
CONTINUOUS
10
0.176926
20
-0.427611
30
0.0
11
0.170269
21
-0.426995
31
0.0
0
LINE
8
0
6
CONTINUOUS
10
0.179353
20
-0.438690
30
0.0
11
0.169782
21
-0.438604
31
0.0
0
LINE
8
0
6
CONTINUOUS
10
0.105183
20
-0.477159
30
0.0
11
0.162187
21
-0.476977
31
0.0
0
LINE
8
0
6
CONTINUOUS
10
0.095033
20
-0.438246
30
0.0
11
0.162189
21
-0.438536
31
0.0
0
LINE
8
0
6
CONTINUOUS
10
0.179354
20
-0.476827
30
0.0
11
0.200765
21
-0.476592
31
0.0
0
LINE
8
0
6
CONTINUOUS
10
0.179353
20
-0.438690
30
0.0
11
0.200765
21
-0.438894
31
0.0
0
LINE
8
0
6
CONTINUOUS
10
0.162187
20
-0.476977
30
0.0
11
0.169786
21
-0.476927
31
0.0
0
LINE
8
0
6
CONTINUOUS
10
0.162189
20
-0.438536
30
0.0
11
0.169782
21
-0.438604
31
0.0
0
LINE
8
0
6
CONTINUOUS
10
0.179354
20
-0.476827
30
0.0
11
0.169786
21
-0.476927
31
0.0
0
LINE
8
0
6
CONTINUOUS
10
0.200765
20
-0.476592
30
0.0
11
0.201024
21
-0.476590
31
0.0
0
LINE
8
0
6
CONTINUOUS
10
0.200765
20
-0.438894
30
0.0
11
0.201024
21
-0.438896
31
0.0
0
LINE
8
0
6
CONTINUOUS
10
0.201802
20
-0.476586
30
0.0
11
0.246080
21
-0.476133
31
0.0
0
LINE
8
0
6
CONTINUOUS
10
0.201801
20
-0.438899
30
0.0
11
0.226353
21
-0.439118
31
0.0
0
LINE
8
0
6
CONTINUOUS
10
0.201543
20
-0.476587
30
0.0
11
0.201802
21
-0.476586
31
0.0
0
LINE
8
0
6
CONTINUOUS
10
0.201283
20
-0.475552
30
0.0
11
0.201543
21
-0.476587
31
0.0
0
LINE
8
0
6
CONTINUOUS
10
0.201024
20
-0.476590
30
0.0
11
0.201283
21
-0.475552
31
0.0
0
LINE
8
0
6
CONTINUOUS
10
0.201542
20
-0.438898
30
0.0
11
0.201801
21
-0.438899
31
0.0
0
LINE
8
0
6
CONTINUOUS
10
0.201283
20
-0.439929
30
0.0
11
0.201542
21
-0.438898
31
0.0
0
LINE
8
0
6
CONTINUOUS
10
0.201024
20
-0.438896
30
0.0
11
0.201283
21
-0.439929
31
0.0
0
LINE
8
0
6
CONTINUOUS
10
0.246889
20
-0.476125
30
0.0
11
0.246080
21
-0.476133
31
0.0
0
LINE
8
0
6
CONTINUOUS
10
0.163634
20
-0.494294
30
0.0
11
0.170309
21
-0.494899
31
0.0
0
LINE
8
0
6
CONTINUOUS
10
0.246889
20
-0.475530
30
0.0
11
0.246889
21
-0.476125
31
0.0
0
LINE
8
0
6
CONTINUOUS
10
0.246889
20
-0.473712
30
0.0
11
0.246889
21
-0.475530
31
0.0
0
LINE
8
0
6
CONTINUOUS
10
0.246889
20
-0.470791
30
0.0
11
0.246889
21
-0.473712
31
0.0
0
LINE
8
0
6
CONTINUOUS
10
0.246889
20
-0.466970
30
0.0
11
0.246889
21
-0.470791
31
0.0
0
LINE
8
0
6
CONTINUOUS
10
0.246889
20
-0.462491
30
0.0
11
0.246889
21
-0.466970
31
0.0
0
LINE
8
0
6
CONTINUOUS
10
0.246889
20
-0.457684
30
0.0
11
0.246889
21
-0.462491
31
0.0
0
LINE
8
0
6
CONTINUOUS
10
0.246889
20
-0.452882
30
0.0
11
0.246889
21
-0.457684
31
0.0
0
LINE
8
0
6
CONTINUOUS
10
0.246889
20
-0.449247
30
0.0
11
0.246889
21
-0.452882
31
0.0
0
LINE
8
0
6
CONTINUOUS
10
0.226361
20
-0.438608
30
0.0
11
0.226923
21
-0.438616
31
0.0
0
LINE
8
0
6
CONTINUOUS
10
0.246889
20
-0.449589
30
0.0
11
0.247121
21
-0.449593
31
0.0
0
LINE
8
0
6
CONTINUOUS
10
0.246637
20
-0.438900
30
0.0
11
0.247182
21
-0.438913
31
0.0
0
LINE
8
0
6
CONTINUOUS
10
0.226923
20
-0.438616
30
0.0
11
0.246637
21
-0.438900
31
0.0
0
LINE
8
0
6
CONTINUOUS
10
0.226361
20
-0.438608
30
0.0
11
0.226353
21
-0.439118
31
0.0
0
LINE
8
0
6
CONTINUOUS
10
0.226353
20
-0.439129
30
0.0
11
0.226300
21
-0.444790
31
0.0
0
LINE
8
0
6
CONTINUOUS
10
0.247182
20
-0.442816
30
0.0
11
0.247174
21
-0.443931
31
0.0
0
LINE
8
0
6
CONTINUOUS
10
0.247188
20
-0.441407
30
0.0
11
0.247182
21
-0.442816
31
0.0
0
LINE
8
0
6
CONTINUOUS
10
0.247190
20
-0.440080
30
0.0
11
0.247188
21
-0.441407
31
0.0
0
LINE
8
0
6
CONTINUOUS
10
0.247182
20
-0.438913
30
0.0
11
0.247188
21
-0.439124
31
0.0
0
LINE
8
0
6
CONTINUOUS
10
0.247174
20
-0.443931
30
0.0
11
0.247121
21
-0.449593
31
0.0
0
LINE
8
0
6
CONTINUOUS
10
0.247188
20
-0.439124
30
0.0
11
0.247190
21
-0.440080
31
0.0
0
LINE
8
0
6
CONTINUOUS
10
-0.224909
20
0.447839
30
0.0
11
-0.224628
21
0.446764
31
0.0
0
LINE
8
0
6
CONTINUOUS
10
-0.225933
20
0.453507
30
0.0
11
-0.224909
21
0.447839
31
0.0
0
LINE
8
0
6
CONTINUOUS
10
-0.187919
20
0.369497
30
0.0
11
-0.186390
21
0.339410
31
0.0
0
LINE
8
0
6
CONTINUOUS
10
-0.189053
20
0.392496
30
0.0
11
-0.187919
21
0.369497
31
0.0
0
LINE
8
0
6
CONTINUOUS
10
-0.190125
20
0.410590
30
0.0
11
-0.189053
21
0.392496
31
0.0
0
LINE
8
0
6
CONTINUOUS
10
-0.190775
20
0.418692
30
0.0
11
-0.190125
21
0.410590
31
0.0
0
LINE
8
0
6
CONTINUOUS
10
-0.192286
20
0.421810
30
0.0
11
-0.189582
21
0.416301
31
0.0
0
LINE
8
0
6
CONTINUOUS
10
-0.219823
20
0.489030
30
0.0
11
-0.222377
21
0.485890
31
0.0
0
LINE
8
0
6
CONTINUOUS
10
-0.222377
20
0.485890
30
0.0
11
-0.223280
21
0.484665
31
0.0
0
LINE
8
0
6
CONTINUOUS
10
-0.226466
20
0.475561
30
0.0
11
-0.227020
21
0.470590
31
0.0
0
LINE
8
0
6
CONTINUOUS
10
-0.172781
20
0.500611
30
0.0
11
-0.185388
21
0.500277
31
0.0
0
LINE
8
0
6
CONTINUOUS
10
-0.185388
20
0.500277
30
0.0
11
-0.197757
21
0.499016
31
0.0
0
LINE
8
0
6
CONTINUOUS
10
-0.197757
20
0.499016
30
0.0
11
-0.206718
21
0.497205
31
0.0
0
LINE
8
0
6
CONTINUOUS
10
-0.218906
20
0.490118
30
0.0
11
-0.219823
21
0.489030
31
0.0
0
LINE
8
0
6
CONTINUOUS
10
-0.213514
20
0.494077
30
0.0
11
-0.218906
21
0.490118
31
0.0
0
LINE
8
0
6
CONTINUOUS
10
-0.206718
20
0.497205
30
0.0
11
-0.213514
21
0.494077
31
0.0
0
LINE
8
0
6
CONTINUOUS
10
-0.196684
20
0.425899
30
0.0
11
-0.192286
21
0.421810
31
0.0
0
LINE
8
0
6
CONTINUOUS
10
-0.216806
20
0.435652
30
0.0
11
-0.219742
21
0.438249
31
0.0
0
LINE
8
0
6
CONTINUOUS
10
-0.220291
20
0.438257
30
0.0
11
-0.217308
21
0.435664
31
0.0
0
LINE
8
0
6
CONTINUOUS
10
-0.209639
20
0.431970
30
0.0
11
-0.213294
21
0.433549
31
0.0
0
LINE
8
0
6
CONTINUOUS
10
-0.213766
20
0.433573
30
0.0
11
-0.210081
21
0.432006
31
0.0
0
LINE
8
0
6
CONTINUOUS
10
-0.198262
20
0.483813
30
0.0
11
-0.185533
21
0.485241
31
0.0
0
LINE
8
0
6
CONTINUOUS
10
-0.210081
20
0.432006
30
0.0
11
-0.201534
21
0.428870
31
0.0
0
LINE
8
0
6
CONTINUOUS
10
-0.201181
20
0.428784
30
0.0
11
-0.209639
21
0.431970
31
0.0
0
LINE
8
0
6
CONTINUOUS
10
-0.222177
20
0.441570
30
0.0
11
-0.223861
21
0.446715
31
0.0
0
LINE
8
0
6
CONTINUOUS
10
-0.224628
20
0.446764
30
0.0
11
-0.222773
21
0.441575
31
0.0
0
LINE
8
0
6
CONTINUOUS
10
-0.201534
20
0.428870
30
0.0
11
-0.196684
21
0.425899
31
0.0
0
LINE
8
0
6
CONTINUOUS
10
-0.186390
20
0.339410
30
0.0
11
-0.185131
21
0.325401
31
0.0
0
LINE
8
0
6
CONTINUOUS
10
-0.190775
20
0.418692
30
0.0
11
-0.190160
21
0.417357
31
0.0
0
LINE
8
0
6
CONTINUOUS
10
-0.175388
20
0.316987
30
0.0
11
-0.172781
21
0.316788
31
0.0
0
LINE
8
0
6
CONTINUOUS
10
-0.178207
20
0.317570
30
0.0
11
-0.175388
21
0.316987
31
0.0
0
LINE
8
0
6
CONTINUOUS
10
-0.180614
20
0.318496
30
0.0
11
-0.178207
21
0.317570
31
0.0
0
LINE
8
0
6
CONTINUOUS
10
-0.184457
20
0.322205
30
0.0
11
-0.184009
21
0.321359
31
0.0
0
LINE
8
0
6
CONTINUOUS
10
-0.184009
20
0.321359
30
0.0
11
-0.183400
21
0.320650
31
0.0
0
LINE
8
0
6
CONTINUOUS
10
-0.184923
20
0.323083
30
0.0
11
-0.184457
21
0.322205
31
0.0
0
LINE
8
0
6
CONTINUOUS
10
-0.183378
20
0.320625
30
0.0
11
-0.182749
21
0.319892
31
0.0
0
LINE
8
0
6
CONTINUOUS
10
-0.185131
20
0.325401
30
0.0
11
-0.185124
21
0.325274
31
0.0
0
LINE
8
0
6
CONTINUOUS
10
-0.185124
20
0.325274
30
0.0
11
-0.184923
21
0.323083
31
0.0
0
LINE
8
0
6
CONTINUOUS
10
-0.180902
20
0.403592
30
0.0
11
-0.184024
21
0.405713
31
0.0
0
LINE
8
0
6
CONTINUOUS
10
-0.176615
20
0.402611
30
0.0
11
-0.180902
21
0.403592
31
0.0
0
LINE
8
0
6
CONTINUOUS
10
-0.172781
20
0.402330
30
0.0
11
-0.176615
21
0.402611
31
0.0
0
LINE
8
0
6
CONTINUOUS
10
-0.184024
20
0.405713
30
0.0
11
-0.186279
21
0.413971
31
0.0
0
LINE
8
0
6
CONTINUOUS
10
-0.186279
20
0.413971
30
0.0
11
-0.189995
21
0.421369
31
0.0
0
LINE
8
0
6
CONTINUOUS
10
-0.196314
20
0.426037
30
0.0
11
-0.201181
21
0.428784
31
0.0
0
LINE
8
0
6
CONTINUOUS
10
-0.196528
20
0.426138
30
0.0
11
-0.196314
21
0.426037
31
0.0
0
LINE
8
0
6
CONTINUOUS
10
-0.212846
20
0.479306
30
0.0
11
-0.207176
21
0.481688
31
0.0
0
LINE
8
0
6
CONTINUOUS
10
-0.207176
20
0.481688
30
0.0
11
-0.198262
21
0.483813
31
0.0
0
LINE
8
0
6
CONTINUOUS
10
-0.185533
20
0.485241
30
0.0
11
-0.172781
21
0.485666
31
0.0
0
LINE
8
0
6
CONTINUOUS
10
-0.224838
20
0.457642
30
0.0
11
-0.224194
21
0.462492
31
0.0
0
LINE
8
0
6
CONTINUOUS
10
-0.217702
20
0.475922
30
0.0
11
-0.212846
21
0.479306
31
0.0
0
LINE
8
0
6
CONTINUOUS
10
-0.221038
20
0.471516
30
0.0
11
-0.217702
21
0.475922
31
0.0
0
LINE
8
0
6
CONTINUOUS
10
-0.223861
20
0.446715
30
0.0
11
-0.224818
21
0.452343
31
0.0
0
LINE
8
0
6
CONTINUOUS
10
-0.189995
20
0.421369
30
0.0
11
-0.192747
21
0.424519
31
0.0
0
LINE
8
0
6
CONTINUOUS
10
-0.192747
20
0.424519
30
0.0
11
-0.193076
21
0.424660
31
0.0
0
LINE
8
0
6
CONTINUOUS
10
-0.219742
20
0.438249
30
0.0
11
-0.222177
21
0.441570
31
0.0
0
LINE
8
0
6
CONTINUOUS
10
-0.222773
20
0.441575
30
0.0
11
-0.220291
21
0.438257
31
0.0
0
LINE
8
0
6
CONTINUOUS
10
-0.213294
20
0.433549
30
0.0
11
-0.216806
21
0.435652
31
0.0
0
LINE
8
0
6
CONTINUOUS
10
-0.217308
20
0.435664
30
0.0
11
-0.213766
21
0.433573
31
0.0
0
LINE
8
0
6
CONTINUOUS
10
-0.226796
20
0.465244
30
0.0
11
-0.226775
21
0.464745
31
0.0
0
LINE
8
0
6
CONTINUOUS
10
-0.227020
20
0.470590
30
0.0
11
-0.226796
21
0.465244
31
0.0
0
LINE
8
0
6
CONTINUOUS
10
-0.226552
20
0.458718
30
0.0
11
-0.225955
21
0.453692
31
0.0
0
LINE
8
0
6
CONTINUOUS
10
-0.226775
20
0.464745
30
0.0
11
-0.226552
21
0.458718
31
0.0
0
LINE
8
0
6
CONTINUOUS
10
-0.225955
20
0.453692
30
0.0
11
-0.225933
21
0.453507
31
0.0
0
LINE
8
0
6
CONTINUOUS
10
-0.224818
20
0.452343
30
0.0
11
-0.224838
21
0.457642
31
0.0
0
LINE
8
0
6
CONTINUOUS
10
-0.223280
20
0.484665
30
0.0
11
-0.225191
21
0.480301
31
0.0
0
LINE
8
0
6
CONTINUOUS
10
-0.222828
20
0.467109
30
0.0
11
-0.221038
21
0.471516
31
0.0
0
LINE
8
0
6
CONTINUOUS
10
-0.225191
20
0.480301
30
0.0
11
-0.226466
21
0.475561
31
0.0
0
LINE
8
0
6
CONTINUOUS
10
-0.224194
20
0.462492
30
0.0
11
-0.222828
21
0.467109
31
0.0
0
LINE
8
0
6
CONTINUOUS
10
-0.120653
20
0.447838
30
0.0
11
-0.119629
21
0.453506
31
0.0
0
LINE
8
0
6
CONTINUOUS
10
-0.120934
20
0.446763
30
0.0
11
-0.120653
21
0.447838
31
0.0
0
LINE
8
0
6
CONTINUOUS
10
-0.159171
20
0.339410
30
0.0
11
-0.157642
21
0.369497
31
0.0
0
LINE
8
0
6
CONTINUOUS
10
-0.157642
20
0.369497
30
0.0
11
-0.156508
21
0.392496
31
0.0
0
LINE
8
0
6
CONTINUOUS
10
-0.156508
20
0.392496
30
0.0
11
-0.155436
21
0.410590
31
0.0
0
LINE
8
0
6
CONTINUOUS
10
-0.155436
20
0.410590
30
0.0
11
-0.154786
21
0.418693
31
0.0
0
LINE
8
0
6
CONTINUOUS
10
-0.155979
20
0.416301
30
0.0
11
-0.153276
21
0.421810
31
0.0
0
LINE
8
0
6
CONTINUOUS
10
-0.123184
20
0.485890
30
0.0
11
-0.125739
21
0.489030
31
0.0
0
LINE
8
0
6
CONTINUOUS
10
-0.122282
20
0.484665
30
0.0
11
-0.123184
21
0.485890
31
0.0
0
LINE
8
0
6
CONTINUOUS
10
-0.118541
20
0.470590
30
0.0
11
-0.119095
21
0.475561
31
0.0
0
LINE
8
0
6
CONTINUOUS
10
-0.160174
20
0.500277
30
0.0
11
-0.172781
21
0.500611
31
0.0
0
LINE
8
0
6
CONTINUOUS
10
-0.147805
20
0.499015
30
0.0
11
-0.160174
21
0.500277
31
0.0
0
LINE
8
0
6
CONTINUOUS
10
-0.138844
20
0.497204
30
0.0
11
-0.147805
21
0.499015
31
0.0
0
LINE
8
0
6
CONTINUOUS
10
-0.126656
20
0.490117
30
0.0
11
-0.132048
21
0.494077
31
0.0
0
LINE
8
0
6
CONTINUOUS
10
-0.125739
20
0.489030
30
0.0
11
-0.126656
21
0.490117
31
0.0
0
LINE
8
0
6
CONTINUOUS
10
-0.132048
20
0.494077
30
0.0
11
-0.138844
21
0.497204
31
0.0
0
LINE
8
0
6
CONTINUOUS
10
-0.153276
20
0.421810
30
0.0
11
-0.148878
21
0.425899
31
0.0
0
LINE
8
0
6
CONTINUOUS
10
-0.128254
20
0.435663
30
0.0
11
-0.125271
21
0.438256
31
0.0
0
LINE
8
0
6
CONTINUOUS
10
-0.125820
20
0.438248
30
0.0
11
-0.128755
21
0.435652
31
0.0
0
LINE
8
0
6
CONTINUOUS
10
-0.135481
20
0.432005
30
0.0
11
-0.131796
21
0.433573
31
0.0
0
LINE
8
0
6
CONTINUOUS
10
-0.132267
20
0.433549
30
0.0
11
-0.135922
21
0.431969
31
0.0
0
LINE
8
0
6
CONTINUOUS
10
-0.160030
20
0.485241
30
0.0
11
-0.147300
21
0.483812
31
0.0
0
LINE
8
0
6
CONTINUOUS
10
-0.135922
20
0.431969
30
0.0
11
-0.144380
21
0.428783
31
0.0
0
LINE
8
0
6
CONTINUOUS
10
-0.144027
20
0.428870
30
0.0
11
-0.135481
21
0.432005
31
0.0
0
LINE
8
0
6
CONTINUOUS
10
-0.122788
20
0.441574
30
0.0
11
-0.120934
21
0.446763
31
0.0
0
LINE
8
0
6
CONTINUOUS
10
-0.121701
20
0.446714
30
0.0
11
-0.123385
21
0.441570
31
0.0
0
LINE
8
0
6
CONTINUOUS
10
-0.148878
20
0.425899
30
0.0
11
-0.144027
21
0.428870
31
0.0
0
LINE
8
0
6
CONTINUOUS
10
-0.160430
20
0.325401
30
0.0
11
-0.159171
21
0.339410
31
0.0
0
LINE
8
0
6
CONTINUOUS
10
-0.155401
20
0.417357
30
0.0
11
-0.154786
21
0.418693
31
0.0
0
LINE
8
0
6
CONTINUOUS
10
-0.172781
20
0.316788
30
0.0
11
-0.170173
21
0.316987
31
0.0
0
LINE
8
0
6
CONTINUOUS
10
-0.170173
20
0.316987
30
0.0
11
-0.167354
21
0.317570
31
0.0
0
LINE
8
0
6
CONTINUOUS
10
-0.167354
20
0.317570
30
0.0
11
-0.164947
21
0.318496
31
0.0
0
LINE
8
0
6
CONTINUOUS
10
-0.161552
20
0.321359
30
0.0
11
-0.161104
21
0.322205
31
0.0
0
LINE
8
0
6
CONTINUOUS
10
-0.162182
20
0.320625
30
0.0
11
-0.161552
21
0.321359
31
0.0
0
LINE
8
0
6
CONTINUOUS
10
-0.161104
20
0.322205
30
0.0
11
-0.160638
21
0.323083
31
0.0
0
LINE
8
0
6
CONTINUOUS
10
-0.162812
20
0.319892
30
0.0
11
-0.162182
21
0.320625
31
0.0
0
LINE
8
0
6
CONTINUOUS
10
-0.160638
20
0.323083
30
0.0
11
-0.160437
21
0.325274
31
0.0
0
LINE
8
0
6
CONTINUOUS
10
-0.160437
20
0.325274
30
0.0
11
-0.160430
21
0.325401
31
0.0
0
LINE
8
0
6
CONTINUOUS
10
-0.161537
20
0.405713
30
0.0
11
-0.164659
21
0.403592
31
0.0
0
LINE
8
0
6
CONTINUOUS
10
-0.164659
20
0.403592
30
0.0
11
-0.168947
21
0.402611
31
0.0
0
LINE
8
0
6
CONTINUOUS
10
-0.168947
20
0.402611
30
0.0
11
-0.172781
21
0.402330
31
0.0
0
LINE
8
0
6
CONTINUOUS
10
-0.159282
20
0.413970
30
0.0
11
-0.161537
21
0.405713
31
0.0
0
LINE
8
0
6
CONTINUOUS
10
-0.155555
20
0.421368
30
0.0
11
-0.159282
21
0.413970
31
0.0
0
LINE
8
0
6
CONTINUOUS
10
-0.149248
20
0.426037
30
0.0
11
-0.149033
21
0.426138
31
0.0
0
LINE
8
0
6
CONTINUOUS
10
-0.144380
20
0.428783
30
0.0
11
-0.149248
21
0.426037
31
0.0
0
LINE
8
0
6
CONTINUOUS
10
-0.138387
20
0.481688
30
0.0
11
-0.132716
21
0.479305
31
0.0
0
LINE
8
0
6
CONTINUOUS
10
-0.147300
20
0.483812
30
0.0
11
-0.138387
21
0.481688
31
0.0
0
LINE
8
0
6
CONTINUOUS
10
-0.172781
20
0.485666
30
0.0
11
-0.160030
21
0.485241
31
0.0
0
LINE
8
0
6
CONTINUOUS
10
-0.121368
20
0.462491
30
0.0
11
-0.120723
21
0.457642
31
0.0
0
LINE
8
0
6
CONTINUOUS
10
-0.132716
20
0.479305
30
0.0
11
-0.127861
21
0.475922
31
0.0
0
LINE
8
0
6
CONTINUOUS
10
-0.127861
20
0.475922
30
0.0
11
-0.124524
21
0.471515
31
0.0
0
LINE
8
0
6
CONTINUOUS
10
-0.120744
20
0.452342
30
0.0
11
-0.121701
21
0.446714
31
0.0
0
LINE
8
0
6
CONTINUOUS
10
-0.152491
20
0.424657
30
0.0
11
-0.152815
21
0.424519
31
0.0
0
LINE
8
0
6
CONTINUOUS
10
-0.152815
20
0.424519
30
0.0
11
-0.155555
21
0.421368
31
0.0
0
LINE
8
0
6
CONTINUOUS
10
-0.125271
20
0.438256
30
0.0
11
-0.122788
21
0.441574
31
0.0
0
LINE
8
0
6
CONTINUOUS
10
-0.123385
20
0.441570
30
0.0
11
-0.125820
21
0.438248
31
0.0
0
LINE
8
0
6
CONTINUOUS
10
-0.131796
20
0.433573
30
0.0
11
-0.128254
21
0.435663
31
0.0
0
LINE
8
0
6
CONTINUOUS
10
-0.128755
20
0.435652
30
0.0
11
-0.132267
21
0.433549
31
0.0
0
LINE
8
0
6
CONTINUOUS
10
-0.118766
20
0.465243
30
0.0
11
-0.118541
21
0.470590
31
0.0
0
LINE
8
0
6
CONTINUOUS
10
-0.118786
20
0.464744
30
0.0
11
-0.118766
21
0.465243
31
0.0
0
LINE
8
0
6
CONTINUOUS
10
-0.119607
20
0.453692
30
0.0
11
-0.119010
21
0.458718
31
0.0
0
LINE
8
0
6
CONTINUOUS
10
-0.119010
20
0.458718
30
0.0
11
-0.118786
21
0.464744
31
0.0
0
LINE
8
0
6
CONTINUOUS
10
-0.119629
20
0.453506
30
0.0
11
-0.119607
21
0.453692
31
0.0
0
LINE
8
0
6
CONTINUOUS
10
-0.120723
20
0.457642
30
0.0
11
-0.120744
21
0.452342
31
0.0
0
LINE
8
0
6
CONTINUOUS
10
-0.120371
20
0.480300
30
0.0
11
-0.122282
21
0.484665
31
0.0
0
LINE
8
0
6
CONTINUOUS
10
-0.124524
20
0.471515
30
0.0
11
-0.122734
21
0.467109
31
0.0
0
LINE
8
0
6
CONTINUOUS
10
-0.119095
20
0.475561
30
0.0
11
-0.120371
21
0.480300
31
0.0
0
LINE
8
0
6
CONTINUOUS
10
-0.122734
20
0.467109
30
0.0
11
-0.121368
21
0.462491
31
0.0
0
LINE
8
0
6
CONTINUOUS
10
-0.162579
20
0.296574
30
0.0
11
-0.161060
21
0.320805
31
0.0
0
LINE
8
0
6
CONTINUOUS
10
-0.184501
20
0.320805
30
0.0
11
-0.184232
21
0.316512
31
0.0
0
LINE
8
0
6
CONTINUOUS
10
-0.184501
20
0.322540
30
0.0
11
-0.184501
21
0.320805
31
0.0
0
LINE
8
0
6
CONTINUOUS
10
-0.161060
20
0.320805
30
0.0
11
-0.161060
21
0.322539
31
0.0
0
LINE
8
0
6
CONTINUOUS
10
-0.163969
20
0.293598
30
0.0
11
-0.162952
21
0.294829
31
0.0
0
LINE
8
0
6
CONTINUOUS
10
-0.162606
20
0.296150
30
0.0
11
-0.162579
21
0.296574
31
0.0
0
LINE
8
0
6
CONTINUOUS
10
-0.162952
20
0.294829
30
0.0
11
-0.162606
21
0.296150
31
0.0
0
LINE
8
0
6
CONTINUOUS
10
-0.164984
20
0.292935
30
0.0
11
-0.163969
21
0.293598
31
0.0
0
LINE
8
0
6
CONTINUOUS
10
-0.209639
20
0.431970
30
0.0
11
-0.201181
21
0.428784
31
0.0
0
LINE
8
0
6
CONTINUOUS
10
-0.185533
20
0.485241
30
0.0
11
-0.198262
21
0.483813
31
0.0
0
LINE
8
0
6
CONTINUOUS
10
-0.186552
20
0.425640
30
0.0
11
-0.179755
21
0.425740
31
0.0
0
LINE
8
0
6
CONTINUOUS
10
-0.196314
20
0.426037
30
0.0
11
-0.193076
21
0.424660
31
0.0
0
LINE
8
0
6
CONTINUOUS
10
-0.201181
20
0.428784
30
0.0
11
-0.196314
21
0.426037
31
0.0
0
LINE
8
0
6
CONTINUOUS
10
-0.221038
20
0.471516
30
0.0
11
-0.222828
21
0.467109
31
0.0
0
LINE
8
0
6
CONTINUOUS
10
-0.207176
20
0.481688
30
0.0
11
-0.212846
21
0.479306
31
0.0
0
LINE
8
0
6
CONTINUOUS
10
-0.212846
20
0.479306
30
0.0
11
-0.217702
21
0.475922
31
0.0
0
LINE
8
0
6
CONTINUOUS
10
-0.198262
20
0.483813
30
0.0
11
-0.207176
21
0.481688
31
0.0
0
LINE
8
0
6
CONTINUOUS
10
-0.172781
20
0.485666
30
0.0
11
-0.185533
21
0.485241
31
0.0
0
LINE
8
0
6
CONTINUOUS
10
-0.224194
20
0.462492
30
0.0
11
-0.224838
21
0.457642
31
0.0
0
LINE
8
0
6
CONTINUOUS
10
-0.224818
20
0.452343
30
0.0
11
-0.223861
21
0.446715
31
0.0
0
LINE
8
0
6
CONTINUOUS
10
-0.223861
20
0.446715
30
0.0
11
-0.222177
21
0.441570
31
0.0
0
LINE
8
0
6
CONTINUOUS
10
-0.219742
20
0.438249
30
0.0
11
-0.216806
21
0.435652
31
0.0
0
LINE
8
0
6
CONTINUOUS
10
-0.216806
20
0.435652
30
0.0
11
-0.213294
21
0.433549
31
0.0
0
LINE
8
0
6
CONTINUOUS
10
-0.179755
20
0.425740
30
0.0
11
-0.172781
21
0.425762
31
0.0
0
LINE
8
0
6
CONTINUOUS
10
-0.192747
20
0.424519
30
0.0
11
-0.186552
21
0.425640
31
0.0
0
LINE
8
0
6
CONTINUOUS
10
-0.193076
20
0.424660
30
0.0
11
-0.192747
21
0.424519
31
0.0
0
LINE
8
0
6
CONTINUOUS
10
-0.222177
20
0.441570
30
0.0
11
-0.219742
21
0.438249
31
0.0
0
LINE
8
0
6
CONTINUOUS
10
-0.213294
20
0.433549
30
0.0
11
-0.209639
21
0.431970
31
0.0
0
LINE
8
0
6
CONTINUOUS
10
-0.224838
20
0.457642
30
0.0
11
-0.224818
21
0.452343
31
0.0
0
LINE
8
0
6
CONTINUOUS
10
-0.217702
20
0.475922
30
0.0
11
-0.221038
21
0.471516
31
0.0
0
LINE
8
0
6
CONTINUOUS
10
-0.222828
20
0.467109
30
0.0
11
-0.224194
21
0.462492
31
0.0
0
LINE
8
0
6
CONTINUOUS
10
-0.144380
20
0.428783
30
0.0
11
-0.135922
21
0.431969
31
0.0
0
LINE
8
0
6
CONTINUOUS
10
-0.147300
20
0.483812
30
0.0
11
-0.160030
21
0.485241
31
0.0
0
LINE
8
0
6
CONTINUOUS
10
-0.165806
20
0.425740
30
0.0
11
-0.159010
21
0.425640
31
0.0
0
LINE
8
0
6
CONTINUOUS
10
-0.149248
20
0.426037
30
0.0
11
-0.144380
21
0.428783
31
0.0
0
LINE
8
0
6
CONTINUOUS
10
-0.152491
20
0.424657
30
0.0
11
-0.149248
21
0.426037
31
0.0
0
LINE
8
0
6
CONTINUOUS
10
-0.122734
20
0.467109
30
0.0
11
-0.124524
21
0.471515
31
0.0
0
LINE
8
0
6
CONTINUOUS
10
-0.127861
20
0.475922
30
0.0
11
-0.132716
21
0.479305
31
0.0
0
LINE
8
0
6
CONTINUOUS
10
-0.132716
20
0.479305
30
0.0
11
-0.138387
21
0.481688
31
0.0
0
LINE
8
0
6
CONTINUOUS
10
-0.138387
20
0.481688
30
0.0
11
-0.147300
21
0.483812
31
0.0
0
LINE
8
0
6
CONTINUOUS
10
-0.160030
20
0.485241
30
0.0
11
-0.172781
21
0.485666
31
0.0
0
LINE
8
0
6
CONTINUOUS
10
-0.120723
20
0.457642
30
0.0
11
-0.121368
21
0.462491
31
0.0
0
LINE
8
0
6
CONTINUOUS
10
-0.121701
20
0.446714
30
0.0
11
-0.120744
21
0.452342
31
0.0
0
LINE
8
0
6
CONTINUOUS
10
-0.123385
20
0.441570
30
0.0
11
-0.121701
21
0.446714
31
0.0
0
LINE
8
0
6
CONTINUOUS
10
-0.128755
20
0.435652
30
0.0
11
-0.125820
21
0.438248
31
0.0
0
LINE
8
0
6
CONTINUOUS
10
-0.132267
20
0.433549
30
0.0
11
-0.128755
21
0.435652
31
0.0
0
LINE
8
0
6
CONTINUOUS
10
-0.172781
20
0.425762
30
0.0
11
-0.165806
21
0.425740
31
0.0
0
LINE
8
0
6
CONTINUOUS
10
-0.152815
20
0.424519
30
0.0
11
-0.152491
21
0.424657
31
0.0
0
LINE
8
0
6
CONTINUOUS
10
-0.159010
20
0.425640
30
0.0
11
-0.152815
21
0.424519
31
0.0
0
LINE
8
0
6
CONTINUOUS
10
-0.125820
20
0.438248
30
0.0
11
-0.123385
21
0.441570
31
0.0
0
LINE
8
0
6
CONTINUOUS
10
-0.135922
20
0.431969
30
0.0
11
-0.132267
21
0.433549
31
0.0
0
LINE
8
0
6
CONTINUOUS
10
-0.120744
20
0.452342
30
0.0
11
-0.120723
21
0.457642
31
0.0
0
LINE
8
0
6
CONTINUOUS
10
-0.124524
20
0.471515
30
0.0
11
-0.127861
21
0.475922
31
0.0
0
LINE
8
0
6
CONTINUOUS
10
-0.121368
20
0.462491
30
0.0
11
-0.122734
21
0.467109
31
0.0
0
LINE
8
0
6
CONTINUOUS
10
-0.176615
20
0.402611
30
0.0
11
-0.172781
21
0.402330
31
0.0
0
LINE
8
0
6
CONTINUOUS
10
-0.192088
20
0.424309
30
0.0
11
-0.186417
21
0.425331
31
0.0
0
LINE
8
0
6
CONTINUOUS
10
-0.192417
20
0.424763
30
0.0
11
-0.192088
21
0.424309
31
0.0
0
LINE
8
0
6
CONTINUOUS
10
-0.164659
20
0.403592
30
0.0
11
-0.161537
21
0.405713
31
0.0
0
LINE
8
0
6
CONTINUOUS
10
-0.168947
20
0.402611
30
0.0
11
-0.164659
21
0.403592
31
0.0
0
LINE
8
0
6
CONTINUOUS
10
-0.172781
20
0.402330
30
0.0
11
-0.168947
21
0.402611
31
0.0
0
LINE
8
0
6
CONTINUOUS
10
-0.161537
20
0.405713
30
0.0
11
-0.159282
21
0.413970
31
0.0
0
LINE
8
0
6
CONTINUOUS
10
-0.159282
20
0.413970
30
0.0
11
-0.155555
21
0.421368
31
0.0
0
LINE
8
0
6
CONTINUOUS
10
-0.155555
20
0.421368
30
0.0
11
-0.152815
21
0.424519
31
0.0
0
LINE
8
0
6
CONTINUOUS
10
-0.180902
20
0.403592
30
0.0
11
-0.176615
21
0.402611
31
0.0
0
LINE
8
0
6
CONTINUOUS
10
-0.189995
20
0.421369
30
0.0
11
-0.186279
21
0.413971
31
0.0
0
LINE
8
0
6
CONTINUOUS
10
-0.184024
20
0.405713
30
0.0
11
-0.180902
21
0.403592
31
0.0
0
LINE
8
0
6
CONTINUOUS
10
-0.192747
20
0.424519
30
0.0
11
-0.189995
21
0.421369
31
0.0
0
LINE
8
0
6
CONTINUOUS
10
-0.186279
20
0.413971
30
0.0
11
-0.184024
21
0.405713
31
0.0
0
LINE
8
0
6
CONTINUOUS
10
-0.179684
20
0.425429
30
0.0
11
-0.172775
21
0.425448
31
0.0
0
LINE
8
0
6
CONTINUOUS
10
-0.183625
20
0.405908
30
0.0
11
-0.185771
21
0.413839
31
0.0
0
LINE
8
0
6
CONTINUOUS
10
-0.183825
20
0.406159
30
0.0
11
-0.183625
21
0.405908
31
0.0
0
LINE
8
0
6
CONTINUOUS
10
-0.185771
20
0.413839
30
0.0
11
-0.189337
21
0.421178
31
0.0
0
LINE
8
0
6
CONTINUOUS
10
-0.161924
20
0.405908
30
0.0
11
-0.161725
21
0.406159
31
0.0
0
LINE
8
0
6
CONTINUOUS
10
-0.159778
20
0.413839
30
0.0
11
-0.161924
21
0.405908
31
0.0
0
LINE
8
0
6
CONTINUOUS
10
-0.156213
20
0.421177
30
0.0
11
-0.159778
21
0.413839
31
0.0
0
LINE
8
0
6
CONTINUOUS
10
-0.165866
20
0.425429
30
0.0
11
-0.159133
21
0.425331
31
0.0
0
LINE
8
0
6
CONTINUOUS
10
-0.172775
20
0.425448
30
0.0
11
-0.165866
21
0.425429
31
0.0
0
LINE
8
0
6
CONTINUOUS
10
-0.153462
20
0.424309
30
0.0
11
-0.153132
21
0.424763
31
0.0
0
LINE
8
0
6
CONTINUOUS
10
-0.159133
20
0.425331
30
0.0
11
-0.153462
21
0.424309
31
0.0
0
LINE
8
0
6
CONTINUOUS
10
-0.186417
20
0.425331
30
0.0
11
-0.179684
21
0.425429
31
0.0
0
LINE
8
0
6
CONTINUOUS
10
-0.168922
20
0.403027
30
0.0
11
-0.164603
21
0.404091
31
0.0
0
LINE
8
0
6
CONTINUOUS
10
-0.176628
20
0.403027
30
0.0
11
-0.172788
21
0.402737
31
0.0
0
LINE
8
0
6
CONTINUOUS
10
-0.159133
20
0.425331
30
0.0
11
-0.165866
21
0.425429
31
0.0
0
LINE
8
0
6
CONTINUOUS
10
-0.165866
20
0.425429
30
0.0
11
-0.172775
21
0.425448
31
0.0
0
LINE
8
0
6
CONTINUOUS
10
-0.159778
20
0.413839
30
0.0
11
-0.156213
21
0.421177
31
0.0
0
LINE
8
0
6
CONTINUOUS
10
-0.156213
20
0.421177
30
0.0
11
-0.153462
21
0.424309
31
0.0
0
LINE
8
0
6
CONTINUOUS
10
-0.153462
20
0.424309
30
0.0
11
-0.159133
21
0.425331
31
0.0
0
LINE
8
0
6
CONTINUOUS
10
-0.180947
20
0.404091
30
0.0
11
-0.176628
21
0.403027
31
0.0
0
LINE
8
0
6
CONTINUOUS
10
-0.189337
20
0.421178
30
0.0
11
-0.185771
21
0.413839
31
0.0
0
LINE
8
0
6
CONTINUOUS
10
-0.161924
20
0.405908
30
0.0
11
-0.159778
21
0.413839
31
0.0
0
LINE
8
0
6
CONTINUOUS
10
-0.164603
20
0.404091
30
0.0
11
-0.161924
21
0.405908
31
0.0
0
LINE
8
0
6
CONTINUOUS
10
-0.186417
20
0.425331
30
0.0
11
-0.192088
21
0.424309
31
0.0
0
LINE
8
0
6
CONTINUOUS
10
-0.192088
20
0.424309
30
0.0
11
-0.189337
21
0.421178
31
0.0
0
LINE
8
0
6
CONTINUOUS
10
-0.172788
20
0.402737
30
0.0
11
-0.168922
21
0.403027
31
0.0
0
LINE
8
0
6
CONTINUOUS
10
-0.183625
20
0.405908
30
0.0
11
-0.180947
21
0.404091
31
0.0
0
LINE
8
0
6
CONTINUOUS
10
-0.185771
20
0.413839
30
0.0
11
-0.183625
21
0.405908
31
0.0
0
LINE
8
0
6
CONTINUOUS
10
-0.179684
20
0.425429
30
0.0
11
-0.186417
21
0.425331
31
0.0
0
LINE
8
0
6
CONTINUOUS
10
-0.172775
20
0.425448
30
0.0
11
-0.179684
21
0.425429
31
0.0
0
LINE
8
0
6
CONTINUOUS
10
-0.219443
20
0.446919
30
0.0
11
-0.219068
21
0.448123
31
0.0
0
LINE
8
0
6
CONTINUOUS
10
-0.219443
20
0.448103
30
0.0
11
-0.219443
21
0.446919
31
0.0
0
LINE
8
0
6
CONTINUOUS
10
-0.215447
20
0.447748
30
0.0
11
-0.215447
21
0.448080
31
0.0
0
LINE
8
0
6
CONTINUOUS
10
-0.217069
20
0.448538
30
0.0
11
-0.215447
21
0.447748
31
0.0
0
LINE
8
0
6
CONTINUOUS
10
-0.217078
20
0.463066
30
0.0
11
-0.215182
21
0.463617
31
0.0
0
LINE
8
0
6
CONTINUOUS
10
-0.215182
20
0.463617
30
0.0
11
-0.213405
21
0.462947
31
0.0
0
LINE
8
0
6
CONTINUOUS
10
-0.217197
20
0.461845
30
0.0
11
-0.217078
21
0.463066
31
0.0
0
LINE
8
0
6
CONTINUOUS
10
-0.217197
20
0.462738
30
0.0
11
-0.217197
21
0.461845
31
0.0
0
LINE
8
0
6
CONTINUOUS
10
-0.210188
20
0.469691
30
0.0
11
-0.208133
21
0.470000
31
0.0
0
LINE
8
0
6
CONTINUOUS
10
-0.210751
20
0.468512
30
0.0
11
-0.210188
21
0.469691
31
0.0
0
LINE
8
0
6
CONTINUOUS
10
-0.210751
20
0.469528
30
0.0
11
-0.210751
21
0.468512
31
0.0
0
LINE
8
0
6
CONTINUOUS
10
-0.173001
20
0.479778
30
0.0
11
-0.171563
21
0.478878
31
0.0
0
LINE
8
0
6
CONTINUOUS
10
-0.175709
20
0.478344
30
0.0
11
-0.175074
21
0.479511
31
0.0
0
LINE
8
0
6
CONTINUOUS
10
-0.175709
20
0.478840
30
0.0
11
-0.175709
21
0.478344
31
0.0
0
LINE
8
0
6
CONTINUOUS
10
-0.200074
20
0.475018
30
0.0
11
-0.197952
21
0.475071
31
0.0
0
LINE
8
0
6
CONTINUOUS
10
-0.197952
20
0.475071
30
0.0
11
-0.196811
21
0.474039
31
0.0
0
LINE
8
0
6
CONTINUOUS
10
-0.187071
20
0.478185
30
0.0
11
-0.184977
21
0.477980
31
0.0
0
LINE
8
0
6
CONTINUOUS
10
-0.184977
20
0.477980
30
0.0
11
-0.184239
21
0.476833
31
0.0
0
LINE
8
0
6
CONTINUOUS
10
-0.188427
20
0.477244
30
0.0
11
-0.187071
21
0.478185
31
0.0
0
LINE
8
0
6
CONTINUOUS
10
-0.188427
20
0.477986
30
0.0
11
-0.188427
21
0.477244
31
0.0
0
LINE
8
0
6
CONTINUOUS
10
-0.220287
20
0.455395
30
0.0
11
-0.218665
21
0.456184
31
0.0
0
LINE
8
0
6
CONTINUOUS
10
-0.220287
20
0.456527
30
0.0
11
-0.220287
21
0.455395
31
0.0
0
LINE
8
0
6
CONTINUOUS
10
-0.216666
20
0.455770
30
0.0
11
-0.216291
21
0.454566
31
0.0
0
LINE
8
0
6
CONTINUOUS
10
-0.186298
20
0.448957
30
0.0
11
-0.184402
21
0.449509
31
0.0
0
LINE
8
0
6
CONTINUOUS
10
-0.184402
20
0.449509
30
0.0
11
-0.182625
21
0.448839
31
0.0
0
LINE
8
0
6
CONTINUOUS
10
-0.186417
20
0.447736
30
0.0
11
-0.186298
21
0.448957
31
0.0
0
LINE
8
0
6
CONTINUOUS
10
-0.186417
20
0.448648
30
0.0
11
-0.186417
21
0.447736
31
0.0
0
LINE
8
0
6
CONTINUOUS
10
-0.192454
20
0.451246
30
0.0
11
-0.190558
21
0.451798
31
0.0
0
LINE
8
0
6
CONTINUOUS
10
-0.192573
20
0.450025
30
0.0
11
-0.192454
21
0.451246
31
0.0
0
LINE
8
0
6
CONTINUOUS
10
-0.192573
20
0.451153
30
0.0
11
-0.192573
21
0.450025
31
0.0
0
LINE
8
0
6
CONTINUOUS
10
-0.198610
20
0.453889
30
0.0
11
-0.196714
21
0.454440
31
0.0
0
LINE
8
0
6
CONTINUOUS
10
-0.198729
20
0.452668
30
0.0
11
-0.198610
21
0.453889
31
0.0
0
LINE
8
0
6
CONTINUOUS
10
-0.198729
20
0.453677
30
0.0
11
-0.198729
21
0.452668
31
0.0
0
LINE
8
0
6
CONTINUOUS
10
-0.204766
20
0.456750
30
0.0
11
-0.202870
21
0.457302
31
0.0
0
LINE
8
0
6
CONTINUOUS
10
-0.202870
20
0.457302
30
0.0
11
-0.201093
21
0.456632
31
0.0
0
LINE
8
0
6
CONTINUOUS
10
-0.204885
20
0.455529
30
0.0
11
-0.204766
21
0.456750
31
0.0
0
LINE
8
0
6
CONTINUOUS
10
-0.204885
20
0.456740
30
0.0
11
-0.204885
21
0.455529
31
0.0
0
LINE
8
0
6
CONTINUOUS
10
-0.210922
20
0.459679
30
0.0
11
-0.209026
21
0.460230
31
0.0
0
LINE
8
0
6
CONTINUOUS
10
-0.209026
20
0.460230
30
0.0
11
-0.207249
21
0.459561
31
0.0
0
LINE
8
0
6
CONTINUOUS
10
-0.211041
20
0.458458
30
0.0
11
-0.210922
21
0.459679
31
0.0
0
LINE
8
0
6
CONTINUOUS
10
-0.211041
20
0.459684
30
0.0
11
-0.211041
21
0.458458
31
0.0
0
LINE
8
0
6
CONTINUOUS
10
-0.180388
20
0.454490
30
0.0
11
-0.178333
21
0.454799
31
0.0
0
LINE
8
0
6
CONTINUOUS
10
-0.180951
20
0.453311
30
0.0
11
-0.180388
21
0.454490
31
0.0
0
LINE
8
0
6
CONTINUOUS
10
-0.180951
20
0.454108
30
0.0
11
-0.180951
21
0.453311
31
0.0
0
LINE
8
0
6
CONTINUOUS
10
-0.184293
20
0.457472
30
0.0
11
-0.182801
21
0.456601
31
0.0
0
LINE
8
0
6
CONTINUOUS
10
-0.192308
20
0.460066
30
0.0
11
-0.190253
21
0.460375
31
0.0
0
LINE
8
0
6
CONTINUOUS
10
-0.190253
20
0.460375
30
0.0
11
-0.188761
21
0.459505
31
0.0
0
LINE
8
0
6
CONTINUOUS
10
-0.192871
20
0.458887
30
0.0
11
-0.192308
21
0.460066
31
0.0
0
LINE
8
0
6
CONTINUOUS
10
-0.192871
20
0.459872
30
0.0
11
-0.192871
21
0.458887
31
0.0
0
LINE
8
0
6
CONTINUOUS
10
-0.198268
20
0.462993
30
0.0
11
-0.196213
21
0.463302
31
0.0
0
LINE
8
0
6
CONTINUOUS
10
-0.196213
20
0.463302
30
0.0
11
-0.194721
21
0.462432
31
0.0
0
LINE
8
0
6
CONTINUOUS
10
-0.198831
20
0.461814
30
0.0
11
-0.198268
21
0.462993
31
0.0
0
LINE
8
0
6
CONTINUOUS
10
-0.198831
20
0.462874
30
0.0
11
-0.198831
21
0.461814
31
0.0
0
LINE
8
0
6
CONTINUOUS
10
-0.204228
20
0.466436
30
0.0
11
-0.202173
21
0.466745
31
0.0
0
LINE
8
0
6
CONTINUOUS
10
-0.202173
20
0.466745
30
0.0
11
-0.200681
21
0.465875
31
0.0
0
LINE
8
0
6
CONTINUOUS
10
-0.204791
20
0.465257
30
0.0
11
-0.204228
21
0.466436
31
0.0
0
LINE
8
0
6
CONTINUOUS
10
-0.204791
20
0.466339
30
0.0
11
-0.204791
21
0.465257
31
0.0
0
LINE
8
0
6
CONTINUOUS
10
-0.174693
20
0.459828
30
0.0
11
-0.172571
21
0.459881
31
0.0
0
LINE
8
0
6
CONTINUOUS
10
-0.172571
20
0.459881
30
0.0
11
-0.171430
21
0.458849
31
0.0
0
LINE
8
0
6
CONTINUOUS
10
-0.175674
20
0.458743
30
0.0
11
-0.175147
21
0.459326
31
0.0
0
LINE
8
0
6
CONTINUOUS
10
-0.175147
20
0.459326
30
0.0
11
-0.174693
21
0.459828
31
0.0
0
LINE
8
0
6
CONTINUOUS
10
-0.187383
20
0.466908
30
0.0
11
-0.185261
21
0.466960
31
0.0
0
LINE
8
0
6
CONTINUOUS
10
-0.185261
20
0.466960
30
0.0
11
-0.184121
21
0.465929
31
0.0
0
LINE
8
0
6
CONTINUOUS
10
-0.188365
20
0.465823
30
0.0
11
-0.187383
21
0.466908
31
0.0
0
LINE
8
0
6
CONTINUOUS
10
-0.188365
20
0.466754
30
0.0
11
-0.188365
21
0.465823
31
0.0
0
LINE
8
0
6
CONTINUOUS
10
-0.193729
20
0.470991
30
0.0
11
-0.191606
21
0.471044
31
0.0
0
LINE
8
0
6
CONTINUOUS
10
-0.191606
20
0.471044
30
0.0
11
-0.190466
21
0.470012
31
0.0
0
LINE
8
0
6
CONTINUOUS
10
-0.194710
20
0.469906
30
0.0
11
-0.193729
21
0.470991
31
0.0
0
LINE
8
0
6
CONTINUOUS
10
-0.194710
20
0.470829
30
0.0
11
-0.194710
21
0.469906
31
0.0
0
LINE
8
0
6
CONTINUOUS
10
-0.174290
20
0.469403
30
0.0
11
-0.172196
21
0.469198
31
0.0
0
LINE
8
0
6
CONTINUOUS
10
-0.172196
20
0.469198
30
0.0
11
-0.171458
21
0.468051
31
0.0
0
LINE
8
0
6
CONTINUOUS
10
-0.175646
20
0.468462
30
0.0
11
-0.174290
21
0.469403
31
0.0
0
LINE
8
0
6
CONTINUOUS
10
-0.175646
20
0.469262
30
0.0
11
-0.175646
21
0.468462
31
0.0
0
LINE
8
0
6
CONTINUOUS
10
-0.190738
20
0.443658
30
0.0
11
-0.189115
21
0.444447
31
0.0
0
LINE
8
0
6
CONTINUOUS
10
-0.190738
20
0.444848
30
0.0
11
-0.190738
21
0.443658
31
0.0
0
LINE
8
0
6
CONTINUOUS
10
-0.187117
20
0.444033
30
0.0
11
-0.186741
21
0.442829
31
0.0
0
LINE
8
0
6
CONTINUOUS
10
-0.198125
20
0.446241
30
0.0
11
-0.196502
21
0.447030
31
0.0
0
LINE
8
0
6
CONTINUOUS
10
-0.198125
20
0.447387
30
0.0
11
-0.198125
21
0.446241
31
0.0
0
LINE
8
0
6
CONTINUOUS
10
-0.196502
20
0.447030
30
0.0
11
-0.194504
21
0.446615
31
0.0
0
LINE
8
0
6
CONTINUOUS
10
-0.205512
20
0.448956
30
0.0
11
-0.203890
21
0.449745
31
0.0
0
LINE
8
0
6
CONTINUOUS
10
-0.205512
20
0.450233
30
0.0
11
-0.205512
21
0.448956
31
0.0
0
LINE
8
0
6
CONTINUOUS
10
-0.203890
20
0.449745
30
0.0
11
-0.201891
21
0.449330
31
0.0
0
LINE
8
0
6
CONTINUOUS
10
-0.201891
20
0.449330
30
0.0
11
-0.201516
21
0.448127
31
0.0
0
LINE
8
0
6
CONTINUOUS
10
-0.212900
20
0.451811
30
0.0
11
-0.211277
21
0.452600
31
0.0
0
LINE
8
0
6
CONTINUOUS
10
-0.212900
20
0.453177
30
0.0
11
-0.212900
21
0.451811
31
0.0
0
LINE
8
0
6
CONTINUOUS
10
-0.211277
20
0.452600
30
0.0
11
-0.209279
21
0.452185
31
0.0
0
LINE
8
0
6
CONTINUOUS
10
-0.209279
20
0.452185
30
0.0
11
-0.208903
21
0.450982
31
0.0
0
LINE
8
0
6
CONTINUOUS
10
-0.195519
20
0.429330
30
0.0
11
-0.193896
21
0.430119
31
0.0
0
LINE
8
0
6
CONTINUOUS
10
-0.195519
20
0.430226
30
0.0
11
-0.195519
21
0.429330
31
0.0
0
LINE
8
0
6
CONTINUOUS
10
-0.193896
20
0.430119
30
0.0
11
-0.191898
21
0.429705
31
0.0
0
LINE
8
0
6
CONTINUOUS
10
-0.194323
20
0.432395
30
0.0
11
-0.192701
21
0.433185
31
0.0
0
LINE
8
0
6
CONTINUOUS
10
-0.194323
20
0.433676
30
0.0
11
-0.194323
21
0.432395
31
0.0
0
LINE
8
0
6
CONTINUOUS
10
-0.192701
20
0.433185
30
0.0
11
-0.190702
21
0.432770
31
0.0
0
LINE
8
0
6
CONTINUOUS
10
-0.190702
20
0.432770
30
0.0
11
-0.190327
21
0.431566
31
0.0
0
LINE
8
0
6
CONTINUOUS
10
-0.193128
20
0.436023
30
0.0
11
-0.191506
21
0.436813
31
0.0
0
LINE
8
0
6
CONTINUOUS
10
-0.193128
20
0.437237
30
0.0
11
-0.193128
21
0.436023
31
0.0
0
LINE
8
0
6
CONTINUOUS
10
-0.191506
20
0.436813
30
0.0
11
-0.189507
21
0.436398
31
0.0
0
LINE
8
0
6
CONTINUOUS
10
-0.191933
20
0.439790
30
0.0
11
-0.190310
21
0.440579
31
0.0
0
LINE
8
0
6
CONTINUOUS
10
-0.191933
20
0.440952
30
0.0
11
-0.191933
21
0.439790
31
0.0
0
LINE
8
0
6
CONTINUOUS
10
-0.190310
20
0.440579
30
0.0
11
-0.188312
21
0.440164
31
0.0
0
LINE
8
0
6
CONTINUOUS
10
-0.188312
20
0.440164
30
0.0
11
-0.187936
21
0.438961
31
0.0
0
LINE
8
0
6
CONTINUOUS
10
-0.211006
20
0.443454
30
0.0
11
-0.210630
21
0.444658
31
0.0
0
LINE
8
0
6
CONTINUOUS
10
-0.211006
20
0.444845
30
0.0
11
-0.211006
21
0.443454
31
0.0
0
LINE
8
0
6
CONTINUOUS
10
-0.210630
20
0.444658
30
0.0
11
-0.208632
21
0.445073
31
0.0
0
LINE
8
0
6
CONTINUOUS
10
-0.207010
20
0.444283
30
0.0
11
-0.207010
21
0.444981
31
0.0
0
LINE
8
0
6
CONTINUOUS
10
-0.208632
20
0.445073
30
0.0
11
-0.207010
21
0.444283
31
0.0
0
LINE
8
0
6
CONTINUOUS
10
-0.203131
20
0.440920
30
0.0
11
-0.202756
21
0.442124
31
0.0
0
LINE
8
0
6
CONTINUOUS
10
-0.203131
20
0.442324
30
0.0
11
-0.203131
21
0.440920
31
0.0
0
LINE
8
0
6
CONTINUOUS
10
-0.202756
20
0.442124
30
0.0
11
-0.200757
21
0.442538
31
0.0
0
LINE
8
0
6
CONTINUOUS
10
-0.205100
20
0.436909
30
0.0
11
-0.204724
21
0.438113
31
0.0
0
LINE
8
0
6
CONTINUOUS
10
-0.205100
20
0.438317
30
0.0
11
-0.205100
21
0.436909
31
0.0
0
LINE
8
0
6
CONTINUOUS
10
-0.204724
20
0.438113
30
0.0
11
-0.202726
21
0.438527
31
0.0
0
LINE
8
0
6
CONTINUOUS
10
-0.201103
20
0.437738
30
0.0
11
-0.201103
21
0.438447
31
0.0
0
LINE
8
0
6
CONTINUOUS
10
-0.202726
20
0.438527
30
0.0
11
-0.201103
21
0.437738
31
0.0
0
LINE
8
0
6
CONTINUOUS
10
-0.205944
20
0.433394
30
0.0
11
-0.205568
21
0.434598
31
0.0
0
LINE
8
0
6
CONTINUOUS
10
-0.205944
20
0.434651
30
0.0
11
-0.205944
21
0.433394
31
0.0
0
LINE
8
0
6
CONTINUOUS
10
-0.205568
20
0.434598
30
0.0
11
-0.203570
21
0.435012
31
0.0
0
LINE
8
0
6
CONTINUOUS
10
-0.201947
20
0.434223
30
0.0
11
-0.201947
21
0.434767
31
0.0
0
LINE
8
0
6
CONTINUOUS
10
-0.203570
20
0.435012
30
0.0
11
-0.201947
21
0.434223
31
0.0
0
LINE
8
0
6
CONTINUOUS
10
-0.214803
20
0.439791
30
0.0
11
-0.214427
21
0.440995
31
0.0
0
LINE
8
0
6
CONTINUOUS
10
-0.214803
20
0.440801
30
0.0
11
-0.214803
21
0.439791
31
0.0
0
LINE
8
0
6
CONTINUOUS
10
-0.214427
20
0.440995
30
0.0
11
-0.212429
21
0.441409
31
0.0
0
LINE
8
0
6
CONTINUOUS
10
-0.181129
20
0.442717
30
0.0
11
-0.179506
21
0.443506
31
0.0
0
LINE
8
0
6
CONTINUOUS
10
-0.181129
20
0.443628
30
0.0
11
-0.181129
21
0.442717
31
0.0
0
LINE
8
0
6
CONTINUOUS
10
-0.179506
20
0.443506
30
0.0
11
-0.177508
21
0.443091
31
0.0
0
LINE
8
0
6
CONTINUOUS
10
-0.177508
20
0.443091
30
0.0
11
-0.177132
21
0.441888
31
0.0
0
LINE
8
0
6
CONTINUOUS
10
-0.182444
20
0.429223
30
0.0
11
-0.180821
21
0.430012
31
0.0
0
LINE
8
0
6
CONTINUOUS
10
-0.182444
20
0.430097
30
0.0
11
-0.182444
21
0.429223
31
0.0
0
LINE
8
0
6
CONTINUOUS
10
-0.182115
20
0.432312
30
0.0
11
-0.180492
21
0.433101
31
0.0
0
LINE
8
0
6
CONTINUOUS
10
-0.182115
20
0.433316
30
0.0
11
-0.182115
21
0.432312
31
0.0
0
LINE
8
0
6
CONTINUOUS
10
-0.181786
20
0.435746
30
0.0
11
-0.180163
21
0.436535
31
0.0
0
LINE
8
0
6
CONTINUOUS
10
-0.181786
20
0.436707
30
0.0
11
-0.181786
21
0.435746
31
0.0
0
LINE
8
0
6
CONTINUOUS
10
-0.180163
20
0.436535
30
0.0
11
-0.178165
21
0.436121
31
0.0
0
LINE
8
0
6
CONTINUOUS
10
-0.178165
20
0.436121
30
0.0
11
-0.177789
21
0.434917
31
0.0
0
LINE
8
0
6
CONTINUOUS
10
-0.181457
20
0.439240
30
0.0
11
-0.179835
21
0.440029
31
0.0
0
LINE
8
0
6
CONTINUOUS
10
-0.181457
20
0.440155
30
0.0
11
-0.181457
21
0.439240
31
0.0
0
LINE
8
0
6
CONTINUOUS
10
-0.179835
20
0.440029
30
0.0
11
-0.177836
21
0.439615
31
0.0
0
LINE
8
0
6
CONTINUOUS
10
-0.177836
20
0.439615
30
0.0
11
-0.177461
21
0.438411
31
0.0
0
LINE
8
0
6
CONTINUOUS
10
-0.165647
20
0.439221
30
0.0
11
-0.165647
21
0.440098
31
0.0
0
LINE
8
0
6
CONTINUOUS
10
-0.167270
20
0.440010
30
0.0
11
-0.165647
21
0.439221
31
0.0
0
LINE
8
0
6
CONTINUOUS
10
-0.169268
20
0.439596
30
0.0
11
-0.167270
21
0.440010
31
0.0
0
LINE
8
0
6
CONTINUOUS
10
-0.169644
20
0.438392
30
0.0
11
-0.169268
21
0.439596
31
0.0
0
LINE
8
0
6
CONTINUOUS
10
-0.169644
20
0.439232
30
0.0
11
-0.169644
21
0.438392
31
0.0
0
LINE
8
0
6
CONTINUOUS
10
-0.165318
20
0.435738
30
0.0
11
-0.165318
21
0.436649
31
0.0
0
LINE
8
0
6
CONTINUOUS
10
-0.166941
20
0.436527
30
0.0
11
-0.165318
21
0.435738
31
0.0
0
LINE
8
0
6
CONTINUOUS
10
-0.168939
20
0.436113
30
0.0
11
-0.166941
21
0.436527
31
0.0
0
LINE
8
0
6
CONTINUOUS
10
-0.169315
20
0.434909
30
0.0
11
-0.168939
21
0.436113
31
0.0
0
LINE
8
0
6
CONTINUOUS
10
-0.169315
20
0.435791
30
0.0
11
-0.169315
21
0.434909
31
0.0
0
LINE
8
0
6
CONTINUOUS
10
-0.164990
20
0.432330
30
0.0
11
-0.164990
21
0.433263
31
0.0
0
LINE
8
0
6
CONTINUOUS
10
-0.166612
20
0.433119
30
0.0
11
-0.164990
21
0.432330
31
0.0
0
LINE
8
0
6
CONTINUOUS
10
-0.168611
20
0.432704
30
0.0
11
-0.166612
21
0.433119
31
0.0
0
LINE
8
0
6
CONTINUOUS
10
-0.168986
20
0.431501
30
0.0
11
-0.168611
21
0.432704
31
0.0
0
LINE
8
0
6
CONTINUOUS
10
-0.168986
20
0.432433
30
0.0
11
-0.168986
21
0.431501
31
0.0
0
LINE
8
0
6
CONTINUOUS
10
-0.164661
20
0.429109
30
0.0
11
-0.164661
21
0.429982
31
0.0
0
LINE
8
0
6
CONTINUOUS
10
-0.166283
20
0.429898
30
0.0
11
-0.164661
21
0.429109
31
0.0
0
LINE
8
0
6
CONTINUOUS
10
-0.168282
20
0.429484
30
0.0
11
-0.166283
21
0.429898
31
0.0
0
LINE
8
0
6
CONTINUOUS
10
-0.168658
20
0.428280
30
0.0
11
-0.168282
21
0.429484
31
0.0
0
LINE
8
0
6
CONTINUOUS
10
-0.168658
20
0.429237
30
0.0
11
-0.168658
21
0.428280
31
0.0
0
LINE
8
0
6
CONTINUOUS
10
-0.165976
20
0.442698
30
0.0
11
-0.165976
21
0.443565
31
0.0
0
LINE
8
0
6
CONTINUOUS
10
-0.167598
20
0.443488
30
0.0
11
-0.165976
21
0.442698
31
0.0
0
LINE
8
0
6
CONTINUOUS
10
-0.169597
20
0.443073
30
0.0
11
-0.167598
21
0.443488
31
0.0
0
LINE
8
0
6
CONTINUOUS
10
-0.132677
20
0.440870
30
0.0
11
-0.132301
21
0.439666
31
0.0
0
LINE
8
0
6
CONTINUOUS
10
-0.134675
20
0.441285
30
0.0
11
-0.132677
21
0.440870
31
0.0
0
LINE
8
0
6
CONTINUOUS
10
-0.136298
20
0.440495
30
0.0
11
-0.134675
21
0.441285
31
0.0
0
LINE
8
0
6
CONTINUOUS
10
-0.136298
20
0.440625
30
0.0
11
-0.136298
21
0.440495
31
0.0
0
LINE
8
0
6
CONTINUOUS
10
-0.141536
20
0.434426
30
0.0
11
-0.141161
21
0.433222
31
0.0
0
LINE
8
0
6
CONTINUOUS
10
-0.144378
20
0.438479
30
0.0
11
-0.142380
21
0.438064
31
0.0
0
LINE
8
0
6
CONTINUOUS
10
-0.146001
20
0.437690
30
0.0
11
-0.144378
21
0.438479
31
0.0
0
LINE
8
0
6
CONTINUOUS
10
-0.146001
20
0.438225
30
0.0
11
-0.146001
21
0.437690
31
0.0
0
LINE
8
0
6
CONTINUOUS
10
-0.144349
20
0.442051
30
0.0
11
-0.143973
21
0.440847
31
0.0
0
LINE
8
0
6
CONTINUOUS
10
-0.146347
20
0.442466
30
0.0
11
-0.144349
21
0.442051
31
0.0
0
LINE
8
0
6
CONTINUOUS
10
-0.136474
20
0.444553
30
0.0
11
-0.136098
21
0.443349
31
0.0
0
LINE
8
0
6
CONTINUOUS
10
-0.138472
20
0.444968
30
0.0
11
-0.136474
21
0.444553
31
0.0
0
LINE
8
0
6
CONTINUOUS
10
-0.140095
20
0.444178
30
0.0
11
-0.138472
21
0.444968
31
0.0
0
LINE
8
0
6
CONTINUOUS
10
-0.140095
20
0.444723
30
0.0
11
-0.140095
21
0.444178
31
0.0
0
LINE
8
0
6
CONTINUOUS
10
-0.159168
20
0.438910
30
0.0
11
-0.158792
21
0.440114
31
0.0
0
LINE
8
0
6
CONTINUOUS
10
-0.159168
20
0.439670
30
0.0
11
-0.159168
21
0.438910
31
0.0
0
LINE
8
0
6
CONTINUOUS
10
-0.153976
20
0.436034
30
0.0
11
-0.153976
21
0.437081
31
0.0
0
LINE
8
0
6
CONTINUOUS
10
-0.155599
20
0.436823
30
0.0
11
-0.153976
21
0.436034
31
0.0
0
LINE
8
0
6
CONTINUOUS
10
-0.157597
20
0.436408
30
0.0
11
-0.155599
21
0.436823
31
0.0
0
LINE
8
0
6
CONTINUOUS
10
-0.157973
20
0.435205
30
0.0
11
-0.157597
21
0.436408
31
0.0
0
LINE
8
0
6
CONTINUOUS
10
-0.157973
20
0.435989
30
0.0
11
-0.157973
21
0.435205
31
0.0
0
LINE
8
0
6
CONTINUOUS
10
-0.151586
20
0.428894
30
0.0
11
-0.151586
21
0.430041
31
0.0
0
LINE
8
0
6
CONTINUOUS
10
-0.153208
20
0.429683
30
0.0
11
-0.151586
21
0.428894
31
0.0
0
LINE
8
0
6
CONTINUOUS
10
-0.155207
20
0.429268
30
0.0
11
-0.153208
21
0.429683
31
0.0
0
LINE
8
0
6
CONTINUOUS
10
-0.155582
20
0.428065
30
0.0
11
-0.155207
21
0.429268
31
0.0
0
LINE
8
0
6
CONTINUOUS
10
-0.155582
20
0.428869
30
0.0
11
-0.155582
21
0.428065
31
0.0
0
LINE
8
0
6
CONTINUOUS
10
-0.134205
20
0.451697
30
0.0
11
-0.134205
21
0.452902
31
0.0
0
LINE
8
0
6
CONTINUOUS
10
-0.135827
20
0.452487
30
0.0
11
-0.134205
21
0.451697
31
0.0
0
LINE
8
0
6
CONTINUOUS
10
-0.137826
20
0.452072
30
0.0
11
-0.135827
21
0.452487
31
0.0
0
LINE
8
0
6
CONTINUOUS
10
-0.138201
20
0.450868
30
0.0
11
-0.137826
21
0.452072
31
0.0
0
LINE
8
0
6
CONTINUOUS
10
-0.138201
20
0.451415
30
0.0
11
-0.138201
21
0.450868
31
0.0
0
LINE
8
0
6
CONTINUOUS
10
-0.145213
20
0.449235
30
0.0
11
-0.143215
21
0.449649
31
0.0
0
LINE
8
0
6
CONTINUOUS
10
-0.145589
20
0.448031
30
0.0
11
-0.145213
21
0.449235
31
0.0
0
LINE
8
0
6
CONTINUOUS
10
-0.145589
20
0.448548
30
0.0
11
-0.145589
21
0.448031
31
0.0
0
LINE
8
0
6
CONTINUOUS
10
-0.152600
20
0.446548
30
0.0
11
-0.150602
21
0.446963
31
0.0
0
LINE
8
0
6
CONTINUOUS
10
-0.152976
20
0.445344
30
0.0
11
-0.152600
21
0.446548
31
0.0
0
LINE
8
0
6
CONTINUOUS
10
-0.152976
20
0.446004
30
0.0
11
-0.152976
21
0.445344
31
0.0
0
LINE
8
0
6
CONTINUOUS
10
-0.156367
20
0.443608
30
0.0
11
-0.156367
21
0.444668
31
0.0
0
LINE
8
0
6
CONTINUOUS
10
-0.157989
20
0.444397
30
0.0
11
-0.156367
21
0.443608
31
0.0
0
LINE
8
0
6
CONTINUOUS
10
-0.159988
20
0.443982
30
0.0
11
-0.157989
21
0.444397
31
0.0
0
LINE
8
0
6
CONTINUOUS
10
-0.160363
20
0.442778
30
0.0
11
-0.159988
21
0.443982
31
0.0
0
LINE
8
0
6
CONTINUOUS
10
-0.160363
20
0.443452
30
0.0
11
-0.160363
21
0.442778
31
0.0
0
LINE
8
0
6
CONTINUOUS
10
-0.152394
20
0.469851
30
0.0
11
-0.152394
21
0.470697
31
0.0
0
LINE
8
0
6
CONTINUOUS
10
-0.153376
20
0.470936
30
0.0
11
-0.152394
21
0.469851
31
0.0
0
LINE
8
0
6
CONTINUOUS
10
-0.162984
20
0.465897
30
0.0
11
-0.161843
21
0.466928
31
0.0
0
LINE
8
0
6
CONTINUOUS
10
-0.162984
20
0.466526
30
0.0
11
-0.162984
21
0.465897
31
0.0
0
LINE
8
0
6
CONTINUOUS
10
-0.169329
20
0.462242
30
0.0
11
-0.168188
21
0.463274
31
0.0
0
LINE
8
0
6
CONTINUOUS
10
-0.169329
20
0.462875
30
0.0
11
-0.169329
21
0.462242
31
0.0
0
LINE
8
0
6
CONTINUOUS
10
-0.146424
20
0.465776
30
0.0
11
-0.144931
21
0.466647
31
0.0
0
LINE
8
0
6
CONTINUOUS
10
-0.146424
20
0.466208
30
0.0
11
-0.146424
21
0.465776
31
0.0
0
LINE
8
0
6
CONTINUOUS
10
-0.142313
20
0.465158
30
0.0
11
-0.142313
21
0.466140
31
0.0
0
LINE
8
0
6
CONTINUOUS
10
-0.142876
20
0.466338
30
0.0
11
-0.142313
21
0.465158
31
0.0
0
LINE
8
0
6
CONTINUOUS
10
-0.150891
20
0.463233
30
0.0
11
-0.148836
21
0.462924
31
0.0
0
LINE
8
0
6
CONTINUOUS
10
-0.152384
20
0.462363
30
0.0
11
-0.150891
21
0.463233
31
0.0
0
LINE
8
0
6
CONTINUOUS
10
-0.152384
20
0.462983
30
0.0
11
-0.152384
21
0.462363
31
0.0
0
LINE
8
0
6
CONTINUOUS
10
-0.148273
20
0.461745
30
0.0
11
-0.148273
21
0.462700
31
0.0
0
LINE
8
0
6
CONTINUOUS
10
-0.148836
20
0.462924
30
0.0
11
-0.148273
21
0.461745
31
0.0
0
LINE
8
0
6
CONTINUOUS
10
-0.156851
20
0.460316
30
0.0
11
-0.154796
21
0.460007
31
0.0
0
LINE
8
0
6
CONTINUOUS
10
-0.158344
20
0.459446
30
0.0
11
-0.156851
21
0.460316
31
0.0
0
LINE
8
0
6
CONTINUOUS
10
-0.158344
20
0.459955
30
0.0
11
-0.158344
21
0.459446
31
0.0
0
LINE
8
0
6
CONTINUOUS
10
-0.154233
20
0.458828
30
0.0
11
-0.154233
21
0.459704
31
0.0
0
LINE
8
0
6
CONTINUOUS
10
-0.154796
20
0.460007
30
0.0
11
-0.154233
21
0.458828
31
0.0
0
LINE
8
0
6
CONTINUOUS
10
-0.162811
20
0.457442
30
0.0
11
-0.160756
21
0.457133
31
0.0
0
LINE
8
0
6
CONTINUOUS
10
-0.164304
20
0.456571
30
0.0
11
-0.162811
21
0.457442
31
0.0
0
LINE
8
0
6
CONTINUOUS
10
-0.164304
20
0.457262
30
0.0
11
-0.164304
21
0.456571
31
0.0
0
LINE
8
0
6
CONTINUOUS
10
-0.160193
20
0.455953
30
0.0
11
-0.160193
21
0.456701
31
0.0
0
LINE
8
0
6
CONTINUOUS
10
-0.160756
20
0.457133
30
0.0
11
-0.160193
21
0.455953
31
0.0
0
LINE
8
0
6
CONTINUOUS
10
-0.168771
20
0.454781
30
0.0
11
-0.166716
21
0.454472
31
0.0
0
LINE
8
0
6
CONTINUOUS
10
-0.170264
20
0.453911
30
0.0
11
-0.168771
21
0.454781
31
0.0
0
LINE
8
0
6
CONTINUOUS
10
-0.170264
20
0.454607
30
0.0
11
-0.170264
21
0.453911
31
0.0
0
LINE
8
0
6
CONTINUOUS
10
-0.166153
20
0.453293
30
0.0
11
-0.166153
21
0.454052
31
0.0
0
LINE
8
0
6
CONTINUOUS
10
-0.166716
20
0.454472
30
0.0
11
-0.166153
21
0.453293
31
0.0
0
LINE
8
0
6
CONTINUOUS
10
-0.138078
20
0.460125
30
0.0
11
-0.136182
21
0.459574
31
0.0
0
LINE
8
0
6
CONTINUOUS
10
-0.139855
20
0.459455
30
0.0
11
-0.138078
21
0.460125
31
0.0
0
LINE
8
0
6
CONTINUOUS
10
-0.139855
20
0.460099
30
0.0
11
-0.139855
21
0.459455
31
0.0
0
LINE
8
0
6
CONTINUOUS
10
-0.144234
20
0.457205
30
0.0
11
-0.142338
21
0.456653
31
0.0
0
LINE
8
0
6
CONTINUOUS
10
-0.146011
20
0.456535
30
0.0
11
-0.144234
21
0.457205
31
0.0
0
LINE
8
0
6
CONTINUOUS
10
-0.146011
20
0.457035
30
0.0
11
-0.146011
21
0.456535
31
0.0
0
LINE
8
0
6
CONTINUOUS
10
-0.142219
20
0.455432
30
0.0
11
-0.142219
21
0.456497
31
0.0
0
LINE
8
0
6
CONTINUOUS
10
-0.142338
20
0.456653
30
0.0
11
-0.142219
21
0.455432
31
0.0
0
LINE
8
0
6
CONTINUOUS
10
-0.150390
20
0.454369
30
0.0
11
-0.148494
21
0.453818
31
0.0
0
LINE
8
0
6
CONTINUOUS
10
-0.152168
20
0.453699
30
0.0
11
-0.150390
21
0.454369
31
0.0
0
LINE
8
0
6
CONTINUOUS
10
-0.152168
20
0.454302
30
0.0
11
-0.152168
21
0.453699
31
0.0
0
LINE
8
0
6
CONTINUOUS
10
-0.148375
20
0.452597
30
0.0
11
-0.148375
21
0.453507
31
0.0
0
LINE
8
0
6
CONTINUOUS
10
-0.148494
20
0.453818
30
0.0
11
-0.148375
21
0.452597
31
0.0
0
LINE
8
0
6
CONTINUOUS
10
-0.156546
20
0.451742
30
0.0
11
-0.154650
21
0.451191
31
0.0
0
LINE
8
0
6
CONTINUOUS
10
-0.158324
20
0.451072
30
0.0
11
-0.156546
21
0.451742
31
0.0
0
LINE
8
0
6
CONTINUOUS
10
-0.158324
20
0.451669
30
0.0
11
-0.158324
21
0.451072
31
0.0
0
LINE
8
0
6
CONTINUOUS
10
-0.154532
20
0.449970
30
0.0
11
-0.154532
21
0.450994
31
0.0
0
LINE
8
0
6
CONTINUOUS
10
-0.154650
20
0.451191
30
0.0
11
-0.154532
21
0.449970
31
0.0
0
LINE
8
0
6
CONTINUOUS
10
-0.162703
20
0.449478
30
0.0
11
-0.160807
21
0.448927
31
0.0
0
LINE
8
0
6
CONTINUOUS
10
-0.164480
20
0.448809
30
0.0
11
-0.162703
21
0.449478
31
0.0
0
LINE
8
0
6
CONTINUOUS
10
-0.164480
20
0.449543
30
0.0
11
-0.164480
21
0.448809
31
0.0
0
LINE
8
0
6
CONTINUOUS
10
-0.160688
20
0.447706
30
0.0
11
-0.160688
21
0.448577
31
0.0
0
LINE
8
0
6
CONTINUOUS
10
-0.160807
20
0.448927
30
0.0
11
-0.160688
21
0.447706
31
0.0
0
LINE
8
0
6
CONTINUOUS
10
-0.126817
20
0.455252
30
0.0
11
-0.126817
21
0.456216
31
0.0
0
LINE
8
0
6
CONTINUOUS
10
-0.128440
20
0.456041
30
0.0
11
-0.126817
21
0.455252
31
0.0
0
LINE
8
0
6
CONTINUOUS
10
-0.130438
20
0.455627
30
0.0
11
-0.128440
21
0.456041
31
0.0
0
LINE
8
0
6
CONTINUOUS
10
-0.130814
20
0.454423
30
0.0
11
-0.130438
21
0.455627
31
0.0
0
LINE
8
0
6
CONTINUOUS
10
-0.130814
20
0.454548
30
0.0
11
-0.130814
21
0.454423
31
0.0
0
LINE
8
0
6
CONTINUOUS
10
-0.162128
20
0.477946
30
0.0
11
-0.160034
21
0.478152
31
0.0
0
LINE
8
0
6
CONTINUOUS
10
-0.162865
20
0.476799
30
0.0
11
-0.162128
21
0.477946
31
0.0
0
LINE
8
0
6
CONTINUOUS
10
-0.162865
20
0.477213
30
0.0
11
-0.162865
21
0.476799
31
0.0
0
LINE
8
0
6
CONTINUOUS
10
-0.158677
20
0.477211
30
0.0
11
-0.158677
21
0.477920
31
0.0
0
LINE
8
0
6
CONTINUOUS
10
-0.160034
20
0.478152
30
0.0
11
-0.158677
21
0.477211
31
0.0
0
LINE
8
0
6
CONTINUOUS
10
-0.149153
20
0.474997
30
0.0
11
-0.147031
21
0.474944
31
0.0
0
LINE
8
0
6
CONTINUOUS
10
-0.150293
20
0.473966
30
0.0
11
-0.149153
21
0.474997
31
0.0
0
LINE
8
0
6
CONTINUOUS
10
-0.150293
20
0.474367
30
0.0
11
-0.150293
21
0.473966
31
0.0
0
LINE
8
0
6
CONTINUOUS
10
-0.146049
20
0.473860
30
0.0
11
-0.146049
21
0.474552
31
0.0
0
LINE
8
0
6
CONTINUOUS
10
-0.147031
20
0.474944
30
0.0
11
-0.146049
21
0.473860
31
0.0
0
LINE
8
0
6
CONTINUOUS
10
-0.138971
20
0.469902
30
0.0
11
-0.136916
21
0.469593
31
0.0
0
LINE
8
0
6
CONTINUOUS
10
-0.140464
20
0.469032
30
0.0
11
-0.138971
21
0.469902
31
0.0
0
LINE
8
0
6
CONTINUOUS
10
-0.140464
20
0.469646
30
0.0
11
-0.140464
21
0.469032
31
0.0
0
LINE
8
0
6
CONTINUOUS
10
-0.136353
20
0.468414
30
0.0
11
-0.136353
21
0.469345
31
0.0
0
LINE
8
0
6
CONTINUOUS
10
-0.136916
20
0.469593
30
0.0
11
-0.136353
21
0.468414
31
0.0
0
LINE
8
0
6
CONTINUOUS
10
-0.131922
20
0.463481
30
0.0
11
-0.130026
21
0.462930
31
0.0
0
LINE
8
0
6
CONTINUOUS
10
-0.133699
20
0.462811
30
0.0
11
-0.131922
21
0.463481
31
0.0
0
LINE
8
0
6
CONTINUOUS
10
-0.133699
20
0.463085
30
0.0
11
-0.133699
21
0.462811
31
0.0
0
LINE
8
0
6
CONTINUOUS
10
-0.128037
20
0.447986
30
0.0
11
-0.127661
21
0.446782
31
0.0
0
LINE
8
0
6
CONTINUOUS
10
-0.130035
20
0.448400
30
0.0
11
-0.128037
21
0.447986
31
0.0
0
LINE
8
0
6
CONTINUOUS
10
-0.219068
20
0.448123
30
0.0
11
-0.217069
21
0.448538
31
0.0
0
LINE
8
0
6
CONTINUOUS
10
-0.208133
20
0.470000
30
0.0
11
-0.206641
21
0.469130
31
0.0
0
LINE
8
0
6
CONTINUOUS
10
-0.175074
20
0.479511
30
0.0
11
-0.173001
21
0.479778
31
0.0
0
LINE
8
0
6
CONTINUOUS
10
-0.201055
20
0.473934
30
0.0
11
-0.200074
21
0.475018
31
0.0
0
LINE
8
0
6
CONTINUOUS
10
-0.201055
20
0.474705
30
0.0
11
-0.201055
21
0.473934
31
0.0
0
LINE
8
0
6
CONTINUOUS
10
-0.218665
20
0.456184
30
0.0
11
-0.216666
21
0.455770
31
0.0
0
LINE
8
0
6
CONTINUOUS
10
-0.190558
20
0.451798
30
0.0
11
-0.188781
21
0.451128
31
0.0
0
LINE
8
0
6
CONTINUOUS
10
-0.196714
20
0.454440
30
0.0
11
-0.194937
21
0.453770
31
0.0
0
LINE
8
0
6
CONTINUOUS
10
-0.178333
20
0.454799
30
0.0
11
-0.176841
21
0.453929
31
0.0
0
LINE
8
0
6
CONTINUOUS
10
-0.186348
20
0.457163
30
0.0
11
-0.184293
21
0.457472
31
0.0
0
LINE
8
0
6
CONTINUOUS
10
-0.186911
20
0.455983
30
0.0
11
-0.186348
21
0.457163
31
0.0
0
LINE
8
0
6
CONTINUOUS
10
-0.186911
20
0.456791
30
0.0
11
-0.186911
21
0.455983
31
0.0
0
LINE
8
0
6
CONTINUOUS
10
-0.181038
20
0.463241
30
0.0
11
-0.178916
21
0.463293
31
0.0
0
LINE
8
0
6
CONTINUOUS
10
-0.178916
20
0.463293
30
0.0
11
-0.177775
21
0.462262
31
0.0
0
LINE
8
0
6
CONTINUOUS
10
-0.182020
20
0.462156
30
0.0
11
-0.181038
21
0.463241
31
0.0
0
LINE
8
0
6
CONTINUOUS
10
-0.182020
20
0.462934
30
0.0
11
-0.182020
21
0.462156
31
0.0
0
LINE
8
0
6
CONTINUOUS
10
-0.180680
20
0.473682
30
0.0
11
-0.178586
21
0.473477
31
0.0
0
LINE
8
0
6
CONTINUOUS
10
-0.178586
20
0.473477
30
0.0
11
-0.177849
21
0.472330
31
0.0
0
LINE
8
0
6
CONTINUOUS
10
-0.182036
20
0.472741
30
0.0
11
-0.180680
21
0.473682
31
0.0
0
LINE
8
0
6
CONTINUOUS
10
-0.182036
20
0.473538
30
0.0
11
-0.182036
21
0.472741
31
0.0
0
LINE
8
0
6
CONTINUOUS
10
-0.189115
20
0.444447
30
0.0
11
-0.187117
21
0.444033
31
0.0
0
LINE
8
0
6
CONTINUOUS
10
-0.194504
20
0.446615
30
0.0
11
-0.194128
21
0.445412
31
0.0
0
LINE
8
0
6
CONTINUOUS
10
-0.191898
20
0.429705
30
0.0
11
-0.191522
21
0.428501
31
0.0
0
LINE
8
0
6
CONTINUOUS
10
-0.189507
20
0.436398
30
0.0
11
-0.189131
21
0.435195
31
0.0
0
LINE
8
0
6
CONTINUOUS
10
-0.199135
20
0.441749
30
0.0
11
-0.199135
21
0.442441
31
0.0
0
LINE
8
0
6
CONTINUOUS
10
-0.200757
20
0.442538
30
0.0
11
-0.199135
21
0.441749
31
0.0
0
LINE
8
0
6
CONTINUOUS
10
-0.210806
20
0.440620
30
0.0
11
-0.210806
21
0.440873
31
0.0
0
LINE
8
0
6
CONTINUOUS
10
-0.212429
20
0.441409
30
0.0
11
-0.210806
21
0.440620
31
0.0
0
LINE
8
0
6
CONTINUOUS
10
-0.180821
20
0.430012
30
0.0
11
-0.178823
21
0.429597
31
0.0
0
LINE
8
0
6
CONTINUOUS
10
-0.178823
20
0.429597
30
0.0
11
-0.178447
21
0.428394
31
0.0
0
LINE
8
0
6
CONTINUOUS
10
-0.180492
20
0.433101
30
0.0
11
-0.178494
21
0.432686
31
0.0
0
LINE
8
0
6
CONTINUOUS
10
-0.178494
20
0.432686
30
0.0
11
-0.178118
21
0.431483
31
0.0
0
LINE
8
0
6
CONTINUOUS
10
-0.169972
20
0.441870
30
0.0
11
-0.169597
21
0.443073
31
0.0
0
LINE
8
0
6
CONTINUOUS
10
-0.169972
20
0.442689
30
0.0
11
-0.169972
21
0.441870
31
0.0
0
LINE
8
0
6
CONTINUOUS
10
-0.143535
20
0.434840
30
0.0
11
-0.141536
21
0.434426
31
0.0
0
LINE
8
0
6
CONTINUOUS
10
-0.145157
20
0.434051
30
0.0
11
-0.143535
21
0.434840
31
0.0
0
LINE
8
0
6
CONTINUOUS
10
-0.145157
20
0.434557
30
0.0
11
-0.145157
21
0.434051
31
0.0
0
LINE
8
0
6
CONTINUOUS
10
-0.142380
20
0.438064
30
0.0
11
-0.142004
21
0.436861
31
0.0
0
LINE
8
0
6
CONTINUOUS
10
-0.147970
20
0.441676
30
0.0
11
-0.146347
21
0.442466
31
0.0
0
LINE
8
0
6
CONTINUOUS
10
-0.147970
20
0.442240
30
0.0
11
-0.147970
21
0.441676
31
0.0
0
LINE
8
0
6
CONTINUOUS
10
-0.155171
20
0.439739
30
0.0
11
-0.155171
21
0.440792
31
0.0
0
LINE
8
0
6
CONTINUOUS
10
-0.156794
20
0.440528
30
0.0
11
-0.155171
21
0.439739
31
0.0
0
LINE
8
0
6
CONTINUOUS
10
-0.158792
20
0.440114
30
0.0
11
-0.156794
21
0.440528
31
0.0
0
LINE
8
0
6
CONTINUOUS
10
-0.152781
20
0.432412
30
0.0
11
-0.152781
21
0.433468
31
0.0
0
LINE
8
0
6
CONTINUOUS
10
-0.154404
20
0.433201
30
0.0
11
-0.152781
21
0.432412
31
0.0
0
LINE
8
0
6
CONTINUOUS
10
-0.156402
20
0.432786
30
0.0
11
-0.154404
21
0.433201
31
0.0
0
LINE
8
0
6
CONTINUOUS
10
-0.156778
20
0.431582
30
0.0
11
-0.156402
21
0.432786
31
0.0
0
LINE
8
0
6
CONTINUOUS
10
-0.156778
20
0.432398
30
0.0
11
-0.156778
21
0.431582
31
0.0
0
LINE
8
0
6
CONTINUOUS
10
-0.141592
20
0.448860
30
0.0
11
-0.141592
21
0.449984
31
0.0
0
LINE
8
0
6
CONTINUOUS
10
-0.143215
20
0.449649
30
0.0
11
-0.141592
21
0.448860
31
0.0
0
LINE
8
0
6
CONTINUOUS
10
-0.148979
20
0.446173
30
0.0
11
-0.148979
21
0.447223
31
0.0
0
LINE
8
0
6
CONTINUOUS
10
-0.150602
20
0.446963
30
0.0
11
-0.148979
21
0.446173
31
0.0
0
LINE
8
0
6
CONTINUOUS
10
-0.168518
20
0.473458
30
0.0
11
-0.166424
21
0.473664
31
0.0
0
LINE
8
0
6
CONTINUOUS
10
-0.169256
20
0.472311
30
0.0
11
-0.168518
21
0.473458
31
0.0
0
LINE
8
0
6
CONTINUOUS
10
-0.169256
20
0.472853
30
0.0
11
-0.169256
21
0.472311
31
0.0
0
LINE
8
0
6
CONTINUOUS
10
-0.165068
20
0.472722
30
0.0
11
-0.165068
21
0.473496
31
0.0
0
LINE
8
0
6
CONTINUOUS
10
-0.166424
20
0.473664
30
0.0
11
-0.165068
21
0.472722
31
0.0
0
LINE
8
0
6
CONTINUOUS
10
-0.155498
20
0.470989
30
0.0
11
-0.153376
21
0.470936
31
0.0
0
LINE
8
0
6
CONTINUOUS
10
-0.156638
20
0.469957
30
0.0
11
-0.155498
21
0.470989
31
0.0
0
LINE
8
0
6
CONTINUOUS
10
-0.156638
20
0.470406
30
0.0
11
-0.156638
21
0.469957
31
0.0
0
LINE
8
0
6
CONTINUOUS
10
-0.161843
20
0.466928
30
0.0
11
-0.159721
21
0.466876
31
0.0
0
LINE
8
0
6
CONTINUOUS
10
-0.158740
20
0.465791
30
0.0
11
-0.158740
21
0.466570
31
0.0
0
LINE
8
0
6
CONTINUOUS
10
-0.159721
20
0.466876
30
0.0
11
-0.158740
21
0.465791
31
0.0
0
LINE
8
0
6
CONTINUOUS
10
-0.168188
20
0.463274
30
0.0
11
-0.166066
21
0.463221
31
0.0
0
LINE
8
0
6
CONTINUOUS
10
-0.165085
20
0.462137
30
0.0
11
-0.165085
21
0.462887
31
0.0
0
LINE
8
0
6
CONTINUOUS
10
-0.166066
20
0.463221
30
0.0
11
-0.165085
21
0.462137
31
0.0
0
LINE
8
0
6
CONTINUOUS
10
-0.174534
20
0.459881
30
0.0
11
-0.172412
21
0.459828
31
0.0
0
LINE
8
0
6
CONTINUOUS
10
-0.175674
20
0.458849
30
0.0
11
-0.174534
21
0.459881
31
0.0
0
LINE
8
0
6
CONTINUOUS
10
-0.175674
20
0.459661
30
0.0
11
-0.175674
21
0.458849
31
0.0
0
LINE
8
0
6
CONTINUOUS
10
-0.172412
20
0.459828
30
0.0
11
-0.171430
21
0.458743
31
0.0
0
LINE
8
0
6
CONTINUOUS
10
-0.144931
20
0.466647
30
0.0
11
-0.142876
21
0.466338
31
0.0
0
LINE
8
0
6
CONTINUOUS
10
-0.136063
20
0.458353
30
0.0
11
-0.136063
21
0.459471
31
0.0
0
LINE
8
0
6
CONTINUOUS
10
-0.136182
20
0.459574
30
0.0
11
-0.136063
21
0.458353
31
0.0
0
LINE
8
0
6
CONTINUOUS
10
-0.129907
20
0.461709
30
0.0
11
-0.129907
21
0.462449
31
0.0
0
LINE
8
0
6
CONTINUOUS
10
-0.130026
20
0.462930
30
0.0
11
-0.129907
21
0.461709
31
0.0
0
LINE
8
0
6
CONTINUOUS
10
-0.131658
20
0.447611
30
0.0
11
-0.130035
21
0.448400
31
0.0
0
LINE
8
0
6
CONTINUOUS
10
-0.131658
20
0.447768
30
0.0
11
-0.131658
21
0.447611
31
0.0
0
LINE
8
0
6
CONTINUOUS
10
-0.148657
20
0.437013
30
0.0
11
-0.145681
21
0.438994
31
0.0
0
LINE
8
0
6
CONTINUOUS
10
-0.149382
20
0.436607
30
0.0
11
-0.148657
21
0.437013
31
0.0
0
LINE
8
0
6
CONTINUOUS
10
-0.146492
20
0.438531
30
0.0
11
-0.149382
21
0.436607
31
0.0
0
LINE
8
0
6
CONTINUOUS
10
-0.145681
20
0.438994
30
0.0
11
-0.143151
21
0.441189
31
0.0
0
LINE
8
0
6
CONTINUOUS
10
-0.144036
20
0.440661
30
0.0
11
-0.146492
21
0.438531
31
0.0
0
LINE
8
0
6
CONTINUOUS
10
-0.143151
20
0.441189
30
0.0
11
-0.141110
21
0.443572
31
0.0
0
LINE
8
0
6
CONTINUOUS
10
-0.142055
20
0.442975
30
0.0
11
-0.144036
21
0.440661
31
0.0
0
LINE
8
0
6
CONTINUOUS
10
-0.141110
20
0.443572
30
0.0
11
-0.139600
21
0.446119
31
0.0
0
LINE
8
0
6
CONTINUOUS
10
-0.140589
20
0.445447
30
0.0
11
-0.142055
21
0.442975
31
0.0
0
LINE
8
0
6
CONTINUOUS
10
-0.139600
20
0.446119
30
0.0
11
-0.138663
21
0.448804
31
0.0
0
LINE
8
0
6
CONTINUOUS
10
-0.139679
20
0.448054
30
0.0
11
-0.140589
21
0.445447
31
0.0
0
LINE
8
0
6
CONTINUOUS
10
-0.138663
20
0.448804
30
0.0
11
-0.138342
21
0.451602
31
0.0
0
LINE
8
0
6
CONTINUOUS
10
-0.139367
20
0.450771
30
0.0
11
-0.139679
21
0.448054
31
0.0
0
LINE
8
0
6
CONTINUOUS
10
-0.138342
20
0.451602
30
0.0
11
-0.138663
21
0.454401
31
0.0
0
LINE
8
0
6
CONTINUOUS
10
-0.139679
20
0.453489
30
0.0
11
-0.139367
21
0.450771
31
0.0
0
LINE
8
0
6
CONTINUOUS
10
-0.138663
20
0.454401
30
0.0
11
-0.139600
21
0.457086
31
0.0
0
LINE
8
0
6
CONTINUOUS
10
-0.140589
20
0.456096
30
0.0
11
-0.139679
21
0.453489
31
0.0
0
LINE
8
0
6
CONTINUOUS
10
-0.139600
20
0.457086
30
0.0
11
-0.141110
21
0.459633
31
0.0
0
LINE
8
0
6
CONTINUOUS
10
-0.142055
20
0.458568
30
0.0
11
-0.140589
21
0.456096
31
0.0
0
LINE
8
0
6
CONTINUOUS
10
-0.141110
20
0.459633
30
0.0
11
-0.143151
21
0.462016
31
0.0
0
LINE
8
0
6
CONTINUOUS
10
-0.144036
20
0.460881
30
0.0
11
-0.142055
21
0.458568
31
0.0
0
LINE
8
0
6
CONTINUOUS
10
-0.146492
20
0.463012
30
0.0
11
-0.144036
21
0.460881
31
0.0
0
LINE
8
0
6
CONTINUOUS
10
-0.149382
20
0.464936
30
0.0
11
-0.146492
21
0.463012
31
0.0
0
LINE
8
0
6
CONTINUOUS
10
-0.152666
20
0.466630
30
0.0
11
-0.149382
21
0.464936
31
0.0
0
LINE
8
0
6
CONTINUOUS
10
-0.156301
20
0.468069
30
0.0
11
-0.152666
21
0.466630
31
0.0
0
LINE
8
0
6
CONTINUOUS
10
-0.160249
20
0.469230
30
0.0
11
-0.156301
21
0.468069
31
0.0
0
LINE
8
0
6
CONTINUOUS
10
-0.164467
20
0.470089
30
0.0
11
-0.160249
21
0.469230
31
0.0
0
LINE
8
0
6
CONTINUOUS
10
-0.168916
20
0.470622
30
0.0
11
-0.164467
21
0.470089
31
0.0
0
LINE
8
0
6
CONTINUOUS
10
-0.173553
20
0.470805
30
0.0
11
-0.168916
21
0.470622
31
0.0
0
LINE
8
0
6
CONTINUOUS
10
-0.178191
20
0.470622
30
0.0
11
-0.173553
21
0.470805
31
0.0
0
LINE
8
0
6
CONTINUOUS
10
-0.182639
20
0.470089
30
0.0
11
-0.178191
21
0.470622
31
0.0
0
LINE
8
0
6
CONTINUOUS
10
-0.186858
20
0.469230
30
0.0
11
-0.182639
21
0.470089
31
0.0
0
LINE
8
0
6
CONTINUOUS
10
-0.190805
20
0.468069
30
0.0
11
-0.186858
21
0.469230
31
0.0
0
LINE
8
0
6
CONTINUOUS
10
-0.194441
20
0.466630
30
0.0
11
-0.190805
21
0.468069
31
0.0
0
LINE
8
0
6
CONTINUOUS
10
-0.195068
20
0.467936
30
0.0
11
-0.198449
21
0.466192
31
0.0
0
LINE
8
0
6
CONTINUOUS
10
-0.197724
20
0.464936
30
0.0
11
-0.194441
21
0.466630
31
0.0
0
LINE
8
0
6
CONTINUOUS
10
-0.198449
20
0.466192
30
0.0
11
-0.201426
21
0.464210
31
0.0
0
LINE
8
0
6
CONTINUOUS
10
-0.200614
20
0.463012
30
0.0
11
-0.197724
21
0.464936
31
0.0
0
LINE
8
0
6
CONTINUOUS
10
-0.201426
20
0.464210
30
0.0
11
-0.203956
21
0.462016
31
0.0
0
LINE
8
0
6
CONTINUOUS
10
-0.203071
20
0.460881
30
0.0
11
-0.200614
21
0.463012
31
0.0
0
LINE
8
0
6
CONTINUOUS
10
-0.203956
20
0.462016
30
0.0
11
-0.205997
21
0.459633
31
0.0
0
LINE
8
0
6
CONTINUOUS
10
-0.205052
20
0.458568
30
0.0
11
-0.203071
21
0.460881
31
0.0
0
LINE
8
0
6
CONTINUOUS
10
-0.205997
20
0.459633
30
0.0
11
-0.207507
21
0.457086
31
0.0
0
LINE
8
0
6
CONTINUOUS
10
-0.206518
20
0.456096
30
0.0
11
-0.205052
21
0.458568
31
0.0
0
LINE
8
0
6
CONTINUOUS
10
-0.207507
20
0.457086
30
0.0
11
-0.208443
21
0.454401
31
0.0
0
LINE
8
0
6
CONTINUOUS
10
-0.207427
20
0.453489
30
0.0
11
-0.206518
21
0.456096
31
0.0
0
LINE
8
0
6
CONTINUOUS
10
-0.208443
20
0.454401
30
0.0
11
-0.208765
21
0.451602
31
0.0
0
LINE
8
0
6
CONTINUOUS
10
-0.207739
20
0.450771
30
0.0
11
-0.207427
21
0.453489
31
0.0
0
LINE
8
0
6
CONTINUOUS
10
-0.208765
20
0.451602
30
0.0
11
-0.208443
21
0.448804
31
0.0
0
LINE
8
0
6
CONTINUOUS
10
-0.207427
20
0.448054
30
0.0
11
-0.207739
21
0.450771
31
0.0
0
LINE
8
0
6
CONTINUOUS
10
-0.208443
20
0.448804
30
0.0
11
-0.207507
21
0.446119
31
0.0
0
LINE
8
0
6
CONTINUOUS
10
-0.206518
20
0.445447
30
0.0
11
-0.207427
21
0.448054
31
0.0
0
LINE
8
0
6
CONTINUOUS
10
-0.207507
20
0.446119
30
0.0
11
-0.205997
21
0.443572
31
0.0
0
LINE
8
0
6
CONTINUOUS
10
-0.205052
20
0.442975
30
0.0
11
-0.206518
21
0.445447
31
0.0
0
LINE
8
0
6
CONTINUOUS
10
-0.205997
20
0.443572
30
0.0
11
-0.203956
21
0.441189
31
0.0
0
LINE
8
0
6
CONTINUOUS
10
-0.203071
20
0.440661
30
0.0
11
-0.205052
21
0.442975
31
0.0
0
LINE
8
0
6
CONTINUOUS
10
-0.203956
20
0.441189
30
0.0
11
-0.201426
21
0.438994
31
0.0
0
LINE
8
0
6
CONTINUOUS
10
-0.200614
20
0.438531
30
0.0
11
-0.203071
21
0.440661
31
0.0
0
LINE
8
0
6
CONTINUOUS
10
-0.198449
20
0.437013
30
0.0
11
-0.197724
21
0.436607
31
0.0
0
LINE
8
0
6
CONTINUOUS
10
-0.201426
20
0.438994
30
0.0
11
-0.198449
21
0.437013
31
0.0
0
LINE
8
0
6
CONTINUOUS
10
-0.197724
20
0.436607
30
0.0
11
-0.200614
21
0.438531
31
0.0
0
LINE
8
0
6
CONTINUOUS
10
-0.161091
20
0.440039
30
0.0
11
-0.160789
21
0.440175
31
0.0
0
LINE
8
0
6
CONTINUOUS
10
-0.159132
20
0.441032
30
0.0
11
-0.161091
21
0.440039
31
0.0
0
LINE
8
0
6
CONTINUOUS
10
-0.157407
20
0.442160
30
0.0
11
-0.159132
21
0.441032
31
0.0
0
LINE
8
0
6
CONTINUOUS
10
-0.154760
20
0.444765
30
0.0
11
-0.155942
21
0.443409
31
0.0
0
LINE
8
0
6
CONTINUOUS
10
-0.154127
20
0.445113
30
0.0
11
-0.153223
21
0.446611
31
0.0
0
LINE
8
0
6
CONTINUOUS
10
-0.153885
20
0.446214
30
0.0
11
-0.154760
21
0.444765
31
0.0
0
LINE
8
0
6
CONTINUOUS
10
-0.153223
20
0.446611
30
0.0
11
-0.152662
21
0.448191
31
0.0
0
LINE
8
0
6
CONTINUOUS
10
-0.153343
20
0.447742
30
0.0
11
-0.153885
21
0.446214
31
0.0
0
LINE
8
0
6
CONTINUOUS
10
-0.152662
20
0.448191
30
0.0
11
-0.152470
21
0.449838
31
0.0
0
LINE
8
0
6
CONTINUOUS
10
-0.153157
20
0.449335
30
0.0
11
-0.153343
21
0.447742
31
0.0
0
LINE
8
0
6
CONTINUOUS
10
-0.152470
20
0.449838
30
0.0
11
-0.152662
21
0.451484
31
0.0
0
LINE
8
0
6
CONTINUOUS
10
-0.153343
20
0.450929
30
0.0
11
-0.153157
21
0.449335
31
0.0
0
LINE
8
0
6
CONTINUOUS
10
-0.153885
20
0.452457
30
0.0
11
-0.153343
21
0.450929
31
0.0
0
LINE
8
0
6
CONTINUOUS
10
-0.154760
20
0.453906
30
0.0
11
-0.153885
21
0.452457
31
0.0
0
LINE
8
0
6
CONTINUOUS
10
-0.154127
20
0.454562
30
0.0
11
-0.155349
21
0.455964
31
0.0
0
LINE
8
0
6
CONTINUOUS
10
-0.155942
20
0.455262
30
0.0
11
-0.154760
21
0.453906
31
0.0
0
LINE
8
0
6
CONTINUOUS
10
-0.155349
20
0.455964
30
0.0
11
-0.156864
21
0.457255
31
0.0
0
LINE
8
0
6
CONTINUOUS
10
-0.157407
20
0.456511
30
0.0
11
-0.155942
21
0.455262
31
0.0
0
LINE
8
0
6
CONTINUOUS
10
-0.159132
20
0.457639
30
0.0
11
-0.157407
21
0.456511
31
0.0
0
LINE
8
0
6
CONTINUOUS
10
-0.161091
20
0.458632
30
0.0
11
-0.159132
21
0.457639
31
0.0
0
LINE
8
0
6
CONTINUOUS
10
-0.163260
20
0.459476
30
0.0
11
-0.161091
21
0.458632
31
0.0
0
LINE
8
0
6
CONTINUOUS
10
-0.162913
20
0.460319
30
0.0
11
-0.165348
21
0.461023
31
0.0
0
LINE
8
0
6
CONTINUOUS
10
-0.165615
20
0.460156
30
0.0
11
-0.163260
21
0.459476
31
0.0
0
LINE
8
0
6
CONTINUOUS
10
-0.168132
20
0.460660
30
0.0
11
-0.165615
21
0.460156
31
0.0
0
LINE
8
0
6
CONTINUOUS
10
-0.170786
20
0.460972
30
0.0
11
-0.168132
21
0.460660
31
0.0
0
LINE
8
0
6
CONTINUOUS
10
-0.173553
20
0.461080
30
0.0
11
-0.170786
21
0.460972
31
0.0
0
LINE
8
0
6
CONTINUOUS
10
-0.175674
20
0.461895
30
0.0
11
-0.176412
21
0.461866
31
0.0
0
LINE
8
0
6
CONTINUOUS
10
-0.176320
20
0.460972
30
0.0
11
-0.173553
21
0.461080
31
0.0
0
LINE
8
0
6
CONTINUOUS
10
-0.176412
20
0.461866
30
0.0
11
-0.179156
21
0.461543
31
0.0
0
LINE
8
0
6
CONTINUOUS
10
-0.178974
20
0.460660
30
0.0
11
-0.176320
21
0.460972
31
0.0
0
LINE
8
0
6
CONTINUOUS
10
-0.181491
20
0.460156
30
0.0
11
-0.178974
21
0.460660
31
0.0
0
LINE
8
0
6
CONTINUOUS
10
-0.181759
20
0.461023
30
0.0
11
-0.184193
21
0.460319
31
0.0
0
LINE
8
0
6
CONTINUOUS
10
-0.183846
20
0.459476
30
0.0
11
-0.181491
21
0.460156
31
0.0
0
LINE
8
0
6
CONTINUOUS
10
-0.184193
20
0.460319
30
0.0
11
-0.186436
21
0.459447
31
0.0
0
LINE
8
0
6
CONTINUOUS
10
-0.186016
20
0.458632
30
0.0
11
-0.183846
21
0.459476
31
0.0
0
LINE
8
0
6
CONTINUOUS
10
-0.186436
20
0.459447
30
0.0
11
-0.188460
21
0.458421
31
0.0
0
LINE
8
0
6
CONTINUOUS
10
-0.187975
20
0.457639
30
0.0
11
-0.186016
21
0.458632
31
0.0
0
LINE
8
0
6
CONTINUOUS
10
-0.188460
20
0.458421
30
0.0
11
-0.190242
21
0.457255
31
0.0
0
LINE
8
0
6
CONTINUOUS
10
-0.189699
20
0.456511
30
0.0
11
-0.187975
21
0.457639
31
0.0
0
LINE
8
0
6
CONTINUOUS
10
-0.190242
20
0.457255
30
0.0
11
-0.191757
21
0.455964
31
0.0
0
LINE
8
0
6
CONTINUOUS
10
-0.191164
20
0.455262
30
0.0
11
-0.189699
21
0.456511
31
0.0
0
LINE
8
0
6
CONTINUOUS
10
-0.191757
20
0.455964
30
0.0
11
-0.192979
21
0.454562
31
0.0
0
LINE
8
0
6
CONTINUOUS
10
-0.192347
20
0.453906
30
0.0
11
-0.191164
21
0.455262
31
0.0
0
LINE
8
0
6
CONTINUOUS
10
-0.192979
20
0.454562
30
0.0
11
-0.193883
21
0.453064
31
0.0
0
LINE
8
0
6
CONTINUOUS
10
-0.193221
20
0.452457
30
0.0
11
-0.192347
21
0.453906
31
0.0
0
LINE
8
0
6
CONTINUOUS
10
-0.193883
20
0.453064
30
0.0
11
-0.194444
21
0.451484
31
0.0
0
LINE
8
0
6
CONTINUOUS
10
-0.193764
20
0.450929
30
0.0
11
-0.193221
21
0.452457
31
0.0
0
LINE
8
0
6
CONTINUOUS
10
-0.194444
20
0.451484
30
0.0
11
-0.194637
21
0.449838
31
0.0
0
LINE
8
0
6
CONTINUOUS
10
-0.193950
20
0.449335
30
0.0
11
-0.193764
21
0.450929
31
0.0
0
LINE
8
0
6
CONTINUOUS
10
-0.194637
20
0.449838
30
0.0
11
-0.194444
21
0.448191
31
0.0
0
LINE
8
0
6
CONTINUOUS
10
-0.193764
20
0.447742
30
0.0
11
-0.193950
21
0.449335
31
0.0
0
LINE
8
0
6
CONTINUOUS
10
-0.194444
20
0.448191
30
0.0
11
-0.193883
21
0.446611
31
0.0
0
LINE
8
0
6
CONTINUOUS
10
-0.193221
20
0.446214
30
0.0
11
-0.193764
21
0.447742
31
0.0
0
LINE
8
0
6
CONTINUOUS
10
-0.193883
20
0.446611
30
0.0
11
-0.192979
21
0.445113
31
0.0
0
LINE
8
0
6
CONTINUOUS
10
-0.192347
20
0.444765
30
0.0
11
-0.193221
21
0.446214
31
0.0
0
LINE
8
0
6
CONTINUOUS
10
-0.192979
20
0.445113
30
0.0
11
-0.191757
21
0.443711
31
0.0
0
LINE
8
0
6
CONTINUOUS
10
-0.191164
20
0.443409
30
0.0
11
-0.192347
21
0.444765
31
0.0
0
LINE
8
0
6
CONTINUOUS
10
-0.191757
20
0.443711
30
0.0
11
-0.190242
21
0.442420
31
0.0
0
LINE
8
0
6
CONTINUOUS
10
-0.190242
20
0.442420
30
0.0
11
-0.188460
21
0.441254
31
0.0
0
LINE
8
0
6
CONTINUOUS
10
-0.187975
20
0.441032
30
0.0
11
-0.189699
21
0.442160
31
0.0
0
LINE
8
0
6
CONTINUOUS
10
-0.186436
20
0.440228
30
0.0
11
-0.186016
21
0.440039
31
0.0
0
LINE
8
0
6
CONTINUOUS
10
-0.188460
20
0.441254
30
0.0
11
-0.186436
21
0.440228
31
0.0
0
LINE
8
0
6
CONTINUOUS
10
-0.186016
20
0.440039
30
0.0
11
-0.187975
21
0.441032
31
0.0
0
LINE
8
0
6
CONTINUOUS
10
-0.150602
20
0.446963
30
0.0
11
-0.152600
21
0.446548
31
0.0
0
LINE
8
0
6
CONTINUOUS
10
-0.148979
20
0.446173
30
0.0
11
-0.150602
21
0.446963
31
0.0
0
LINE
8
0
6
CONTINUOUS
10
-0.149355
20
0.444970
30
0.0
11
-0.148979
21
0.446173
31
0.0
0
LINE
8
0
6
CONTINUOUS
10
-0.151353
20
0.444555
30
0.0
11
-0.149355
21
0.444970
31
0.0
0
LINE
8
0
6
CONTINUOUS
10
-0.152976
20
0.445344
30
0.0
11
-0.151353
21
0.444555
31
0.0
0
LINE
8
0
6
CONTINUOUS
10
-0.152600
20
0.446548
30
0.0
11
-0.152976
21
0.445344
31
0.0
0
LINE
8
0
6
CONTINUOUS
10
-0.179205
20
0.471389
30
0.0
11
-0.177849
21
0.472330
31
0.0
0
LINE
8
0
6
CONTINUOUS
10
-0.181299
20
0.471594
30
0.0
11
-0.179205
21
0.471389
31
0.0
0
LINE
8
0
6
CONTINUOUS
10
-0.182036
20
0.472741
30
0.0
11
-0.181299
21
0.471594
31
0.0
0
LINE
8
0
6
CONTINUOUS
10
-0.180680
20
0.473682
30
0.0
11
-0.182036
21
0.472741
31
0.0
0
LINE
8
0
6
CONTINUOUS
10
-0.178586
20
0.473477
30
0.0
11
-0.180680
21
0.473682
31
0.0
0
LINE
8
0
6
CONTINUOUS
10
-0.177849
20
0.472330
30
0.0
11
-0.178586
21
0.473477
31
0.0
0
LINE
8
0
6
CONTINUOUS
10
-0.202173
20
0.466745
30
0.0
11
-0.204228
21
0.466436
31
0.0
0
LINE
8
0
6
CONTINUOUS
10
-0.200681
20
0.465875
30
0.0
11
-0.202173
21
0.466745
31
0.0
0
LINE
8
0
6
CONTINUOUS
10
-0.201244
20
0.464696
30
0.0
11
-0.200681
21
0.465875
31
0.0
0
LINE
8
0
6
CONTINUOUS
10
-0.203299
20
0.464387
30
0.0
11
-0.201244
21
0.464696
31
0.0
0
LINE
8
0
6
CONTINUOUS
10
-0.204791
20
0.465257
30
0.0
11
-0.203299
21
0.464387
31
0.0
0
LINE
8
0
6
CONTINUOUS
10
-0.204228
20
0.466436
30
0.0
11
-0.204791
21
0.465257
31
0.0
0
LINE
8
0
6
CONTINUOUS
10
-0.161686
20
0.455083
30
0.0
11
-0.160193
21
0.455953
31
0.0
0
LINE
8
0
6
CONTINUOUS
10
-0.163741
20
0.455392
30
0.0
11
-0.161686
21
0.455083
31
0.0
0
LINE
8
0
6
CONTINUOUS
10
-0.164304
20
0.456571
30
0.0
11
-0.163741
21
0.455392
31
0.0
0
LINE
8
0
6
CONTINUOUS
10
-0.162811
20
0.457442
30
0.0
11
-0.164304
21
0.456571
31
0.0
0
LINE
8
0
6
CONTINUOUS
10
-0.160756
20
0.457133
30
0.0
11
-0.162811
21
0.457442
31
0.0
0
LINE
8
0
6
CONTINUOUS
10
-0.160193
20
0.455953
30
0.0
11
-0.160756
21
0.457133
31
0.0
0
LINE
8
0
6
CONTINUOUS
10
-0.158792
20
0.440114
30
0.0
11
-0.159168
21
0.438910
31
0.0
0
LINE
8
0
6
CONTINUOUS
10
-0.156794
20
0.440528
30
0.0
11
-0.158792
21
0.440114
31
0.0
0
LINE
8
0
6
CONTINUOUS
10
-0.155171
20
0.439739
30
0.0
11
-0.156794
21
0.440528
31
0.0
0
LINE
8
0
6
CONTINUOUS
10
-0.155547
20
0.438535
30
0.0
11
-0.155171
21
0.439739
31
0.0
0
LINE
8
0
6
CONTINUOUS
10
-0.157546
20
0.438121
30
0.0
11
-0.155547
21
0.438535
31
0.0
0
LINE
8
0
6
CONTINUOUS
10
-0.159168
20
0.438910
30
0.0
11
-0.157546
21
0.438121
31
0.0
0
LINE
8
0
6
CONTINUOUS
10
-0.134675
20
0.441285
30
0.0
11
-0.136298
21
0.440495
31
0.0
0
LINE
8
0
6
CONTINUOUS
10
-0.132677
20
0.440870
30
0.0
11
-0.134675
21
0.441285
31
0.0
0
LINE
8
0
6
CONTINUOUS
10
-0.132301
20
0.439666
30
0.0
11
-0.132677
21
0.440870
31
0.0
0
LINE
8
0
6
CONTINUOUS
10
-0.133924
20
0.438877
30
0.0
11
-0.132301
21
0.439666
31
0.0
0
LINE
8
0
6
CONTINUOUS
10
-0.135922
20
0.439292
30
0.0
11
-0.133924
21
0.438877
31
0.0
0
LINE
8
0
6
CONTINUOUS
10
-0.136298
20
0.440495
30
0.0
11
-0.135922
21
0.439292
31
0.0
0
LINE
8
0
6
CONTINUOUS
10
-0.189559
20
0.438171
30
0.0
11
-0.187936
21
0.438961
31
0.0
0
LINE
8
0
6
CONTINUOUS
10
-0.191557
20
0.438586
30
0.0
11
-0.189559
21
0.438171
31
0.0
0
LINE
8
0
6
CONTINUOUS
10
-0.191933
20
0.439790
30
0.0
11
-0.191557
21
0.438586
31
0.0
0
LINE
8
0
6
CONTINUOUS
10
-0.190310
20
0.440579
30
0.0
11
-0.191933
21
0.439790
31
0.0
0
LINE
8
0
6
CONTINUOUS
10
-0.188312
20
0.440164
30
0.0
11
-0.190310
21
0.440579
31
0.0
0
LINE
8
0
6
CONTINUOUS
10
-0.187936
20
0.438961
30
0.0
11
-0.188312
21
0.440164
31
0.0
0
LINE
8
0
6
CONTINUOUS
10
-0.155657
20
0.468872
30
0.0
11
-0.153535
21
0.468820
31
0.0
0
LINE
8
0
6
CONTINUOUS
10
-0.156638
20
0.469957
30
0.0
11
-0.155657
21
0.468872
31
0.0
0
LINE
8
0
6
CONTINUOUS
10
-0.155498
20
0.470989
30
0.0
11
-0.156638
21
0.469957
31
0.0
0
LINE
8
0
6
CONTINUOUS
10
-0.153376
20
0.470936
30
0.0
11
-0.155498
21
0.470989
31
0.0
0
LINE
8
0
6
CONTINUOUS
10
-0.152394
20
0.469851
30
0.0
11
-0.153376
21
0.470936
31
0.0
0
LINE
8
0
6
CONTINUOUS
10
-0.153535
20
0.468820
30
0.0
11
-0.152394
21
0.469851
31
0.0
0
LINE
8
0
6
CONTINUOUS
10
-0.217821
20
0.446130
30
0.0
11
-0.215823
21
0.446545
31
0.0
0
LINE
8
0
6
CONTINUOUS
10
-0.219443
20
0.446919
30
0.0
11
-0.217821
21
0.446130
31
0.0
0
LINE
8
0
6
CONTINUOUS
10
-0.219068
20
0.448123
30
0.0
11
-0.219443
21
0.446919
31
0.0
0
LINE
8
0
6
CONTINUOUS
10
-0.217069
20
0.448538
30
0.0
11
-0.219068
21
0.448123
31
0.0
0
LINE
8
0
6
CONTINUOUS
10
-0.215447
20
0.447748
30
0.0
11
-0.217069
21
0.448538
31
0.0
0
LINE
8
0
6
CONTINUOUS
10
-0.215823
20
0.446545
30
0.0
11
-0.215447
21
0.447748
31
0.0
0
LINE
8
0
6
CONTINUOUS
10
-0.196714
20
0.454440
30
0.0
11
-0.198610
21
0.453889
31
0.0
0
LINE
8
0
6
CONTINUOUS
10
-0.194937
20
0.453770
30
0.0
11
-0.196714
21
0.454440
31
0.0
0
LINE
8
0
6
CONTINUOUS
10
-0.195056
20
0.452549
30
0.0
11
-0.194937
21
0.453770
31
0.0
0
LINE
8
0
6
CONTINUOUS
10
-0.196952
20
0.451998
30
0.0
11
-0.195056
21
0.452549
31
0.0
0
LINE
8
0
6
CONTINUOUS
10
-0.198729
20
0.452668
30
0.0
11
-0.196952
21
0.451998
31
0.0
0
LINE
8
0
6
CONTINUOUS
10
-0.198610
20
0.453889
30
0.0
11
-0.198729
21
0.452668
31
0.0
0
LINE
8
0
6
CONTINUOUS
10
-0.178755
20
0.441098
30
0.0
11
-0.177132
21
0.441888
31
0.0
0
LINE
8
0
6
CONTINUOUS
10
-0.180753
20
0.441513
30
0.0
11
-0.178755
21
0.441098
31
0.0
0
LINE
8
0
6
CONTINUOUS
10
-0.181129
20
0.442717
30
0.0
11
-0.180753
21
0.441513
31
0.0
0
LINE
8
0
6
CONTINUOUS
10
-0.179506
20
0.443506
30
0.0
11
-0.181129
21
0.442717
31
0.0
0
LINE
8
0
6
CONTINUOUS
10
-0.177508
20
0.443091
30
0.0
11
-0.179506
21
0.443506
31
0.0
0
LINE
8
0
6
CONTINUOUS
10
-0.177132
20
0.441888
30
0.0
11
-0.177508
21
0.443091
31
0.0
0
LINE
8
0
6
CONTINUOUS
10
-0.144378
20
0.438479
30
0.0
11
-0.146001
21
0.437690
31
0.0
0
LINE
8
0
6
CONTINUOUS
10
-0.142380
20
0.438064
30
0.0
11
-0.144378
21
0.438479
31
0.0
0
LINE
8
0
6
CONTINUOUS
10
-0.142004
20
0.436861
30
0.0
11
-0.142380
21
0.438064
31
0.0
0
LINE
8
0
6
CONTINUOUS
10
-0.143627
20
0.436072
30
0.0
11
-0.142004
21
0.436861
31
0.0
0
LINE
8
0
6
CONTINUOUS
10
-0.145625
20
0.436486
30
0.0
11
-0.143627
21
0.436072
31
0.0
0
LINE
8
0
6
CONTINUOUS
10
-0.146001
20
0.437690
30
0.0
11
-0.145625
21
0.436486
31
0.0
0
LINE
8
0
6
CONTINUOUS
10
-0.167364
20
0.430712
30
0.0
11
-0.165365
21
0.431126
31
0.0
0
LINE
8
0
6
CONTINUOUS
10
-0.168986
20
0.431501
30
0.0
11
-0.167364
21
0.430712
31
0.0
0
LINE
8
0
6
CONTINUOUS
10
-0.168611
20
0.432704
30
0.0
11
-0.168986
21
0.431501
31
0.0
0
LINE
8
0
6
CONTINUOUS
10
-0.166612
20
0.433119
30
0.0
11
-0.168611
21
0.432704
31
0.0
0
LINE
8
0
6
CONTINUOUS
10
-0.164990
20
0.432330
30
0.0
11
-0.166612
21
0.433119
31
0.0
0
LINE
8
0
6
CONTINUOUS
10
-0.165365
20
0.431126
30
0.0
11
-0.164990
21
0.432330
31
0.0
0
LINE
8
0
6
CONTINUOUS
10
-0.175074
20
0.479511
30
0.0
11
-0.175709
21
0.478344
31
0.0
0
LINE
8
0
6
CONTINUOUS
10
-0.173001
20
0.479778
30
0.0
11
-0.175074
21
0.479511
31
0.0
0
LINE
8
0
6
CONTINUOUS
10
-0.171563
20
0.478878
30
0.0
11
-0.173001
21
0.479778
31
0.0
0
LINE
8
0
6
CONTINUOUS
10
-0.172198
20
0.477711
30
0.0
11
-0.171563
21
0.478878
31
0.0
0
LINE
8
0
6
CONTINUOUS
10
-0.174271
20
0.477444
30
0.0
11
-0.172198
21
0.477711
31
0.0
0
LINE
8
0
6
CONTINUOUS
10
-0.175709
20
0.478344
30
0.0
11
-0.174271
21
0.477444
31
0.0
0
LINE
8
0
6
CONTINUOUS
10
-0.152049
20
0.452478
30
0.0
11
-0.150153
21
0.451927
31
0.0
0
LINE
8
0
6
CONTINUOUS
10
-0.152168
20
0.453699
30
0.0
11
-0.152049
21
0.452478
31
0.0
0
LINE
8
0
6
CONTINUOUS
10
-0.150390
20
0.454369
30
0.0
11
-0.152168
21
0.453699
31
0.0
0
LINE
8
0
6
CONTINUOUS
10
-0.148494
20
0.453818
30
0.0
11
-0.150390
21
0.454369
31
0.0
0
LINE
8
0
6
CONTINUOUS
10
-0.148375
20
0.452597
30
0.0
11
-0.148494
21
0.453818
31
0.0
0
LINE
8
0
6
CONTINUOUS
10
-0.150153
20
0.451927
30
0.0
11
-0.148375
21
0.452597
31
0.0
0
LINE
8
0
6
CONTINUOUS
10
-0.187689
20
0.476097
30
0.0
11
-0.185595
21
0.475892
31
0.0
0
LINE
8
0
6
CONTINUOUS
10
-0.188427
20
0.477244
30
0.0
11
-0.187689
21
0.476097
31
0.0
0
LINE
8
0
6
CONTINUOUS
10
-0.187071
20
0.478185
30
0.0
11
-0.188427
21
0.477244
31
0.0
0
LINE
8
0
6
CONTINUOUS
10
-0.184977
20
0.477980
30
0.0
11
-0.187071
21
0.478185
31
0.0
0
LINE
8
0
6
CONTINUOUS
10
-0.184239
20
0.476833
30
0.0
11
-0.184977
21
0.477980
31
0.0
0
LINE
8
0
6
CONTINUOUS
10
-0.185595
20
0.475892
30
0.0
11
-0.184239
21
0.476833
31
0.0
0
LINE
8
0
6
CONTINUOUS
10
-0.210922
20
0.459679
30
0.0
11
-0.211041
21
0.458458
31
0.0
0
LINE
8
0
6
CONTINUOUS
10
-0.209026
20
0.460230
30
0.0
11
-0.210922
21
0.459679
31
0.0
0
LINE
8
0
6
CONTINUOUS
10
-0.207249
20
0.459561
30
0.0
11
-0.209026
21
0.460230
31
0.0
0
LINE
8
0
6
CONTINUOUS
10
-0.207368
20
0.458340
30
0.0
11
-0.207249
21
0.459561
31
0.0
0
LINE
8
0
6
CONTINUOUS
10
-0.209264
20
0.457788
30
0.0
11
-0.207368
21
0.458340
31
0.0
0
LINE
8
0
6
CONTINUOUS
10
-0.211041
20
0.458458
30
0.0
11
-0.209264
21
0.457788
31
0.0
0
LINE
8
0
6
CONTINUOUS
10
-0.174534
20
0.459881
30
0.0
11
-0.175147
21
0.459326
31
0.0
0
LINE
8
0
6
CONTINUOUS
10
-0.175147
20
0.459326
30
0.0
11
-0.175674
21
0.458849
31
0.0
0
LINE
8
0
6
CONTINUOUS
10
-0.172412
20
0.459828
30
0.0
11
-0.174534
21
0.459881
31
0.0
0
LINE
8
0
6
CONTINUOUS
10
-0.171430
20
0.458743
30
0.0
11
-0.172412
21
0.459828
31
0.0
0
LINE
8
0
6
CONTINUOUS
10
-0.172571
20
0.457712
30
0.0
11
-0.171430
21
0.458743
31
0.0
0
LINE
8
0
6
CONTINUOUS
10
-0.174693
20
0.457765
30
0.0
11
-0.172571
21
0.457712
31
0.0
0
LINE
8
0
6
CONTINUOUS
10
-0.175674
20
0.458849
30
0.0
11
-0.175626
21
0.458796
31
0.0
0
LINE
8
0
6
CONTINUOUS
10
-0.175626
20
0.458796
30
0.0
11
-0.174693
21
0.457765
31
0.0
0
LINE
8
0
6
CONTINUOUS
10
-0.166283
20
0.429898
30
0.0
11
-0.168282
21
0.429484
31
0.0
0
LINE
8
0
6
CONTINUOUS
10
-0.164661
20
0.429109
30
0.0
11
-0.166283
21
0.429898
31
0.0
0
LINE
8
0
6
CONTINUOUS
10
-0.165037
20
0.427905
30
0.0
11
-0.164661
21
0.429109
31
0.0
0
LINE
8
0
6
CONTINUOUS
10
-0.167035
20
0.427491
30
0.0
11
-0.165037
21
0.427905
31
0.0
0
LINE
8
0
6
CONTINUOUS
10
-0.168658
20
0.428280
30
0.0
11
-0.167035
21
0.427491
31
0.0
0
LINE
8
0
6
CONTINUOUS
10
-0.168282
20
0.429484
30
0.0
11
-0.168658
21
0.428280
31
0.0
0
LINE
8
0
6
CONTINUOUS
10
-0.203890
20
0.449745
30
0.0
11
-0.205512
21
0.448956
31
0.0
0
LINE
8
0
6
CONTINUOUS
10
-0.201891
20
0.449330
30
0.0
11
-0.203890
21
0.449745
31
0.0
0
LINE
8
0
6
CONTINUOUS
10
-0.201516
20
0.448127
30
0.0
11
-0.201891
21
0.449330
31
0.0
0
LINE
8
0
6
CONTINUOUS
10
-0.203138
20
0.447337
30
0.0
11
-0.201516
21
0.448127
31
0.0
0
LINE
8
0
6
CONTINUOUS
10
-0.205137
20
0.447752
30
0.0
11
-0.203138
21
0.447337
31
0.0
0
LINE
8
0
6
CONTINUOUS
10
-0.205512
20
0.448956
30
0.0
11
-0.205137
21
0.447752
31
0.0
0
LINE
8
0
6
CONTINUOUS
10
-0.168188
20
0.463274
30
0.0
11
-0.169329
21
0.462242
31
0.0
0
LINE
8
0
6
CONTINUOUS
10
-0.166066
20
0.463221
30
0.0
11
-0.168188
21
0.463274
31
0.0
0
LINE
8
0
6
CONTINUOUS
10
-0.165085
20
0.462137
30
0.0
11
-0.166066
21
0.463221
31
0.0
0
LINE
8
0
6
CONTINUOUS
10
-0.166225
20
0.461105
30
0.0
11
-0.165085
21
0.462137
31
0.0
0
LINE
8
0
6
CONTINUOUS
10
-0.168347
20
0.461158
30
0.0
11
-0.166225
21
0.461105
31
0.0
0
LINE
8
0
6
CONTINUOUS
10
-0.169329
20
0.462242
30
0.0
11
-0.168347
21
0.461158
31
0.0
0
LINE
8
0
6
CONTINUOUS
10
-0.208133
20
0.470000
30
0.0
11
-0.210188
21
0.469691
31
0.0
0
LINE
8
0
6
CONTINUOUS
10
-0.206641
20
0.469130
30
0.0
11
-0.208133
21
0.470000
31
0.0
0
LINE
8
0
6
CONTINUOUS
10
-0.207204
20
0.467951
30
0.0
11
-0.206641
21
0.469130
31
0.0
0
LINE
8
0
6
CONTINUOUS
10
-0.209259
20
0.467642
30
0.0
11
-0.207204
21
0.467951
31
0.0
0
LINE
8
0
6
CONTINUOUS
10
-0.210751
20
0.468512
30
0.0
11
-0.209259
21
0.467642
31
0.0
0
LINE
8
0
6
CONTINUOUS
10
-0.210188
20
0.469691
30
0.0
11
-0.210751
21
0.468512
31
0.0
0
LINE
8
0
6
CONTINUOUS
10
-0.157989
20
0.444397
30
0.0
11
-0.159988
21
0.443982
31
0.0
0
LINE
8
0
6
CONTINUOUS
10
-0.156367
20
0.443608
30
0.0
11
-0.157989
21
0.444397
31
0.0
0
LINE
8
0
6
CONTINUOUS
10
-0.156742
20
0.442404
30
0.0
11
-0.156367
21
0.443608
31
0.0
0
LINE
8
0
6
CONTINUOUS
10
-0.158741
20
0.441989
30
0.0
11
-0.156742
21
0.442404
31
0.0
0
LINE
8
0
6
CONTINUOUS
10
-0.160363
20
0.442778
30
0.0
11
-0.158741
21
0.441989
31
0.0
0
LINE
8
0
6
CONTINUOUS
10
-0.159988
20
0.443982
30
0.0
11
-0.160363
21
0.442778
31
0.0
0
LINE
8
0
6
CONTINUOUS
10
-0.181038
20
0.463241
30
0.0
11
-0.182020
21
0.462156
31
0.0
0
LINE
8
0
6
CONTINUOUS
10
-0.178916
20
0.463293
30
0.0
11
-0.181038
21
0.463241
31
0.0
0
LINE
8
0
6
CONTINUOUS
10
-0.177775
20
0.462262
30
0.0
11
-0.178916
21
0.463293
31
0.0
0
LINE
8
0
6
CONTINUOUS
10
-0.178757
20
0.461177
30
0.0
11
-0.177775
21
0.462262
31
0.0
0
LINE
8
0
6
CONTINUOUS
10
-0.180879
20
0.461124
30
0.0
11
-0.178757
21
0.461177
31
0.0
0
LINE
8
0
6
CONTINUOUS
10
-0.182020
20
0.462156
30
0.0
11
-0.180879
21
0.461124
31
0.0
0
LINE
8
0
6
CONTINUOUS
10
-0.137840
20
0.457683
30
0.0
11
-0.136063
21
0.458353
31
0.0
0
LINE
8
0
6
CONTINUOUS
10
-0.139736
20
0.458234
30
0.0
11
-0.137840
21
0.457683
31
0.0
0
LINE
8
0
6
CONTINUOUS
10
-0.139855
20
0.459455
30
0.0
11
-0.139736
21
0.458234
31
0.0
0
LINE
8
0
6
CONTINUOUS
10
-0.138078
20
0.460125
30
0.0
11
-0.139855
21
0.459455
31
0.0
0
LINE
8
0
6
CONTINUOUS
10
-0.136182
20
0.459574
30
0.0
11
-0.138078
21
0.460125
31
0.0
0
LINE
8
0
6
CONTINUOUS
10
-0.136063
20
0.458353
30
0.0
11
-0.136182
21
0.459574
31
0.0
0
LINE
8
0
6
CONTINUOUS
10
-0.214427
20
0.440995
30
0.0
11
-0.214803
21
0.439791
31
0.0
0
LINE
8
0
6
CONTINUOUS
10
-0.212429
20
0.441409
30
0.0
11
-0.214427
21
0.440995
31
0.0
0
LINE
8
0
6
CONTINUOUS
10
-0.210806
20
0.440620
30
0.0
11
-0.212429
21
0.441409
31
0.0
0
LINE
8
0
6
CONTINUOUS
10
-0.211182
20
0.439416
30
0.0
11
-0.210806
21
0.440620
31
0.0
0
LINE
8
0
6
CONTINUOUS
10
-0.213180
20
0.439002
30
0.0
11
-0.211182
21
0.439416
31
0.0
0
LINE
8
0
6
CONTINUOUS
10
-0.214803
20
0.439791
30
0.0
11
-0.213180
21
0.439002
31
0.0
0
LINE
8
0
6
CONTINUOUS
10
-0.190253
20
0.460375
30
0.0
11
-0.192308
21
0.460066
31
0.0
0
LINE
8
0
6
CONTINUOUS
10
-0.188761
20
0.459505
30
0.0
11
-0.190253
21
0.460375
31
0.0
0
LINE
8
0
6
CONTINUOUS
10
-0.189324
20
0.458326
30
0.0
11
-0.188761
21
0.459505
31
0.0
0
LINE
8
0
6
CONTINUOUS
10
-0.191379
20
0.458017
30
0.0
11
-0.189324
21
0.458326
31
0.0
0
LINE
8
0
6
CONTINUOUS
10
-0.192871
20
0.458887
30
0.0
11
-0.191379
21
0.458017
31
0.0
0
LINE
8
0
6
CONTINUOUS
10
-0.192308
20
0.460066
30
0.0
11
-0.192871
21
0.458887
31
0.0
0
LINE
8
0
6
CONTINUOUS
10
-0.167646
20
0.452423
30
0.0
11
-0.166153
21
0.453293
31
0.0
0
LINE
8
0
6
CONTINUOUS
10
-0.169701
20
0.452732
30
0.0
11
-0.167646
21
0.452423
31
0.0
0
LINE
8
0
6
CONTINUOUS
10
-0.170264
20
0.453911
30
0.0
11
-0.169701
21
0.452732
31
0.0
0
LINE
8
0
6
CONTINUOUS
10
-0.168771
20
0.454781
30
0.0
11
-0.170264
21
0.453911
31
0.0
0
LINE
8
0
6
CONTINUOUS
10
-0.166716
20
0.454472
30
0.0
11
-0.168771
21
0.454781
31
0.0
0
LINE
8
0
6
CONTINUOUS
10
-0.166153
20
0.453293
30
0.0
11
-0.166716
21
0.454472
31
0.0
0
LINE
8
0
6
CONTINUOUS
10
-0.193948
20
0.431192
30
0.0
11
-0.191949
21
0.430777
31
0.0
0
LINE
8
0
6
CONTINUOUS
10
-0.194323
20
0.432395
30
0.0
11
-0.193948
21
0.431192
31
0.0
0
LINE
8
0
6
CONTINUOUS
10
-0.192701
20
0.433185
30
0.0
11
-0.194323
21
0.432395
31
0.0
0
LINE
8
0
6
CONTINUOUS
10
-0.190702
20
0.432770
30
0.0
11
-0.192701
21
0.433185
31
0.0
0
LINE
8
0
6
CONTINUOUS
10
-0.190327
20
0.431566
30
0.0
11
-0.190702
21
0.432770
31
0.0
0
LINE
8
0
6
CONTINUOUS
10
-0.191949
20
0.430777
30
0.0
11
-0.190327
21
0.431566
31
0.0
0
LINE
8
0
6
CONTINUOUS
10
-0.174908
20
0.467315
30
0.0
11
-0.172815
21
0.467109
31
0.0
0
LINE
8
0
6
CONTINUOUS
10
-0.175646
20
0.468462
30
0.0
11
-0.174908
21
0.467315
31
0.0
0
LINE
8
0
6
CONTINUOUS
10
-0.174290
20
0.469403
30
0.0
11
-0.175646
21
0.468462
31
0.0
0
LINE
8
0
6
CONTINUOUS
10
-0.172196
20
0.469198
30
0.0
11
-0.174290
21
0.469403
31
0.0
0
LINE
8
0
6
CONTINUOUS
10
-0.171458
20
0.468051
30
0.0
11
-0.172196
21
0.469198
31
0.0
0
LINE
8
0
6
CONTINUOUS
10
-0.172815
20
0.467109
30
0.0
11
-0.171458
21
0.468051
31
0.0
0
LINE
8
0
6
CONTINUOUS
10
-0.191506
20
0.436813
30
0.0
11
-0.193128
21
0.436023
31
0.0
0
LINE
8
0
6
CONTINUOUS
10
-0.189507
20
0.436398
30
0.0
11
-0.191506
21
0.436813
31
0.0
0
LINE
8
0
6
CONTINUOUS
10
-0.189131
20
0.435195
30
0.0
11
-0.189507
21
0.436398
31
0.0
0
LINE
8
0
6
CONTINUOUS
10
-0.190754
20
0.434405
30
0.0
11
-0.189131
21
0.435195
31
0.0
0
LINE
8
0
6
CONTINUOUS
10
-0.192752
20
0.434820
30
0.0
11
-0.190754
21
0.434405
31
0.0
0
LINE
8
0
6
CONTINUOUS
10
-0.193128
20
0.436023
30
0.0
11
-0.192752
21
0.434820
31
0.0
0
LINE
8
0
6
CONTINUOUS
10
-0.172571
20
0.459881
30
0.0
11
-0.174693
21
0.459828
31
0.0
0
LINE
8
0
6
CONTINUOUS
10
-0.171430
20
0.458849
30
0.0
11
-0.172571
21
0.459881
31
0.0
0
LINE
8
0
6
CONTINUOUS
10
-0.172412
20
0.457765
30
0.0
11
-0.171430
21
0.458849
31
0.0
0
LINE
8
0
6
CONTINUOUS
10
-0.174534
20
0.457712
30
0.0
11
-0.172412
21
0.457765
31
0.0
0
LINE
8
0
6
CONTINUOUS
10
-0.175674
20
0.458743
30
0.0
11
-0.174534
21
0.457712
31
0.0
0
LINE
8
0
6
CONTINUOUS
10
-0.174693
20
0.459828
30
0.0
11
-0.175674
21
0.458743
31
0.0
0
LINE
8
0
6
CONTINUOUS
10
-0.161843
20
0.466928
30
0.0
11
-0.162984
21
0.465897
31
0.0
0
LINE
8
0
6
CONTINUOUS
10
-0.159721
20
0.466876
30
0.0
11
-0.161843
21
0.466928
31
0.0
0
LINE
8
0
6
CONTINUOUS
10
-0.158740
20
0.465791
30
0.0
11
-0.159721
21
0.466876
31
0.0
0
LINE
8
0
6
CONTINUOUS
10
-0.159880
20
0.464759
30
0.0
11
-0.158740
21
0.465791
31
0.0
0
LINE
8
0
6
CONTINUOUS
10
-0.162002
20
0.464812
30
0.0
11
-0.159880
21
0.464759
31
0.0
0
LINE
8
0
6
CONTINUOUS
10
-0.162984
20
0.465897
30
0.0
11
-0.162002
21
0.464812
31
0.0
0
LINE
8
0
6
CONTINUOUS
10
-0.150891
20
0.463233
30
0.0
11
-0.152384
21
0.462363
31
0.0
0
LINE
8
0
6
CONTINUOUS
10
-0.148836
20
0.462924
30
0.0
11
-0.150891
21
0.463233
31
0.0
0
LINE
8
0
6
CONTINUOUS
10
-0.148273
20
0.461745
30
0.0
11
-0.148836
21
0.462924
31
0.0
0
LINE
8
0
6
CONTINUOUS
10
-0.149766
20
0.460874
30
0.0
11
-0.148273
21
0.461745
31
0.0
0
LINE
8
0
6
CONTINUOUS
10
-0.151821
20
0.461183
30
0.0
11
-0.149766
21
0.460874
31
0.0
0
LINE
8
0
6
CONTINUOUS
10
-0.152384
20
0.462363
30
0.0
11
-0.151821
21
0.461183
31
0.0
0
LINE
8
0
6
CONTINUOUS
10
-0.212524
20
0.450607
30
0.0
11
-0.210526
21
0.450192
31
0.0
0
LINE
8
0
6
CONTINUOUS
10
-0.212900
20
0.451811
30
0.0
11
-0.212524
21
0.450607
31
0.0
0
LINE
8
0
6
CONTINUOUS
10
-0.211277
20
0.452600
30
0.0
11
-0.212900
21
0.451811
31
0.0
0
LINE
8
0
6
CONTINUOUS
10
-0.209279
20
0.452185
30
0.0
11
-0.211277
21
0.452600
31
0.0
0
LINE
8
0
6
CONTINUOUS
10
-0.208903
20
0.450982
30
0.0
11
-0.209279
21
0.452185
31
0.0
0
LINE
8
0
6
CONTINUOUS
10
-0.210526
20
0.450192
30
0.0
11
-0.208903
21
0.450982
31
0.0
0
LINE
8
0
6
CONTINUOUS
10
-0.190558
20
0.451798
30
0.0
11
-0.192454
21
0.451246
31
0.0
0
LINE
8
0
6
CONTINUOUS
10
-0.188781
20
0.451128
30
0.0
11
-0.190558
21
0.451798
31
0.0
0
LINE
8
0
6
CONTINUOUS
10
-0.188900
20
0.449907
30
0.0
11
-0.188781
21
0.451128
31
0.0
0
LINE
8
0
6
CONTINUOUS
10
-0.190796
20
0.449355
30
0.0
11
-0.188900
21
0.449907
31
0.0
0
LINE
8
0
6
CONTINUOUS
10
-0.192573
20
0.450025
30
0.0
11
-0.190796
21
0.449355
31
0.0
0
LINE
8
0
6
CONTINUOUS
10
-0.192454
20
0.451246
30
0.0
11
-0.192573
21
0.450025
31
0.0
0
LINE
8
0
6
CONTINUOUS
10
-0.143997
20
0.454762
30
0.0
11
-0.142219
21
0.455432
31
0.0
0
LINE
8
0
6
CONTINUOUS
10
-0.145893
20
0.455314
30
0.0
11
-0.143997
21
0.454762
31
0.0
0
LINE
8
0
6
CONTINUOUS
10
-0.146011
20
0.456535
30
0.0
11
-0.145893
21
0.455314
31
0.0
0
LINE
8
0
6
CONTINUOUS
10
-0.144234
20
0.457205
30
0.0
11
-0.146011
21
0.456535
31
0.0
0
LINE
8
0
6
CONTINUOUS
10
-0.142338
20
0.456653
30
0.0
11
-0.144234
21
0.457205
31
0.0
0
LINE
8
0
6
CONTINUOUS
10
-0.142219
20
0.455432
30
0.0
11
-0.142338
21
0.456653
31
0.0
0
LINE
8
0
6
CONTINUOUS
10
-0.185261
20
0.466960
30
0.0
11
-0.187383
21
0.466908
31
0.0
0
LINE
8
0
6
CONTINUOUS
10
-0.184121
20
0.465929
30
0.0
11
-0.185261
21
0.466960
31
0.0
0
LINE
8
0
6
CONTINUOUS
10
-0.185102
20
0.464844
30
0.0
11
-0.184121
21
0.465929
31
0.0
0
LINE
8
0
6
CONTINUOUS
10
-0.187224
20
0.464791
30
0.0
11
-0.185102
21
0.464844
31
0.0
0
LINE
8
0
6
CONTINUOUS
10
-0.188365
20
0.465823
30
0.0
11
-0.187224
21
0.464791
31
0.0
0
LINE
8
0
6
CONTINUOUS
10
-0.187383
20
0.466908
30
0.0
11
-0.188365
21
0.465823
31
0.0
0
LINE
8
0
6
CONTINUOUS
10
-0.164361
20
0.447588
30
0.0
11
-0.162465
21
0.447036
31
0.0
0
LINE
8
0
6
CONTINUOUS
10
-0.164480
20
0.448809
30
0.0
11
-0.164361
21
0.447588
31
0.0
0
LINE
8
0
6
CONTINUOUS
10
-0.162703
20
0.449478
30
0.0
11
-0.164480
21
0.448809
31
0.0
0
LINE
8
0
6
CONTINUOUS
10
-0.160807
20
0.448927
30
0.0
11
-0.162703
21
0.449478
31
0.0
0
LINE
8
0
6
CONTINUOUS
10
-0.160688
20
0.447706
30
0.0
11
-0.160807
21
0.448927
31
0.0
0
LINE
8
0
6
CONTINUOUS
10
-0.162465
20
0.447036
30
0.0
11
-0.160688
21
0.447706
31
0.0
0
LINE
8
0
6
CONTINUOUS
10
-0.191606
20
0.471044
30
0.0
11
-0.193729
21
0.470991
31
0.0
0
LINE
8
0
6
CONTINUOUS
10
-0.190466
20
0.470012
30
0.0
11
-0.191606
21
0.471044
31
0.0
0
LINE
8
0
6
CONTINUOUS
10
-0.191447
20
0.468928
30
0.0
11
-0.190466
21
0.470012
31
0.0
0
LINE
8
0
6
CONTINUOUS
10
-0.193570
20
0.468875
30
0.0
11
-0.191447
21
0.468928
31
0.0
0
LINE
8
0
6
CONTINUOUS
10
-0.194710
20
0.469906
30
0.0
11
-0.193570
21
0.468875
31
0.0
0
LINE
8
0
6
CONTINUOUS
10
-0.193729
20
0.470991
30
0.0
11
-0.194710
21
0.469906
31
0.0
0
LINE
8
0
6
CONTINUOUS
10
-0.204321
20
0.432605
30
0.0
11
-0.202323
21
0.433019
31
0.0
0
LINE
8
0
6
CONTINUOUS
10
-0.205944
20
0.433394
30
0.0
11
-0.204321
21
0.432605
31
0.0
0
LINE
8
0
6
CONTINUOUS
10
-0.205568
20
0.434598
30
0.0
11
-0.205944
21
0.433394
31
0.0
0
LINE
8
0
6
CONTINUOUS
10
-0.203570
20
0.435012
30
0.0
11
-0.205568
21
0.434598
31
0.0
0
LINE
8
0
6
CONTINUOUS
10
-0.201947
20
0.434223
30
0.0
11
-0.203570
21
0.435012
31
0.0
0
LINE
8
0
6
CONTINUOUS
10
-0.202323
20
0.433019
30
0.0
11
-0.201947
21
0.434223
31
0.0
0
LINE
8
0
6
CONTINUOUS
10
-0.180821
20
0.430012
30
0.0
11
-0.182444
21
0.429223
31
0.0
0
LINE
8
0
6
CONTINUOUS
10
-0.178823
20
0.429597
30
0.0
11
-0.180821
21
0.430012
31
0.0
0
LINE
8
0
6
CONTINUOUS
10
-0.178447
20
0.428394
30
0.0
11
-0.178823
21
0.429597
31
0.0
0
LINE
8
0
6
CONTINUOUS
10
-0.180069
20
0.427605
30
0.0
11
-0.178447
21
0.428394
31
0.0
0
LINE
8
0
6
CONTINUOUS
10
-0.182068
20
0.428019
30
0.0
11
-0.180069
21
0.427605
31
0.0
0
LINE
8
0
6
CONTINUOUS
10
-0.182444
20
0.429223
30
0.0
11
-0.182068
21
0.428019
31
0.0
0
LINE
8
0
6
CONTINUOUS
10
-0.217078
20
0.463066
30
0.0
11
-0.217197
21
0.461845
31
0.0
0
LINE
8
0
6
CONTINUOUS
10
-0.215182
20
0.463617
30
0.0
11
-0.217078
21
0.463066
31
0.0
0
LINE
8
0
6
CONTINUOUS
10
-0.213405
20
0.462947
30
0.0
11
-0.215182
21
0.463617
31
0.0
0
LINE
8
0
6
CONTINUOUS
10
-0.213524
20
0.461726
30
0.0
11
-0.213405
21
0.462947
31
0.0
0
LINE
8
0
6
CONTINUOUS
10
-0.215420
20
0.461175
30
0.0
11
-0.213524
21
0.461726
31
0.0
0
LINE
8
0
6
CONTINUOUS
10
-0.217197
20
0.461845
30
0.0
11
-0.215420
21
0.461175
31
0.0
0
LINE
8
0
6
CONTINUOUS
10
-0.138971
20
0.469902
30
0.0
11
-0.140464
21
0.469032
31
0.0
0
LINE
8
0
6
CONTINUOUS
10
-0.136916
20
0.469593
30
0.0
11
-0.138971
21
0.469902
31
0.0
0
LINE
8
0
6
CONTINUOUS
10
-0.136353
20
0.468414
30
0.0
11
-0.136916
21
0.469593
31
0.0
0
LINE
8
0
6
CONTINUOUS
10
-0.137846
20
0.467544
30
0.0
11
-0.136353
21
0.468414
31
0.0
0
LINE
8
0
6
CONTINUOUS
10
-0.139901
20
0.467853
30
0.0
11
-0.137846
21
0.467544
31
0.0
0
LINE
8
0
6
CONTINUOUS
10
-0.140464
20
0.469032
30
0.0
11
-0.139901
21
0.467853
31
0.0
0
LINE
8
0
6
CONTINUOUS
10
-0.193145
20
0.427712
30
0.0
11
-0.191522
21
0.428501
31
0.0
0
LINE
8
0
6
CONTINUOUS
10
-0.195143
20
0.428126
30
0.0
11
-0.193145
21
0.427712
31
0.0
0
LINE
8
0
6
CONTINUOUS
10
-0.195519
20
0.429330
30
0.0
11
-0.195143
21
0.428126
31
0.0
0
LINE
8
0
6
CONTINUOUS
10
-0.193896
20
0.430119
30
0.0
11
-0.195519
21
0.429330
31
0.0
0
LINE
8
0
6
CONTINUOUS
10
-0.191898
20
0.429705
30
0.0
11
-0.193896
21
0.430119
31
0.0
0
LINE
8
0
6
CONTINUOUS
10
-0.191522
20
0.428501
30
0.0
11
-0.191898
21
0.429705
31
0.0
0
LINE
8
0
6
CONTINUOUS
10
-0.147594
20
0.440473
30
0.0
11
-0.145596
21
0.440058
31
0.0
0
LINE
8
0
6
CONTINUOUS
10
-0.147970
20
0.441676
30
0.0
11
-0.147594
21
0.440473
31
0.0
0
LINE
8
0
6
CONTINUOUS
10
-0.146347
20
0.442466
30
0.0
11
-0.147970
21
0.441676
31
0.0
0
LINE
8
0
6
CONTINUOUS
10
-0.144349
20
0.442051
30
0.0
11
-0.146347
21
0.442466
31
0.0
0
LINE
8
0
6
CONTINUOUS
10
-0.143973
20
0.440847
30
0.0
11
-0.144349
21
0.442051
31
0.0
0
LINE
8
0
6
CONTINUOUS
10
-0.145596
20
0.440058
30
0.0
11
-0.143973
21
0.440847
31
0.0
0
LINE
8
0
6
CONTINUOUS
10
-0.133580
20
0.461590
30
0.0
11
-0.131684
21
0.461039
31
0.0
0
LINE
8
0
6
CONTINUOUS
10
-0.133699
20
0.462811
30
0.0
11
-0.133580
21
0.461590
31
0.0
0
LINE
8
0
6
CONTINUOUS
10
-0.131922
20
0.463481
30
0.0
11
-0.133699
21
0.462811
31
0.0
0
LINE
8
0
6
CONTINUOUS
10
-0.130026
20
0.462930
30
0.0
11
-0.131922
21
0.463481
31
0.0
0
LINE
8
0
6
CONTINUOUS
10
-0.129907
20
0.461709
30
0.0
11
-0.130026
21
0.462930
31
0.0
0
LINE
8
0
6
CONTINUOUS
10
-0.131684
20
0.461039
30
0.0
11
-0.129907
21
0.461709
31
0.0
0
LINE
8
0
6
CONTINUOUS
10
-0.149153
20
0.474997
30
0.0
11
-0.150293
21
0.473966
31
0.0
0
LINE
8
0
6
CONTINUOUS
10
-0.147031
20
0.474944
30
0.0
11
-0.149153
21
0.474997
31
0.0
0
LINE
8
0
6
CONTINUOUS
10
-0.146049
20
0.473860
30
0.0
11
-0.147031
21
0.474944
31
0.0
0
LINE
8
0
6
CONTINUOUS
10
-0.147190
20
0.472828
30
0.0
11
-0.146049
21
0.473860
31
0.0
0
LINE
8
0
6
CONTINUOUS
10
-0.149312
20
0.472881
30
0.0
11
-0.147190
21
0.472828
31
0.0
0
LINE
8
0
6
CONTINUOUS
10
-0.150293
20
0.473966
30
0.0
11
-0.149312
21
0.472881
31
0.0
0
LINE
8
0
6
CONTINUOUS
10
-0.197339
20
0.460944
30
0.0
11
-0.195284
21
0.461253
31
0.0
0
LINE
8
0
6
CONTINUOUS
10
-0.198831
20
0.461814
30
0.0
11
-0.197339
21
0.460944
31
0.0
0
LINE
8
0
6
CONTINUOUS
10
-0.198268
20
0.462993
30
0.0
11
-0.198831
21
0.461814
31
0.0
0
LINE
8
0
6
CONTINUOUS
10
-0.196213
20
0.463302
30
0.0
11
-0.198268
21
0.462993
31
0.0
0
LINE
8
0
6
CONTINUOUS
10
-0.194721
20
0.462432
30
0.0
11
-0.196213
21
0.463302
31
0.0
0
LINE
8
0
6
CONTINUOUS
10
-0.195284
20
0.461253
30
0.0
11
-0.194721
21
0.462432
31
0.0
0
LINE
8
0
6
CONTINUOUS
10
-0.144931
20
0.466647
30
0.0
11
-0.146424
21
0.465776
31
0.0
0
LINE
8
0
6
CONTINUOUS
10
-0.142876
20
0.466338
30
0.0
11
-0.144931
21
0.466647
31
0.0
0
LINE
8
0
6
CONTINUOUS
10
-0.142313
20
0.465158
30
0.0
11
-0.142876
21
0.466338
31
0.0
0
LINE
8
0
6
CONTINUOUS
10
-0.143806
20
0.464288
30
0.0
11
-0.142313
21
0.465158
31
0.0
0
LINE
8
0
6
CONTINUOUS
10
-0.145861
20
0.464597
30
0.0
11
-0.143806
21
0.464288
31
0.0
0
LINE
8
0
6
CONTINUOUS
10
-0.146424
20
0.465776
30
0.0
11
-0.145861
21
0.464597
31
0.0
0
LINE
8
0
6
CONTINUOUS
10
-0.186298
20
0.448957
30
0.0
11
-0.186417
21
0.447736
31
0.0
0
LINE
8
0
6
CONTINUOUS
10
-0.184402
20
0.449509
30
0.0
11
-0.186298
21
0.448957
31
0.0
0
LINE
8
0
6
CONTINUOUS
10
-0.182625
20
0.448839
30
0.0
11
-0.184402
21
0.449509
31
0.0
0
LINE
8
0
6
CONTINUOUS
10
-0.182743
20
0.447618
30
0.0
11
-0.182625
21
0.448839
31
0.0
0
LINE
8
0
6
CONTINUOUS
10
-0.184639
20
0.447067
30
0.0
11
-0.182743
21
0.447618
31
0.0
0
LINE
8
0
6
CONTINUOUS
10
-0.186417
20
0.447736
30
0.0
11
-0.184639
21
0.447067
31
0.0
0
LINE
8
0
6
CONTINUOUS
10
-0.188364
20
0.442040
30
0.0
11
-0.186741
21
0.442829
31
0.0
0
LINE
8
0
6
CONTINUOUS
10
-0.190362
20
0.442454
30
0.0
11
-0.188364
21
0.442040
31
0.0
0
LINE
8
0
6
CONTINUOUS
10
-0.190738
20
0.443658
30
0.0
11
-0.190362
21
0.442454
31
0.0
0
LINE
8
0
6
CONTINUOUS
10
-0.189115
20
0.444447
30
0.0
11
-0.190738
21
0.443658
31
0.0
0
LINE
8
0
6
CONTINUOUS
10
-0.187117
20
0.444033
30
0.0
11
-0.189115
21
0.444447
31
0.0
0
LINE
8
0
6
CONTINUOUS
10
-0.186741
20
0.442829
30
0.0
11
-0.187117
21
0.444033
31
0.0
0
LINE
8
0
6
CONTINUOUS
10
-0.156402
20
0.432786
30
0.0
11
-0.156778
21
0.431582
31
0.0
0
LINE
8
0
6
CONTINUOUS
10
-0.154404
20
0.433201
30
0.0
11
-0.156402
21
0.432786
31
0.0
0
LINE
8
0
6
CONTINUOUS
10
-0.152781
20
0.432412
30
0.0
11
-0.154404
21
0.433201
31
0.0
0
LINE
8
0
6
CONTINUOUS
10
-0.153157
20
0.431208
30
0.0
11
-0.152781
21
0.432412
31
0.0
0
LINE
8
0
6
CONTINUOUS
10
-0.155155
20
0.430793
30
0.0
11
-0.153157
21
0.431208
31
0.0
0
LINE
8
0
6
CONTINUOUS
10
-0.156778
20
0.431582
30
0.0
11
-0.155155
21
0.430793
31
0.0
0
LINE
8
0
6
CONTINUOUS
10
-0.166424
20
0.473664
30
0.0
11
-0.168518
21
0.473458
31
0.0
0
LINE
8
0
6
CONTINUOUS
10
-0.165068
20
0.472722
30
0.0
11
-0.166424
21
0.473664
31
0.0
0
LINE
8
0
6
CONTINUOUS
10
-0.165806
20
0.471575
30
0.0
11
-0.165068
21
0.472722
31
0.0
0
LINE
8
0
6
CONTINUOUS
10
-0.167899
20
0.471370
30
0.0
11
-0.165806
21
0.471575
31
0.0
0
LINE
8
0
6
CONTINUOUS
10
-0.169256
20
0.472311
30
0.0
11
-0.167899
21
0.471370
31
0.0
0
LINE
8
0
6
CONTINUOUS
10
-0.168518
20
0.473458
30
0.0
11
-0.169256
21
0.472311
31
0.0
0
LINE
8
0
6
CONTINUOUS
10
-0.143215
20
0.449649
30
0.0
11
-0.145213
21
0.449235
31
0.0
0
LINE
8
0
6
CONTINUOUS
10
-0.141592
20
0.448860
30
0.0
11
-0.143215
21
0.449649
31
0.0
0
LINE
8
0
6
CONTINUOUS
10
-0.141968
20
0.447656
30
0.0
11
-0.141592
21
0.448860
31
0.0
0
LINE
8
0
6
CONTINUOUS
10
-0.143966
20
0.447242
30
0.0
11
-0.141968
21
0.447656
31
0.0
0
LINE
8
0
6
CONTINUOUS
10
-0.145589
20
0.448031
30
0.0
11
-0.143966
21
0.447242
31
0.0
0
LINE
8
0
6
CONTINUOUS
10
-0.145213
20
0.449235
30
0.0
11
-0.145589
21
0.448031
31
0.0
0
LINE
8
0
6
CONTINUOUS
10
-0.196502
20
0.447030
30
0.0
11
-0.198125
21
0.446241
31
0.0
0
LINE
8
0
6
CONTINUOUS
10
-0.194504
20
0.446615
30
0.0
11
-0.196502
21
0.447030
31
0.0
0
LINE
8
0
6
CONTINUOUS
10
-0.194128
20
0.445412
30
0.0
11
-0.194504
21
0.446615
31
0.0
0
LINE
8
0
6
CONTINUOUS
10
-0.195751
20
0.444622
30
0.0
11
-0.194128
21
0.445412
31
0.0
0
LINE
8
0
6
CONTINUOUS
10
-0.197749
20
0.445037
30
0.0
11
-0.195751
21
0.444622
31
0.0
0
LINE
8
0
6
CONTINUOUS
10
-0.198125
20
0.446241
30
0.0
11
-0.197749
21
0.445037
31
0.0
0
LINE
8
0
6
CONTINUOUS
10
-0.185419
20
0.455113
30
0.0
11
-0.183363
21
0.455422
31
0.0
0
LINE
8
0
6
CONTINUOUS
10
-0.186911
20
0.455983
30
0.0
11
-0.185419
21
0.455113
31
0.0
0
LINE
8
0
6
CONTINUOUS
10
-0.186348
20
0.457163
30
0.0
11
-0.186911
21
0.455983
31
0.0
0
LINE
8
0
6
CONTINUOUS
10
-0.184293
20
0.457472
30
0.0
11
-0.186348
21
0.457163
31
0.0
0
LINE
8
0
6
CONTINUOUS
10
-0.182801
20
0.456601
30
0.0
11
-0.184293
21
0.457472
31
0.0
0
LINE
8
0
6
CONTINUOUS
10
-0.183363
20
0.455422
30
0.0
11
-0.182801
21
0.456601
31
0.0
0
LINE
8
0
6
CONTINUOUS
10
-0.168021
20
0.437603
30
0.0
11
-0.166023
21
0.438018
31
0.0
0
LINE
8
0
6
CONTINUOUS
10
-0.169644
20
0.438392
30
0.0
11
-0.168021
21
0.437603
31
0.0
0
LINE
8
0
6
CONTINUOUS
10
-0.169268
20
0.439596
30
0.0
11
-0.169644
21
0.438392
31
0.0
0
LINE
8
0
6
CONTINUOUS
10
-0.167270
20
0.440010
30
0.0
11
-0.169268
21
0.439596
31
0.0
0
LINE
8
0
6
CONTINUOUS
10
-0.165647
20
0.439221
30
0.0
11
-0.167270
21
0.440010
31
0.0
0
LINE
8
0
6
CONTINUOUS
10
-0.166023
20
0.438018
30
0.0
11
-0.165647
21
0.439221
31
0.0
0
LINE
8
0
6
CONTINUOUS
10
-0.144782
20
0.432847
30
0.0
11
-0.142783
21
0.432433
31
0.0
0
LINE
8
0
6
CONTINUOUS
10
-0.145157
20
0.434051
30
0.0
11
-0.144782
21
0.432847
31
0.0
0
LINE
8
0
6
CONTINUOUS
10
-0.143535
20
0.434840
30
0.0
11
-0.145157
21
0.434051
31
0.0
0
LINE
8
0
6
CONTINUOUS
10
-0.141536
20
0.434426
30
0.0
11
-0.143535
21
0.434840
31
0.0
0
LINE
8
0
6
CONTINUOUS
10
-0.141161
20
0.433222
30
0.0
11
-0.141536
21
0.434426
31
0.0
0
LINE
8
0
6
CONTINUOUS
10
-0.142783
20
0.432433
30
0.0
11
-0.141161
21
0.433222
31
0.0
0
LINE
8
0
6
CONTINUOUS
10
-0.135827
20
0.452487
30
0.0
11
-0.137826
21
0.452072
31
0.0
0
LINE
8
0
6
CONTINUOUS
10
-0.134205
20
0.451697
30
0.0
11
-0.135827
21
0.452487
31
0.0
0
LINE
8
0
6
CONTINUOUS
10
-0.134580
20
0.450494
30
0.0
11
-0.134205
21
0.451697
31
0.0
0
LINE
8
0
6
CONTINUOUS
10
-0.136579
20
0.450079
30
0.0
11
-0.134580
21
0.450494
31
0.0
0
LINE
8
0
6
CONTINUOUS
10
-0.138201
20
0.450868
30
0.0
11
-0.136579
21
0.450079
31
0.0
0
LINE
8
0
6
CONTINUOUS
10
-0.137826
20
0.452072
30
0.0
11
-0.138201
21
0.450868
31
0.0
0
LINE
8
0
6
CONTINUOUS
10
-0.202870
20
0.457302
30
0.0
11
-0.204766
21
0.456750
31
0.0
0
LINE
8
0
6
CONTINUOUS
10
-0.201093
20
0.456632
30
0.0
11
-0.202870
21
0.457302
31
0.0
0
LINE
8
0
6
CONTINUOUS
10
-0.201212
20
0.455411
30
0.0
11
-0.201093
21
0.456632
31
0.0
0
LINE
8
0
6
CONTINUOUS
10
-0.203108
20
0.454859
30
0.0
11
-0.201212
21
0.455411
31
0.0
0
LINE
8
0
6
CONTINUOUS
10
-0.204885
20
0.455529
30
0.0
11
-0.203108
21
0.454859
31
0.0
0
LINE
8
0
6
CONTINUOUS
10
-0.204766
20
0.456750
30
0.0
11
-0.204885
21
0.455529
31
0.0
0
LINE
8
0
6
CONTINUOUS
10
-0.130438
20
0.455627
30
0.0
11
-0.130814
21
0.454423
31
0.0
0
LINE
8
0
6
CONTINUOUS
10
-0.128440
20
0.456041
30
0.0
11
-0.130438
21
0.455627
31
0.0
0
LINE
8
0
6
CONTINUOUS
10
-0.126817
20
0.455252
30
0.0
11
-0.128440
21
0.456041
31
0.0
0
LINE
8
0
6
CONTINUOUS
10
-0.127193
20
0.454048
30
0.0
11
-0.126817
21
0.455252
31
0.0
0
LINE
8
0
6
CONTINUOUS
10
-0.129191
20
0.453634
30
0.0
11
-0.127193
21
0.454048
31
0.0
0
LINE
8
0
6
CONTINUOUS
10
-0.130814
20
0.454423
30
0.0
11
-0.129191
21
0.453634
31
0.0
0
LINE
8
0
6
CONTINUOUS
10
-0.179412
20
0.434128
30
0.0
11
-0.177789
21
0.434917
31
0.0
0
LINE
8
0
6
CONTINUOUS
10
-0.181410
20
0.434542
30
0.0
11
-0.179412
21
0.434128
31
0.0
0
LINE
8
0
6
CONTINUOUS
10
-0.181786
20
0.435746
30
0.0
11
-0.181410
21
0.434542
31
0.0
0
LINE
8
0
6
CONTINUOUS
10
-0.180163
20
0.436535
30
0.0
11
-0.181786
21
0.435746
31
0.0
0
LINE
8
0
6
CONTINUOUS
10
-0.178165
20
0.436121
30
0.0
11
-0.180163
21
0.436535
31
0.0
0
LINE
8
0
6
CONTINUOUS
10
-0.177789
20
0.434917
30
0.0
11
-0.178165
21
0.436121
31
0.0
0
LINE
8
0
6
CONTINUOUS
10
-0.166941
20
0.436527
30
0.0
11
-0.168939
21
0.436113
31
0.0
0
LINE
8
0
6
CONTINUOUS
10
-0.165318
20
0.435738
30
0.0
11
-0.166941
21
0.436527
31
0.0
0
LINE
8
0
6
CONTINUOUS
10
-0.165694
20
0.434534
30
0.0
11
-0.165318
21
0.435738
31
0.0
0
LINE
8
0
6
CONTINUOUS
10
-0.167692
20
0.434120
30
0.0
11
-0.165694
21
0.434534
31
0.0
0
LINE
8
0
6
CONTINUOUS
10
-0.169315
20
0.434909
30
0.0
11
-0.167692
21
0.434120
31
0.0
0
LINE
8
0
6
CONTINUOUS
10
-0.168939
20
0.436113
30
0.0
11
-0.169315
21
0.434909
31
0.0
0
LINE
8
0
6
CONTINUOUS
10
-0.181739
20
0.431108
30
0.0
11
-0.179741
21
0.430693
31
0.0
0
LINE
8
0
6
CONTINUOUS
10
-0.182115
20
0.432312
30
0.0
11
-0.181739
21
0.431108
31
0.0
0
LINE
8
0
6
CONTINUOUS
10
-0.180492
20
0.433101
30
0.0
11
-0.182115
21
0.432312
31
0.0
0
LINE
8
0
6
CONTINUOUS
10
-0.178494
20
0.432686
30
0.0
11
-0.180492
21
0.433101
31
0.0
0
LINE
8
0
6
CONTINUOUS
10
-0.178118
20
0.431483
30
0.0
11
-0.178494
21
0.432686
31
0.0
0
LINE
8
0
6
CONTINUOUS
10
-0.179741
20
0.430693
30
0.0
11
-0.178118
21
0.431483
31
0.0
0
LINE
8
0
6
CONTINUOUS
10
-0.208632
20
0.445073
30
0.0
11
-0.210630
21
0.444658
31
0.0
0
LINE
8
0
6
CONTINUOUS
10
-0.207010
20
0.444283
30
0.0
11
-0.208632
21
0.445073
31
0.0
0
LINE
8
0
6
CONTINUOUS
10
-0.207385
20
0.443080
30
0.0
11
-0.207010
21
0.444283
31
0.0
0
LINE
8
0
6
CONTINUOUS
10
-0.209384
20
0.442665
30
0.0
11
-0.207385
21
0.443080
31
0.0
0
LINE
8
0
6
CONTINUOUS
10
-0.211006
20
0.443454
30
0.0
11
-0.209384
21
0.442665
31
0.0
0
LINE
8
0
6
CONTINUOUS
10
-0.210630
20
0.444658
30
0.0
11
-0.211006
21
0.443454
31
0.0
0
LINE
8
0
6
CONTINUOUS
10
-0.158205
20
0.449851
30
0.0
11
-0.156309
21
0.449300
31
0.0
0
LINE
8
0
6
CONTINUOUS
10
-0.158324
20
0.451072
30
0.0
11
-0.158205
21
0.449851
31
0.0
0
LINE
8
0
6
CONTINUOUS
10
-0.156546
20
0.451742
30
0.0
11
-0.158324
21
0.451072
31
0.0
0
LINE
8
0
6
CONTINUOUS
10
-0.154650
20
0.451191
30
0.0
11
-0.156546
21
0.451742
31
0.0
0
LINE
8
0
6
CONTINUOUS
10
-0.154532
20
0.449970
30
0.0
11
-0.154650
21
0.451191
31
0.0
0
LINE
8
0
6
CONTINUOUS
10
-0.156309
20
0.449300
30
0.0
11
-0.154532
21
0.449970
31
0.0
0
LINE
8
0
6
CONTINUOUS
10
-0.162128
20
0.477946
30
0.0
11
-0.162865
21
0.476799
31
0.0
0
LINE
8
0
6
CONTINUOUS
10
-0.160034
20
0.478152
30
0.0
11
-0.162128
21
0.477946
31
0.0
0
LINE
8
0
6
CONTINUOUS
10
-0.158677
20
0.477211
30
0.0
11
-0.160034
21
0.478152
31
0.0
0
LINE
8
0
6
CONTINUOUS
10
-0.159415
20
0.476064
30
0.0
11
-0.158677
21
0.477211
31
0.0
0
LINE
8
0
6
CONTINUOUS
10
-0.161509
20
0.475858
30
0.0
11
-0.159415
21
0.476064
31
0.0
0
LINE
8
0
6
CONTINUOUS
10
-0.162865
20
0.476799
30
0.0
11
-0.161509
21
0.475858
31
0.0
0
LINE
8
0
6
CONTINUOUS
10
-0.202756
20
0.442124
30
0.0
11
-0.203131
21
0.440920
31
0.0
0
LINE
8
0
6
CONTINUOUS
10
-0.200757
20
0.442538
30
0.0
11
-0.202756
21
0.442124
31
0.0
0
LINE
8
0
6
CONTINUOUS
10
-0.199135
20
0.441749
30
0.0
11
-0.200757
21
0.442538
31
0.0
0
LINE
8
0
6
CONTINUOUS
10
-0.199510
20
0.440545
30
0.0
11
-0.199135
21
0.441749
31
0.0
0
LINE
8
0
6
CONTINUOUS
10
-0.201509
20
0.440131
30
0.0
11
-0.199510
21
0.440545
31
0.0
0
LINE
8
0
6
CONTINUOUS
10
-0.203131
20
0.440920
30
0.0
11
-0.201509
21
0.440131
31
0.0
0
LINE
8
0
6
CONTINUOUS
10
-0.197952
20
0.475071
30
0.0
11
-0.200074
21
0.475018
31
0.0
0
LINE
8
0
6
CONTINUOUS
10
-0.196811
20
0.474039
30
0.0
11
-0.197952
21
0.475071
31
0.0
0
LINE
8
0
6
CONTINUOUS
10
-0.197793
20
0.472955
30
0.0
11
-0.196811
21
0.474039
31
0.0
0
LINE
8
0
6
CONTINUOUS
10
-0.199915
20
0.472902
30
0.0
11
-0.197793
21
0.472955
31
0.0
0
LINE
8
0
6
CONTINUOUS
10
-0.201055
20
0.473934
30
0.0
11
-0.199915
21
0.472902
31
0.0
0
LINE
8
0
6
CONTINUOUS
10
-0.200074
20
0.475018
30
0.0
11
-0.201055
21
0.473934
31
0.0
0
LINE
8
0
6
CONTINUOUS
10
-0.139719
20
0.442975
30
0.0
11
-0.137721
21
0.442560
31
0.0
0
LINE
8
0
6
CONTINUOUS
10
-0.140095
20
0.444178
30
0.0
11
-0.139719
21
0.442975
31
0.0
0
LINE
8
0
6
CONTINUOUS
10
-0.138472
20
0.444968
30
0.0
11
-0.140095
21
0.444178
31
0.0
0
LINE
8
0
6
CONTINUOUS
10
-0.136474
20
0.444553
30
0.0
11
-0.138472
21
0.444968
31
0.0
0
LINE
8
0
6
CONTINUOUS
10
-0.136098
20
0.443349
30
0.0
11
-0.136474
21
0.444553
31
0.0
0
LINE
8
0
6
CONTINUOUS
10
-0.137721
20
0.442560
30
0.0
11
-0.136098
21
0.443349
31
0.0
0
LINE
8
0
6
CONTINUOUS
10
-0.179083
20
0.437622
30
0.0
11
-0.177461
21
0.438411
31
0.0
0
LINE
8
0
6
CONTINUOUS
10
-0.181082
20
0.438037
30
0.0
11
-0.179083
21
0.437622
31
0.0
0
LINE
8
0
6
CONTINUOUS
10
-0.181457
20
0.439240
30
0.0
11
-0.181082
21
0.438037
31
0.0
0
LINE
8
0
6
CONTINUOUS
10
-0.179835
20
0.440029
30
0.0
11
-0.181457
21
0.439240
31
0.0
0
LINE
8
0
6
CONTINUOUS
10
-0.177836
20
0.439615
30
0.0
11
-0.179835
21
0.440029
31
0.0
0
LINE
8
0
6
CONTINUOUS
10
-0.177461
20
0.438411
30
0.0
11
-0.177836
21
0.439615
31
0.0
0
LINE
8
0
6
CONTINUOUS
10
-0.204724
20
0.438113
30
0.0
11
-0.205100
21
0.436909
31
0.0
0
LINE
8
0
6
CONTINUOUS
10
-0.202726
20
0.438527
30
0.0
11
-0.204724
21
0.438113
31
0.0
0
LINE
8
0
6
CONTINUOUS
10
-0.201103
20
0.437738
30
0.0
11
-0.202726
21
0.438527
31
0.0
0
LINE
8
0
6
CONTINUOUS
10
-0.201479
20
0.436534
30
0.0
11
-0.201103
21
0.437738
31
0.0
0
LINE
8
0
6
CONTINUOUS
10
-0.203478
20
0.436120
30
0.0
11
-0.201479
21
0.436534
31
0.0
0
LINE
8
0
6
CONTINUOUS
10
-0.205100
20
0.436909
30
0.0
11
-0.203478
21
0.436120
31
0.0
0
LINE
8
0
6
CONTINUOUS
10
-0.167598
20
0.443488
30
0.0
11
-0.169597
21
0.443073
31
0.0
0
LINE
8
0
6
CONTINUOUS
10
-0.165976
20
0.442698
30
0.0
11
-0.167598
21
0.443488
31
0.0
0
LINE
8
0
6
CONTINUOUS
10
-0.166351
20
0.441495
30
0.0
11
-0.165976
21
0.442698
31
0.0
0
LINE
8
0
6
CONTINUOUS
10
-0.168350
20
0.441080
30
0.0
11
-0.166351
21
0.441495
31
0.0
0
LINE
8
0
6
CONTINUOUS
10
-0.169972
20
0.441870
30
0.0
11
-0.168350
21
0.441080
31
0.0
0
LINE
8
0
6
CONTINUOUS
10
-0.169597
20
0.443073
30
0.0
11
-0.169972
21
0.441870
31
0.0
0
LINE
8
0
6
CONTINUOUS
10
-0.157781
20
0.458266
30
0.0
11
-0.155726
21
0.457957
31
0.0
0
LINE
8
0
6
CONTINUOUS
10
-0.158344
20
0.459446
30
0.0
11
-0.157781
21
0.458266
31
0.0
0
LINE
8
0
6
CONTINUOUS
10
-0.156851
20
0.460316
30
0.0
11
-0.158344
21
0.459446
31
0.0
0
LINE
8
0
6
CONTINUOUS
10
-0.154796
20
0.460007
30
0.0
11
-0.156851
21
0.460316
31
0.0
0
LINE
8
0
6
CONTINUOUS
10
-0.154233
20
0.458828
30
0.0
11
-0.154796
21
0.460007
31
0.0
0
LINE
8
0
6
CONTINUOUS
10
-0.155726
20
0.457957
30
0.0
11
-0.154233
21
0.458828
31
0.0
0
LINE
8
0
6
CONTINUOUS
10
-0.155599
20
0.436823
30
0.0
11
-0.157597
21
0.436408
31
0.0
0
LINE
8
0
6
CONTINUOUS
10
-0.153976
20
0.436034
30
0.0
11
-0.155599
21
0.436823
31
0.0
0
LINE
8
0
6
CONTINUOUS
10
-0.154352
20
0.434830
30
0.0
11
-0.153976
21
0.436034
31
0.0
0
LINE
8
0
6
CONTINUOUS
10
-0.156350
20
0.434416
30
0.0
11
-0.154352
21
0.434830
31
0.0
0
LINE
8
0
6
CONTINUOUS
10
-0.157973
20
0.435205
30
0.0
11
-0.156350
21
0.434416
31
0.0
0
LINE
8
0
6
CONTINUOUS
10
-0.157597
20
0.436408
30
0.0
11
-0.157973
21
0.435205
31
0.0
0
LINE
8
0
6
CONTINUOUS
10
-0.130035
20
0.448400
30
0.0
11
-0.131658
21
0.447611
31
0.0
0
LINE
8
0
6
CONTINUOUS
10
-0.128037
20
0.447986
30
0.0
11
-0.130035
21
0.448400
31
0.0
0
LINE
8
0
6
CONTINUOUS
10
-0.127661
20
0.446782
30
0.0
11
-0.128037
21
0.447986
31
0.0
0
LINE
8
0
6
CONTINUOUS
10
-0.129284
20
0.445993
30
0.0
11
-0.127661
21
0.446782
31
0.0
0
LINE
8
0
6
CONTINUOUS
10
-0.131282
20
0.446407
30
0.0
11
-0.129284
21
0.445993
31
0.0
0
LINE
8
0
6
CONTINUOUS
10
-0.131658
20
0.447611
30
0.0
11
-0.131282
21
0.446407
31
0.0
0
LINE
8
0
6
CONTINUOUS
10
-0.217913
20
0.453777
30
0.0
11
-0.216291
21
0.454566
31
0.0
0
LINE
8
0
6
CONTINUOUS
10
-0.219911
20
0.454191
30
0.0
11
-0.217913
21
0.453777
31
0.0
0
LINE
8
0
6
CONTINUOUS
10
-0.220287
20
0.455395
30
0.0
11
-0.219911
21
0.454191
31
0.0
0
LINE
8
0
6
CONTINUOUS
10
-0.218665
20
0.456184
30
0.0
11
-0.220287
21
0.455395
31
0.0
0
LINE
8
0
6
CONTINUOUS
10
-0.216666
20
0.455770
30
0.0
11
-0.218665
21
0.456184
31
0.0
0
LINE
8
0
6
CONTINUOUS
10
-0.216291
20
0.454566
30
0.0
11
-0.216666
21
0.455770
31
0.0
0
LINE
8
0
6
CONTINUOUS
10
-0.155207
20
0.429268
30
0.0
11
-0.155582
21
0.428065
31
0.0
0
LINE
8
0
6
CONTINUOUS
10
-0.153208
20
0.429683
30
0.0
11
-0.155207
21
0.429268
31
0.0
0
LINE
8
0
6
CONTINUOUS
10
-0.151586
20
0.428894
30
0.0
11
-0.153208
21
0.429683
31
0.0
0
LINE
8
0
6
CONTINUOUS
10
-0.151961
20
0.427690
30
0.0
11
-0.151586
21
0.428894
31
0.0
0
LINE
8
0
6
CONTINUOUS
10
-0.153960
20
0.427276
30
0.0
11
-0.151961
21
0.427690
31
0.0
0
LINE
8
0
6
CONTINUOUS
10
-0.155582
20
0.428065
30
0.0
11
-0.153960
21
0.427276
31
0.0
0
LINE
8
0
6
CONTINUOUS
10
-0.180388
20
0.454490
30
0.0
11
-0.180951
21
0.453311
31
0.0
0
LINE
8
0
6
CONTINUOUS
10
-0.178333
20
0.454799
30
0.0
11
-0.180388
21
0.454490
31
0.0
0
LINE
8
0
6
CONTINUOUS
10
-0.176841
20
0.453929
30
0.0
11
-0.178333
21
0.454799
31
0.0
0
LINE
8
0
6
CONTINUOUS
10
-0.177403
20
0.452749
30
0.0
11
-0.176841
21
0.453929
31
0.0
0
LINE
8
0
6
CONTINUOUS
10
-0.179459
20
0.452440
30
0.0
11
-0.177403
21
0.452749
31
0.0
0
LINE
8
0
6
CONTINUOUS
10
-0.180951
20
0.453311
30
0.0
11
-0.179459
21
0.452440
31
0.0
0
LINE
8
0
6
CONTINUOUS
10
-0.215242
20
0.320339
30
0.0
11
-0.215567
21
0.320406
31
0.0
0
LINE
8
0
6
CONTINUOUS
10
-0.181409
20
0.311939
30
0.0
11
-0.181818
21
0.312455
31
0.0
0
LINE
8
0
6
CONTINUOUS
10
-0.181818
20
0.312455
30
0.0
11
-0.182681
21
0.313340
31
0.0
0
LINE
8
0
6
CONTINUOUS
10
-0.182681
20
0.313340
30
0.0
11
-0.183291
21
0.314477
31
0.0
0
LINE
8
0
6
CONTINUOUS
10
-0.180821
20
0.311187
30
0.0
11
-0.178436
21
0.309358
31
0.0
0
LINE
8
0
6
CONTINUOUS
10
-0.178436
20
0.309358
30
0.0
11
-0.177711
21
0.309050
31
0.0
0
LINE
8
0
6
CONTINUOUS
10
-0.177711
20
0.309050
30
0.0
11
-0.176356
21
0.308497
31
0.0
0
LINE
8
0
6
CONTINUOUS
10
-0.176356
20
0.308497
30
0.0
11
-0.175996
21
0.308310
31
0.0
0
LINE
8
0
6
CONTINUOUS
10
-0.172780
20
0.307692
30
0.0
11
-0.172715
21
0.307703
31
0.0
0
LINE
8
0
6
CONTINUOUS
10
-0.175996
20
0.308310
30
0.0
11
-0.175697
21
0.308155
31
0.0
0
LINE
8
0
6
CONTINUOUS
10
-0.175697
20
0.308155
30
0.0
11
-0.172780
21
0.307692
31
0.0
0
LINE
8
0
6
CONTINUOUS
10
-0.172487
20
0.307742
30
0.0
11
-0.169864
21
0.308104
31
0.0
0
LINE
8
0
6
CONTINUOUS
10
-0.172715
20
0.307703
30
0.0
11
-0.172487
21
0.307742
31
0.0
0
LINE
8
0
6
CONTINUOUS
10
-0.167609
20
0.309205
30
0.0
11
-0.167123
21
0.309403
31
0.0
0
LINE
8
0
6
CONTINUOUS
10
-0.167123
20
0.309403
30
0.0
11
-0.164938
21
0.311037
31
0.0
0
LINE
8
0
6
CONTINUOUS
10
-0.173553
20
0.461854
30
0.0
11
-0.172781
21
0.461764
31
0.0
0
LINE
8
0
6
CONTINUOUS
10
-0.172781
20
0.461764
30
0.0
11
-0.170701
21
0.461802
31
0.0
0
LINE
8
0
6
CONTINUOUS
10
-0.158761
20
0.441201
30
0.0
11
-0.157148
21
0.442253
31
0.0
0
LINE
8
0
6
CONTINUOUS
10
-0.173553
20
0.471578
30
0.0
11
-0.172781
21
0.471480
31
0.0
0
LINE
8
0
6
CONTINUOUS
10
-0.172781
20
0.471480
30
0.0
11
-0.168829
21
0.471519
31
0.0
0
LINE
8
0
6
CONTINUOUS
10
-0.168829
20
0.471519
30
0.0
11
-0.164287
21
0.471023
31
0.0
0
LINE
8
0
6
CONTINUOUS
10
-0.160476
20
0.470130
30
0.0
11
-0.160021
21
0.470020
31
0.0
0
LINE
8
0
6
CONTINUOUS
10
-0.164287
20
0.471023
30
0.0
11
-0.160476
21
0.470130
31
0.0
0
LINE
8
0
6
CONTINUOUS
10
-0.160021
20
0.470020
30
0.0
11
-0.159300
21
0.469749
31
0.0
0
LINE
8
0
6
CONTINUOUS
10
-0.174534
20
0.460796
30
0.0
11
-0.172781
21
0.460687
31
0.0
0
LINE
8
0
6
CONTINUOUS
10
-0.168188
20
0.464101
30
0.0
11
-0.166066
21
0.464116
31
0.0
0
LINE
8
0
6
CONTINUOUS
10
-0.161843
20
0.467845
30
0.0
11
-0.159721
21
0.467848
31
0.0
0
LINE
8
0
6
CONTINUOUS
10
-0.153500
20
0.471942
30
0.0
11
-0.153376
21
0.471947
31
0.0
0
LINE
8
0
6
CONTINUOUS
10
-0.155498
20
0.471805
30
0.0
11
-0.153500
21
0.471942
31
0.0
0
LINE
8
0
6
CONTINUOUS
10
-0.156402
20
0.433436
30
0.0
11
-0.156653
21
0.432732
31
0.0
0
LINE
8
0
6
CONTINUOUS
10
-0.156653
20
0.432732
30
0.0
11
-0.156778
21
0.432398
31
0.0
0
LINE
8
0
6
CONTINUOUS
10
-0.154484
20
0.433957
30
0.0
11
-0.154404
21
0.433979
31
0.0
0
LINE
8
0
6
CONTINUOUS
10
-0.156402
20
0.433436
30
0.0
11
-0.154484
21
0.433957
31
0.0
0
LINE
8
0
6
CONTINUOUS
10
-0.158792
20
0.440743
30
0.0
11
-0.156794
21
0.441304
31
0.0
0
LINE
8
0
6
CONTINUOUS
10
-0.156794
20
0.441304
30
0.0
11
-0.155171
21
0.440792
31
0.0
0
LINE
8
0
6
CONTINUOUS
10
-0.169597
20
0.443793
30
0.0
11
-0.169709
21
0.443429
31
0.0
0
LINE
8
0
6
CONTINUOUS
10
-0.169709
20
0.443429
30
0.0
11
-0.169972
21
0.442689
31
0.0
0
LINE
8
0
6
CONTINUOUS
10
-0.180821
20
0.430610
30
0.0
11
-0.178823
21
0.430238
31
0.0
0
LINE
8
0
6
CONTINUOUS
10
-0.200757
20
0.443357
30
0.0
11
-0.200113
21
0.442987
31
0.0
0
LINE
8
0
6
CONTINUOUS
10
-0.133699
20
0.463085
30
0.0
11
-0.131922
21
0.464110
31
0.0
0
LINE
8
0
6
CONTINUOUS
10
-0.130438
20
0.455880
30
0.0
11
-0.128440
21
0.456714
31
0.0
0
LINE
8
0
6
CONTINUOUS
10
-0.163719
20
0.449857
30
0.0
11
-0.162703
21
0.450268
31
0.0
0
LINE
8
0
6
CONTINUOUS
10
-0.162703
20
0.450268
30
0.0
11
-0.160807
21
0.449783
31
0.0
0
LINE
8
0
6
CONTINUOUS
10
-0.158324
20
0.451669
30
0.0
11
-0.156984
21
0.452310
31
0.0
0
LINE
8
0
6
CONTINUOUS
10
-0.156546
20
0.452512
30
0.0
11
-0.154650
21
0.452166
31
0.0
0
LINE
8
0
6
CONTINUOUS
10
-0.150390
20
0.455253
30
0.0
11
-0.148494
21
0.454845
31
0.0
0
LINE
8
0
6
CONTINUOUS
10
-0.145909
20
0.457087
30
0.0
11
-0.145502
21
0.457333
31
0.0
0
LINE
8
0
6
CONTINUOUS
10
-0.146011
20
0.457035
30
0.0
11
-0.145909
21
0.457087
31
0.0
0
LINE
8
0
6
CONTINUOUS
10
-0.144234
20
0.458066
30
0.0
11
-0.142338
21
0.457784
31
0.0
0
LINE
8
0
6
CONTINUOUS
10
-0.168771
20
0.455650
30
0.0
11
-0.166716
21
0.455373
31
0.0
0
LINE
8
0
6
CONTINUOUS
10
-0.158344
20
0.459955
30
0.0
11
-0.156851
21
0.461100
31
0.0
0
LINE
8
0
6
CONTINUOUS
10
-0.156851
20
0.461100
30
0.0
11
-0.154796
21
0.460974
31
0.0
0
LINE
8
0
6
CONTINUOUS
10
-0.149440
20
0.464145
30
0.0
11
-0.148836
21
0.464091
31
0.0
0
LINE
8
0
6
CONTINUOUS
10
-0.150891
20
0.464245
30
0.0
11
-0.149440
21
0.464145
31
0.0
0
LINE
8
0
6
CONTINUOUS
10
-0.146356
20
0.466261
30
0.0
11
-0.145378
21
0.467120
31
0.0
0
LINE
8
0
6
CONTINUOUS
10
-0.146424
20
0.466208
30
0.0
11
-0.146356
21
0.466261
31
0.0
0
LINE
8
0
6
CONTINUOUS
10
-0.159988
20
0.444643
30
0.0
11
-0.160273
21
0.443731
31
0.0
0
LINE
8
0
6
CONTINUOUS
10
-0.160273
20
0.443731
30
0.0
11
-0.160336
21
0.443527
31
0.0
0
LINE
8
0
6
CONTINUOUS
10
-0.160336
20
0.443527
30
0.0
11
-0.160363
21
0.443452
31
0.0
0
LINE
8
0
6
CONTINUOUS
10
-0.159651
20
0.444724
30
0.0
11
-0.157989
21
0.445256
31
0.0
0
LINE
8
0
6
CONTINUOUS
10
-0.159988
20
0.444643
30
0.0
11
-0.159651
21
0.444724
31
0.0
0
LINE
8
0
6
CONTINUOUS
10
-0.145213
20
0.449758
30
0.0
11
-0.143215
21
0.450476
31
0.0
0
LINE
8
0
6
CONTINUOUS
10
-0.136355
20
0.453274
30
0.0
11
-0.135827
21
0.453471
31
0.0
0
LINE
8
0
6
CONTINUOUS
10
-0.135827
20
0.453471
30
0.0
11
-0.134205
21
0.452902
31
0.0
0
LINE
8
0
6
CONTINUOUS
10
-0.155207
20
0.429898
30
0.0
11
-0.155300
21
0.429658
31
0.0
0
LINE
8
0
6
CONTINUOUS
10
-0.157597
20
0.437025
30
0.0
11
-0.157973
21
0.435989
31
0.0
0
LINE
8
0
6
CONTINUOUS
10
-0.157597
20
0.437025
30
0.0
11
-0.155599
21
0.437570
31
0.0
0
LINE
8
0
6
CONTINUOUS
10
-0.155599
20
0.437570
30
0.0
11
-0.153976
21
0.437081
31
0.0
0
LINE
8
0
6
CONTINUOUS
10
-0.168282
20
0.430193
30
0.0
11
-0.168411
21
0.429873
31
0.0
0
LINE
8
0
6
CONTINUOUS
10
-0.168411
20
0.429873
30
0.0
11
-0.168658
21
0.429237
31
0.0
0
LINE
8
0
6
CONTINUOUS
10
-0.166283
20
0.430568
30
0.0
11
-0.165893
21
0.430435
31
0.0
0
LINE
8
0
6
CONTINUOUS
10
-0.168611
20
0.433435
30
0.0
11
-0.168863
21
0.432769
31
0.0
0
LINE
8
0
6
CONTINUOUS
10
-0.168863
20
0.432769
30
0.0
11
-0.168986
21
0.432433
31
0.0
0
LINE
8
0
6
CONTINUOUS
10
-0.166612
20
0.433853
30
0.0
11
-0.166384
21
0.433766
31
0.0
0
LINE
8
0
6
CONTINUOUS
10
-0.166384
20
0.433766
30
0.0
11
-0.165276
21
0.433370
31
0.0
0
LINE
8
0
6
CONTINUOUS
10
-0.168939
20
0.436834
30
0.0
11
-0.169315
21
0.435791
31
0.0
0
LINE
8
0
6
CONTINUOUS
10
-0.168939
20
0.436834
30
0.0
11
-0.167504
21
0.437141
31
0.0
0
LINE
8
0
6
CONTINUOUS
10
-0.166941
20
0.437265
30
0.0
11
-0.166688
21
0.437166
31
0.0
0
LINE
8
0
6
CONTINUOUS
10
-0.166688
20
0.437166
30
0.0
11
-0.165318
21
0.436649
31
0.0
0
LINE
8
0
6
CONTINUOUS
10
-0.169268
20
0.440289
30
0.0
11
-0.169644
21
0.439232
31
0.0
0
LINE
8
0
6
CONTINUOUS
10
-0.179835
20
0.440779
30
0.0
11
-0.177836
21
0.440346
31
0.0
0
LINE
8
0
6
CONTINUOUS
10
-0.181457
20
0.440155
30
0.0
11
-0.179835
21
0.440779
31
0.0
0
LINE
8
0
6
CONTINUOUS
10
-0.179546
20
0.437187
30
0.0
11
-0.178165
21
0.436892
31
0.0
0
LINE
8
0
6
CONTINUOUS
10
-0.181439
20
0.430383
30
0.0
11
-0.180821
21
0.430610
31
0.0
0
LINE
8
0
6
CONTINUOUS
10
-0.179506
20
0.444352
30
0.0
11
-0.177508
21
0.443856
31
0.0
0
LINE
8
0
6
CONTINUOUS
10
-0.214427
20
0.441777
30
0.0
11
-0.214803
21
0.440801
31
0.0
0
LINE
8
0
6
CONTINUOUS
10
-0.205568
20
0.435568
30
0.0
11
-0.204962
21
0.435584
31
0.0
0
LINE
8
0
6
CONTINUOUS
10
-0.204962
20
0.435584
30
0.0
11
-0.203570
21
0.435623
31
0.0
0
LINE
8
0
6
CONTINUOUS
10
-0.205925
20
0.434702
30
0.0
11
-0.205944
21
0.434651
31
0.0
0
LINE
8
0
6
CONTINUOUS
10
-0.202726
20
0.439353
30
0.0
11
-0.201103
21
0.438447
31
0.0
0
LINE
8
0
6
CONTINUOUS
10
-0.204724
20
0.439288
30
0.0
11
-0.205100
21
0.438317
31
0.0
0
LINE
8
0
6
CONTINUOUS
10
-0.202756
20
0.443306
30
0.0
11
-0.203131
21
0.442324
31
0.0
0
LINE
8
0
6
CONTINUOUS
10
-0.207616
20
0.445363
30
0.0
11
-0.207010
21
0.444981
31
0.0
0
LINE
8
0
6
CONTINUOUS
10
-0.191493
20
0.437722
30
0.0
11
-0.189507
21
0.437181
31
0.0
0
LINE
8
0
6
CONTINUOUS
10
-0.193353
20
0.433923
30
0.0
11
-0.192701
21
0.434128
31
0.0
0
LINE
8
0
6
CONTINUOUS
10
-0.209615
20
0.453093
30
0.0
11
-0.209279
21
0.452953
31
0.0
0
LINE
8
0
6
CONTINUOUS
10
-0.196502
20
0.447974
30
0.0
11
-0.194504
21
0.447364
31
0.0
0
LINE
8
0
6
CONTINUOUS
10
-0.172781
20
0.460731
30
0.0
11
-0.172571
21
0.460744
31
0.0
0
LINE
8
0
6
CONTINUOUS
10
-0.218728
20
0.457005
30
0.0
11
-0.218665
21
0.457023
31
0.0
0
LINE
8
0
6
CONTINUOUS
10
-0.185862
20
0.478991
30
0.0
11
-0.184977
21
0.478843
31
0.0
0
LINE
8
0
6
CONTINUOUS
10
-0.217069
20
0.449159
30
0.0
11
-0.215447
21
0.448080
31
0.0
0
LINE
8
0
6
CONTINUOUS
10
-0.219068
20
0.449170
30
0.0
11
-0.219443
21
0.448103
31
0.0
0
ENDSEC
0
EOF
