999
unknown String-ID: 20550
0
SECTION
2
HEADER
9
$ACADVER
1
AC1009
9
$DWGCODEPAGE
3
unknown String-ID: 20561
0
ENDSEC
0
SECTION
2
TABLES
0
TABLE
2
LAYER
70
1
0
LAYER
2
0
70
0
62
7
6
CONTINUOUS
0
ENDTAB
0
ENDSEC
0
SECTION
2
ENTITIES
0
LINE
8
0
6
CONTINUOUS
10
0.100332
20
-0.031801
30
0.0
11
0.098905
21
-0.031801
31
0.0
0
LINE
8
0
6
CONTINUOUS
10
-0.100332
20
-0.031801
30
0.0
11
-0.079951
21
-0.034498
31
0.0
0
LINE
8
0
6
CONTINUOUS
10
0.095907
20
-0.031801
30
0.0
11
0.090988
21
-0.031801
31
0.0
0
LINE
8
0
6
CONTINUOUS
10
0.090988
20
-0.031801
30
0.0
11
0.077983
21
-0.031801
31
0.0
0
LINE
8
0
6
CONTINUOUS
10
0.037375
20
-0.031801
30
0.0
11
0.033547
21
-0.031801
31
0.0
0
LINE
8
0
6
CONTINUOUS
10
-0.035167
20
-0.031801
30
0.0
11
-0.050611
21
-0.031801
31
0.0
0
LINE
8
0
6
CONTINUOUS
10
0.062854
20
-0.031801
30
0.0
11
0.049145
21
-0.031801
31
0.0
0
LINE
8
0
6
CONTINUOUS
10
0.077983
20
-0.031801
30
0.0
11
0.062854
21
-0.031801
31
0.0
0
LINE
8
0
6
CONTINUOUS
10
0.020175
20
-0.031801
30
0.0
11
0.016657
21
-0.031801
31
0.0
0
LINE
8
0
6
CONTINUOUS
10
0.003979
20
-0.031801
30
0.0
11
-0.000874
21
-0.031801
31
0.0
0
LINE
8
0
6
CONTINUOUS
10
-0.009623
20
-0.031801
30
0.0
11
-0.018372
21
-0.031801
31
0.0
0
LINE
8
0
6
CONTINUOUS
10
-0.026770
20
-0.031801
30
0.0
11
-0.035167
21
-0.031801
31
0.0
0
LINE
8
0
6
CONTINUOUS
10
-0.050611
20
-0.031801
30
0.0
11
-0.061215
21
-0.031801
31
0.0
0
LINE
8
0
6
CONTINUOUS
10
0.098905
20
-0.031801
30
0.0
11
0.095907
21
-0.031801
31
0.0
0
LINE
8
0
6
CONTINUOUS
10
0.061584
20
-0.036774
30
0.0
11
0.062216
21
-0.036700
31
0.0
0
LINE
8
0
6
CONTINUOUS
10
-0.064112
20
-0.036487
30
0.0
11
-0.063366
21
-0.036575
31
0.0
0
LINE
8
0
6
CONTINUOUS
10
0.070902
20
-0.035685
30
0.0
11
0.072315
21
-0.035498
31
0.0
0
LINE
8
0
6
CONTINUOUS
10
0.080468
20
-0.034422
30
0.0
11
0.100332
21
-0.031801
31
0.0
0
LINE
8
0
6
CONTINUOUS
10
0.005306
20
-0.040535
30
0.0
11
0.008044
21
-0.040489
31
0.0
0
LINE
8
0
6
CONTINUOUS
10
-0.039279
20
-0.039028
30
0.0
11
-0.038929
21
-0.039058
31
0.0
0
LINE
8
0
6
CONTINUOUS
10
-0.018372
20
-0.031801
30
0.0
11
-0.026770
21
-0.031801
31
0.0
0
LINE
8
0
6
CONTINUOUS
10
-0.005184
20
-0.031801
30
0.0
11
-0.009623
21
-0.031801
31
0.0
0
LINE
8
0
6
CONTINUOUS
10
-0.007712
20
-0.040497
30
0.0
11
-0.004040
21
-0.040560
31
0.0
0
LINE
8
0
6
CONTINUOUS
10
0.009951
20
-0.031801
30
0.0
11
0.007892
21
-0.031801
31
0.0
0
LINE
8
0
6
CONTINUOUS
10
0.027546
20
-0.031801
30
0.0
11
0.025102
21
-0.031801
31
0.0
0
LINE
8
0
6
CONTINUOUS
10
0.005011
20
0.042535
30
0.0
11
0.008803
21
0.042535
31
0.0
0
LINE
8
0
6
CONTINUOUS
10
-0.008975
20
0.042535
30
0.0
11
-0.005253
21
0.042535
31
0.0
0
LINE
8
0
6
CONTINUOUS
10
0.000057
20
0.042535
30
0.0
11
-0.005088
21
0.042535
31
0.0
0
LINE
8
0
6
CONTINUOUS
10
0.005177
20
0.042535
30
0.0
11
0.000057
21
0.042535
31
0.0
0
LINE
8
0
6
CONTINUOUS
10
-0.011312
20
0.030137
30
0.0
11
-0.011312
21
0.029737
31
0.0
0
LINE
8
0
6
CONTINUOUS
10
0.011236
20
0.029737
30
0.0
11
0.011236
21
0.030137
31
0.0
0
LINE
8
0
6
CONTINUOUS
10
-0.011312
20
0.029737
30
0.0
11
-0.008669
21
0.022369
31
0.0
0
LINE
8
0
6
CONTINUOUS
10
0.008593
20
0.022369
30
0.0
11
0.011236
21
0.029737
31
0.0
0
LINE
8
0
6
CONTINUOUS
10
-0.011312
20
0.042535
30
0.0
11
-0.011312
21
0.041895
31
0.0
0
LINE
8
0
6
CONTINUOUS
10
-0.009854
20
0.042535
30
0.0
11
-0.011312
21
0.042535
31
0.0
0
LINE
8
0
6
CONTINUOUS
10
0.011236
20
0.042535
30
0.0
11
0.009673
21
0.042535
31
0.0
0
LINE
8
0
6
CONTINUOUS
10
0.011236
20
0.041895
30
0.0
11
0.011236
21
0.042535
31
0.0
0
LINE
8
0
6
CONTINUOUS
10
-0.005766
20
0.042535
30
0.0
11
-0.009854
21
0.042535
31
0.0
0
LINE
8
0
6
CONTINUOUS
10
0.009673
20
0.042535
30
0.0
11
0.005508
21
0.042535
31
0.0
0
LINE
8
0
6
CONTINUOUS
10
-0.011312
20
0.041895
30
0.0
11
-0.011312
21
0.030137
31
0.0
0
LINE
8
0
6
CONTINUOUS
10
0.011236
20
0.030137
30
0.0
11
0.011236
21
0.041895
31
0.0
0
LINE
8
0
6
CONTINUOUS
10
0.005690
20
0.042535
30
0.0
11
0.005177
21
0.042535
31
0.0
0
LINE
8
0
6
CONTINUOUS
10
0.009778
20
0.042535
30
0.0
11
0.005690
21
0.042535
31
0.0
0
LINE
8
0
6
CONTINUOUS
10
0.005508
20
0.042535
30
0.0
11
0.005011
21
0.042535
31
0.0
0
LINE
8
0
6
CONTINUOUS
10
-0.005253
20
0.042535
30
0.0
11
-0.005766
21
0.042535
31
0.0
0
LINE
8
0
6
CONTINUOUS
10
-0.005584
20
0.042535
30
0.0
11
-0.009749
21
0.042535
31
0.0
0
LINE
8
0
6
CONTINUOUS
10
-0.005088
20
0.042535
30
0.0
11
-0.005584
21
0.042535
31
0.0
0
LINE
8
0
6
CONTINUOUS
10
-0.015476
20
0.016250
30
0.0
11
-0.015476
21
-0.002993
31
0.0
0
LINE
8
0
6
CONTINUOUS
10
0.015400
20
-0.002992
30
0.0
11
0.015400
21
0.016250
31
0.0
0
LINE
8
0
6
CONTINUOUS
10
-0.014556
20
0.021712
30
0.0
11
-0.015476
21
0.016250
31
0.0
0
LINE
8
0
6
CONTINUOUS
10
0.015400
20
0.016250
30
0.0
11
0.014480
21
0.021712
31
0.0
0
LINE
8
0
6
CONTINUOUS
10
-0.014446
20
0.022369
30
0.0
11
-0.014556
21
0.021712
31
0.0
0
LINE
8
0
6
CONTINUOUS
10
-0.012582
20
0.022369
30
0.0
11
-0.014446
21
0.022369
31
0.0
0
LINE
8
0
6
CONTINUOUS
10
0.014369
20
0.022369
30
0.0
11
0.012372
21
0.022369
31
0.0
0
LINE
8
0
6
CONTINUOUS
10
0.014480
20
0.021712
30
0.0
11
0.014369
21
0.022369
31
0.0
0
LINE
8
0
6
CONTINUOUS
10
0.012506
20
0.022369
30
0.0
11
0.008593
21
0.022369
31
0.0
0
LINE
8
0
6
CONTINUOUS
10
-0.008669
20
0.022369
30
0.0
11
-0.012448
21
0.022369
31
0.0
0
LINE
8
0
6
CONTINUOUS
10
-0.104004
20
-0.010278
30
0.0
11
-0.104004
21
-0.011534
31
0.0
0
LINE
8
0
6
CONTINUOUS
10
-0.101827
20
-0.010073
30
0.0
11
-0.104004
21
-0.010278
31
0.0
0
LINE
8
0
6
CONTINUOUS
10
0.033547
20
-0.031801
30
0.0
11
0.049141
21
-0.031801
31
0.0
0
LINE
8
0
6
CONTINUOUS
10
-0.104004
20
-0.028880
30
0.0
11
-0.103246
21
-0.031125
31
0.0
0
LINE
8
0
6
CONTINUOUS
10
-0.000874
20
-0.031801
30
0.0
11
0.007892
21
-0.031801
31
0.0
0
LINE
8
0
6
CONTINUOUS
10
0.016657
20
-0.031801
30
0.0
11
0.025102
21
-0.031801
31
0.0
0
LINE
8
0
6
CONTINUOUS
10
0.049145
20
-0.031801
30
0.0
11
0.062854
21
-0.031801
31
0.0
0
LINE
8
0
6
CONTINUOUS
10
0.062854
20
-0.031801
30
0.0
11
0.077983
21
-0.031801
31
0.0
0
LINE
8
0
6
CONTINUOUS
10
0.077983
20
-0.031801
30
0.0
11
0.090988
21
-0.031801
31
0.0
0
LINE
8
0
6
CONTINUOUS
10
0.090988
20
-0.031801
30
0.0
11
0.095907
21
-0.031801
31
0.0
0
LINE
8
0
6
CONTINUOUS
10
0.100332
20
-0.031801
30
0.0
11
0.103246
21
-0.031125
31
0.0
0
LINE
8
0
6
CONTINUOUS
10
0.098905
20
-0.031801
30
0.0
11
0.100332
21
-0.031801
31
0.0
0
LINE
8
0
6
CONTINUOUS
10
-0.050611
20
-0.031801
30
0.0
11
-0.035167
21
-0.031801
31
0.0
0
LINE
8
0
6
CONTINUOUS
10
-0.099875
20
-0.031801
30
0.0
11
-0.097827
21
-0.031801
31
0.0
0
LINE
8
0
6
CONTINUOUS
10
-0.094478
20
-0.031801
30
0.0
11
-0.090416
21
-0.031801
31
0.0
0
LINE
8
0
6
CONTINUOUS
10
-0.085453
20
-0.031801
30
0.0
11
-0.075151
21
-0.031801
31
0.0
0
LINE
8
0
6
CONTINUOUS
10
-0.075151
20
-0.031801
30
0.0
11
-0.064112
21
-0.031801
31
0.0
0
LINE
8
0
6
CONTINUOUS
10
-0.064112
20
-0.031801
30
0.0
11
-0.050611
21
-0.031801
31
0.0
0
LINE
8
0
6
CONTINUOUS
10
-0.035167
20
-0.031801
30
0.0
11
-0.026770
21
-0.031801
31
0.0
0
LINE
8
0
6
CONTINUOUS
10
-0.018373
20
-0.031801
30
0.0
11
-0.009623
21
-0.031801
31
0.0
0
LINE
8
0
6
CONTINUOUS
10
-0.104004
20
-0.011534
30
0.0
11
-0.104004
21
-0.028013
31
0.0
0
LINE
8
0
6
CONTINUOUS
10
0.101827
20
-0.010073
30
0.0
11
0.015313
21
-0.002985
31
0.0
0
LINE
8
0
6
CONTINUOUS
10
-0.015476
20
-0.002993
30
0.0
11
-0.101827
21
-0.010073
31
0.0
0
LINE
8
0
6
CONTINUOUS
10
-0.104004
20
-0.028013
30
0.0
11
-0.104004
21
-0.028880
31
0.0
0
LINE
8
0
6
CONTINUOUS
10
0.095907
20
-0.031801
30
0.0
11
0.098905
21
-0.031801
31
0.0
0
LINE
8
0
6
CONTINUOUS
10
-0.090416
20
-0.031801
30
0.0
11
-0.085453
21
-0.031801
31
0.0
0
LINE
8
0
6
CONTINUOUS
10
0.104004
20
-0.011534
30
0.0
11
0.104004
21
-0.010278
31
0.0
0
LINE
8
0
6
CONTINUOUS
10
0.104004
20
-0.010278
30
0.0
11
0.101827
21
-0.010073
31
0.0
0
LINE
8
0
6
CONTINUOUS
10
0.103246
20
-0.031125
30
0.0
11
0.104004
21
-0.028880
31
0.0
0
LINE
8
0
6
CONTINUOUS
10
-0.097827
20
-0.031801
30
0.0
11
-0.094478
21
-0.031801
31
0.0
0
LINE
8
0
6
CONTINUOUS
10
0.104004
20
-0.028013
30
0.0
11
0.104004
21
-0.011534
31
0.0
0
LINE
8
0
6
CONTINUOUS
10
0.104004
20
-0.028880
30
0.0
11
0.104004
21
-0.028013
31
0.0
0
LINE
8
0
6
CONTINUOUS
10
-0.103246
20
-0.031125
30
0.0
11
-0.100332
21
-0.031801
31
0.0
0
LINE
8
0
6
CONTINUOUS
10
-0.100332
20
-0.031801
30
0.0
11
-0.099875
21
-0.031801
31
0.0
0
LINE
8
0
6
CONTINUOUS
10
-0.026770
20
-0.031801
30
0.0
11
-0.018373
21
-0.031801
31
0.0
0
LINE
8
0
6
CONTINUOUS
10
-0.009623
20
-0.031801
30
0.0
11
-0.000874
21
-0.031801
31
0.0
0
LINE
8
0
6
CONTINUOUS
10
0.007892
20
-0.031801
30
0.0
11
0.016657
21
-0.031801
31
0.0
0
LINE
8
0
6
CONTINUOUS
10
0.025102
20
-0.031801
30
0.0
11
0.033547
21
-0.031801
31
0.0
0
LINE
8
0
6
CONTINUOUS
10
-0.007724
20
-0.041881
30
0.0
11
-0.007006
21
-0.041879
31
0.0
0
LINE
8
0
6
CONTINUOUS
10
-0.005242
20
-0.042523
30
0.0
11
-0.004737
21
-0.042535
31
0.0
0
LINE
8
0
6
CONTINUOUS
10
-0.005250
20
-0.040539
30
0.0
11
-0.005249
21
-0.040830
31
0.0
0
LINE
8
0
6
CONTINUOUS
10
-0.005246
20
-0.041444
30
0.0
11
-0.005242
21
-0.042523
31
0.0
0
LINE
8
0
6
CONTINUOUS
10
0.038326
20
-0.041351
30
0.0
11
0.038885
21
-0.041333
31
0.0
0
LINE
8
0
6
CONTINUOUS
10
0.038316
20
-0.038990
30
0.0
11
0.038326
21
-0.041351
31
0.0
0
LINE
8
0
6
CONTINUOUS
10
0.051725
20
-0.040477
30
0.0
11
0.051715
21
-0.037927
31
0.0
0
LINE
8
0
6
CONTINUOUS
10
0.049998
20
-0.040471
30
0.0
11
0.051725
21
-0.040477
31
0.0
0
LINE
8
0
6
CONTINUOUS
10
0.047675
20
-0.040486
30
0.0
11
0.049998
21
-0.040471
31
0.0
0
LINE
8
0
6
CONTINUOUS
10
0.061297
20
-0.039647
30
0.0
11
0.061285
21
-0.036809
31
0.0
0
LINE
8
0
6
CONTINUOUS
10
0.059338
20
-0.039641
30
0.0
11
0.061297
21
-0.039647
31
0.0
0
LINE
8
0
6
CONTINUOUS
10
0.070910
20
-0.038333
30
0.0
11
0.070898
21
-0.035616
31
0.0
0
LINE
8
0
6
CONTINUOUS
10
0.068950
20
-0.038327
30
0.0
11
0.070910
21
-0.038333
31
0.0
0
LINE
8
0
6
CONTINUOUS
10
0.080479
20
-0.037051
30
0.0
11
0.080468
21
-0.034422
31
0.0
0
LINE
8
0
6
CONTINUOUS
10
0.078520
20
-0.037045
30
0.0
11
0.080479
21
-0.037051
31
0.0
0
LINE
8
0
6
CONTINUOUS
10
0.029539
20
-0.041879
30
0.0
11
0.030097
21
-0.041861
31
0.0
0
LINE
8
0
6
CONTINUOUS
10
0.029530
20
-0.039685
30
0.0
11
0.029539
21
-0.041879
31
0.0
0
LINE
8
0
6
CONTINUOUS
10
0.035084
20
-0.041852
30
0.0
11
0.035082
21
-0.041353
31
0.0
0
LINE
8
0
6
CONTINUOUS
10
0.033900
20
-0.041848
30
0.0
11
0.035084
21
-0.041852
31
0.0
0
LINE
8
0
6
CONTINUOUS
10
0.052087
20
-0.040477
30
0.0
11
0.052079
21
-0.038851
31
0.0
0
LINE
8
0
6
CONTINUOUS
10
0.051725
20
-0.040475
30
0.0
11
0.052087
21
-0.040477
31
0.0
0
LINE
8
0
6
CONTINUOUS
10
0.061598
20
-0.039647
30
0.0
11
0.061585
21
-0.037074
31
0.0
0
LINE
8
0
6
CONTINUOUS
10
0.061297
20
-0.039646
30
0.0
11
0.061598
21
-0.039647
31
0.0
0
LINE
8
0
6
CONTINUOUS
10
0.026844
20
-0.042506
30
0.0
11
0.026841
21
-0.041871
31
0.0
0
LINE
8
0
6
CONTINUOUS
10
0.025559
20
-0.042502
30
0.0
11
0.026844
21
-0.042506
31
0.0
0
LINE
8
0
6
CONTINUOUS
10
0.072101
20
-0.037062
30
0.0
11
0.072320
21
-0.037061
31
0.0
0
LINE
8
0
6
CONTINUOUS
10
0.071030
20
-0.037084
30
0.0
11
0.072101
21
-0.037062
31
0.0
0
LINE
8
0
6
CONTINUOUS
10
0.071023
20
-0.035669
30
0.0
11
0.071030
21
-0.037084
31
0.0
0
LINE
8
0
6
CONTINUOUS
10
0.052096
20
-0.038851
30
0.0
11
0.052100
21
-0.039680
31
0.0
0
LINE
8
0
6
CONTINUOUS
10
0.017969
20
-0.042530
30
0.0
11
0.018752
21
-0.042514
31
0.0
0
LINE
8
0
6
CONTINUOUS
10
0.017962
20
-0.041333
30
0.0
11
0.017969
21
-0.042530
31
0.0
0
LINE
8
0
6
CONTINUOUS
10
0.027221
20
-0.041852
30
0.0
11
0.027214
21
-0.039829
31
0.0
0
LINE
8
0
6
CONTINUOUS
10
0.025424
20
-0.041847
30
0.0
11
0.027221
21
-0.041852
31
0.0
0
LINE
8
0
6
CONTINUOUS
10
0.062221
20
-0.038366
30
0.0
11
0.062579
21
-0.038344
31
0.0
0
LINE
8
0
6
CONTINUOUS
10
0.062214
20
-0.036249
30
0.0
11
0.062221
21
-0.038366
31
0.0
0
LINE
8
0
6
CONTINUOUS
10
0.062579
20
-0.038344
30
0.0
11
0.065108
21
-0.038327
31
0.0
0
LINE
8
0
6
CONTINUOUS
10
0.045007
20
-0.040471
30
0.0
11
0.046921
21
-0.040477
31
0.0
0
LINE
8
0
6
CONTINUOUS
10
0.072678
20
-0.037062
30
0.0
11
0.075206
21
-0.037045
31
0.0
0
LINE
8
0
6
CONTINUOUS
10
0.077377
20
-0.037051
30
0.0
11
0.077368
21
-0.034323
31
0.0
0
LINE
8
0
6
CONTINUOUS
10
0.075206
20
-0.037045
30
0.0
11
0.077377
21
-0.037051
31
0.0
0
LINE
8
0
6
CONTINUOUS
10
0.072320
20
-0.037084
30
0.0
11
0.072678
21
-0.037062
31
0.0
0
LINE
8
0
6
CONTINUOUS
10
0.072313
20
-0.035075
30
0.0
11
0.072320
21
-0.037084
31
0.0
0
LINE
8
0
6
CONTINUOUS
10
0.013263
20
-0.042530
30
0.0
11
0.013525
21
-0.042514
31
0.0
0
LINE
8
0
6
CONTINUOUS
10
0.013260
20
-0.041444
30
0.0
11
0.013263
21
-0.042530
31
0.0
0
LINE
8
0
6
CONTINUOUS
10
0.060124
20
-0.038321
30
0.0
11
0.060120
21
-0.036945
31
0.0
0
LINE
8
0
6
CONTINUOUS
10
0.057785
20
-0.038315
30
0.0
11
0.060124
21
-0.038321
31
0.0
0
LINE
8
0
6
CONTINUOUS
10
0.012008
20
-0.041879
30
0.0
11
0.012058
21
-0.041861
31
0.0
0
LINE
8
0
6
CONTINUOUS
10
0.012007
20
-0.041444
30
0.0
11
0.012008
21
-0.041879
31
0.0
0
LINE
8
0
6
CONTINUOUS
10
0.033738
20
-0.040506
30
0.0
11
0.033791
21
-0.040486
31
0.0
0
LINE
8
0
6
CONTINUOUS
10
0.033735
20
-0.039422
30
0.0
11
0.033738
21
-0.040506
31
0.0
0
LINE
8
0
6
CONTINUOUS
10
0.012058
20
-0.041861
30
0.0
11
0.014045
21
-0.041847
31
0.0
0
LINE
8
0
6
CONTINUOUS
10
0.044422
20
-0.039658
30
0.0
11
0.046821
21
-0.039641
31
0.0
0
LINE
8
0
6
CONTINUOUS
10
0.010308
20
-0.041351
30
0.0
11
0.010358
21
-0.041333
31
0.0
0
LINE
8
0
6
CONTINUOUS
10
0.010306
20
-0.040450
30
0.0
11
0.010308
21
-0.041351
31
0.0
0
LINE
8
0
6
CONTINUOUS
10
0.023741
20
-0.040471
30
0.0
11
0.025955
21
-0.040477
31
0.0
0
LINE
8
0
6
CONTINUOUS
10
0.010358
20
-0.041333
30
0.0
11
0.012344
21
-0.041319
31
0.0
0
LINE
8
0
6
CONTINUOUS
10
0.026233
20
-0.040496
30
0.0
11
0.026231
21
-0.038851
31
0.0
0
LINE
8
0
6
CONTINUOUS
10
0.025955
20
-0.040477
30
0.0
11
0.026233
21
-0.040496
31
0.0
0
LINE
8
0
6
CONTINUOUS
10
0.038314
20
-0.039669
30
0.0
11
0.038311
21
-0.036952
31
0.0
0
LINE
8
0
6
CONTINUOUS
10
0.037999
20
-0.039647
30
0.0
11
0.038314
21
-0.039669
31
0.0
0
LINE
8
0
6
CONTINUOUS
10
0.014281
20
-0.041324
30
0.0
11
0.014275
21
-0.038851
31
0.0
0
LINE
8
0
6
CONTINUOUS
10
0.012344
20
-0.041319
30
0.0
11
0.014281
21
-0.041324
31
0.0
0
LINE
8
0
6
CONTINUOUS
10
0.019701
20
-0.039658
30
0.0
11
0.021898
21
-0.039641
31
0.0
0
LINE
8
0
6
CONTINUOUS
10
0.019700
20
-0.038851
30
0.0
11
0.019701
21
-0.039658
31
0.0
0
LINE
8
0
6
CONTINUOUS
10
0.012058
20
-0.040496
30
0.0
11
0.012056
21
-0.038851
31
0.0
0
LINE
8
0
6
CONTINUOUS
10
0.011797
20
-0.040477
30
0.0
11
0.012058
21
-0.040496
31
0.0
0
LINE
8
0
6
CONTINUOUS
10
0.032360
20
-0.038309
30
0.0
11
0.034557
21
-0.038292
31
0.0
0
LINE
8
0
6
CONTINUOUS
10
0.032360
20
-0.037665
30
0.0
11
0.032360
21
-0.038309
31
0.0
0
LINE
8
0
6
CONTINUOUS
10
0.035772
20
-0.037051
30
0.0
11
0.035768
21
-0.034142
31
0.0
0
LINE
8
0
6
CONTINUOUS
10
0.035457
20
-0.037029
30
0.0
11
0.035772
21
-0.037051
31
0.0
0
LINE
8
0
6
CONTINUOUS
10
0.032946
20
-0.037023
30
0.0
11
0.035435
21
-0.037029
31
0.0
0
LINE
8
0
6
CONTINUOUS
10
0.001159
20
-0.037023
30
0.0
11
0.003671
21
-0.037029
31
0.0
0
LINE
8
0
6
CONTINUOUS
10
0.020247
20
-0.037051
30
0.0
11
0.020243
21
-0.034454
31
0.0
0
LINE
8
0
6
CONTINUOUS
10
0.019932
20
-0.037029
30
0.0
11
0.020247
21
-0.037051
31
0.0
0
LINE
8
0
6
CONTINUOUS
10
-0.001038
20
-0.037040
30
0.0
11
0.001159
21
-0.037023
31
0.0
0
LINE
8
0
6
CONTINUOUS
10
-0.001041
20
-0.034572
30
0.0
11
-0.001038
21
-0.037040
31
0.0
0
LINE
8
0
6
CONTINUOUS
10
-0.044266
20
-0.039658
30
0.0
11
-0.044269
21
-0.038851
31
0.0
0
LINE
8
0
6
CONTINUOUS
10
-0.044510
20
-0.039661
30
0.0
11
-0.044266
21
-0.039658
31
0.0
0
LINE
8
0
6
CONTINUOUS
10
-0.039727
20
-0.040511
30
0.0
11
-0.039713
21
-0.038851
31
0.0
0
LINE
8
0
6
CONTINUOUS
10
-0.041632
20
-0.040496
30
0.0
11
-0.039727
21
-0.040511
31
0.0
0
LINE
8
0
6
CONTINUOUS
10
-0.044510
20
-0.039686
30
0.0
11
-0.044489
21
-0.037180
31
0.0
0
LINE
8
0
6
CONTINUOUS
10
-0.046670
20
-0.039669
30
0.0
11
-0.044510
21
-0.039686
31
0.0
0
LINE
8
0
6
CONTINUOUS
10
-0.044198
20
-0.040471
30
0.0
11
-0.043867
21
-0.040477
31
0.0
0
LINE
8
0
6
CONTINUOUS
10
-0.044182
20
-0.038614
30
0.0
11
-0.044198
21
-0.040471
31
0.0
0
LINE
8
0
6
CONTINUOUS
10
-0.049580
20
-0.039641
30
0.0
11
-0.049205
21
-0.039647
31
0.0
0
LINE
8
0
6
CONTINUOUS
10
-0.049568
20
-0.038159
30
0.0
11
-0.049580
21
-0.039641
31
0.0
0
LINE
8
0
6
CONTINUOUS
10
-0.043867
20
-0.040477
30
0.0
11
-0.041632
21
-0.040496
31
0.0
0
LINE
8
0
6
CONTINUOUS
10
-0.049205
20
-0.039647
30
0.0
11
-0.046670
21
-0.039669
31
0.0
0
LINE
8
0
6
CONTINUOUS
10
-0.049562
20
-0.038372
30
0.0
11
-0.049541
21
-0.035864
31
0.0
0
LINE
8
0
6
CONTINUOUS
10
-0.051722
20
-0.038355
30
0.0
11
-0.049570
21
-0.038372
31
0.0
0
LINE
8
0
6
CONTINUOUS
10
-0.050344
20
-0.040471
30
0.0
11
-0.050276
21
-0.040477
31
0.0
0
LINE
8
0
6
CONTINUOUS
10
-0.050325
20
-0.038095
30
0.0
11
-0.050344
21
-0.040471
31
0.0
0
LINE
8
0
6
CONTINUOUS
10
-0.050276
20
-0.040477
30
0.0
11
-0.048153
21
-0.040496
31
0.0
0
LINE
8
0
6
CONTINUOUS
10
-0.069136
20
-0.038310
30
0.0
11
-0.066929
21
-0.038332
31
0.0
0
LINE
8
0
6
CONTINUOUS
10
-0.069117
20
-0.035903
30
0.0
11
-0.069136
21
-0.038310
31
0.0
0
LINE
8
0
6
CONTINUOUS
10
-0.066929
20
-0.038332
30
0.0
11
-0.064424
21
-0.038348
31
0.0
0
LINE
8
0
6
CONTINUOUS
10
-0.056566
20
-0.039686
30
0.0
11
-0.056268
21
-0.039680
31
0.0
0
LINE
8
0
6
CONTINUOUS
10
-0.045755
20
-0.040504
30
0.0
11
-0.045749
21
-0.039678
31
0.0
0
LINE
8
0
6
CONTINUOUS
10
-0.046002
20
-0.040509
30
0.0
11
-0.045755
21
-0.040504
31
0.0
0
LINE
8
0
6
CONTINUOUS
10
-0.067311
20
-0.038344
30
0.0
11
-0.064807
21
-0.038360
31
0.0
0
LINE
8
0
6
CONTINUOUS
10
-0.004046
20
-0.041319
30
0.0
11
-0.003147
21
-0.041324
31
0.0
0
LINE
8
0
6
CONTINUOUS
10
-0.004039
20
-0.040477
30
0.0
11
-0.004046
21
-0.041319
31
0.0
0
LINE
8
0
6
CONTINUOUS
10
-0.011456
20
-0.037090
30
0.0
11
-0.011437
21
-0.034737
31
0.0
0
LINE
8
0
6
CONTINUOUS
10
-0.013088
20
-0.037074
30
0.0
11
-0.011456
21
-0.037090
31
0.0
0
LINE
8
0
6
CONTINUOUS
10
-0.003147
20
-0.041324
30
0.0
11
-0.000897
21
-0.041342
31
0.0
0
LINE
8
0
6
CONTINUOUS
10
0.005289
20
-0.042535
30
0.0
11
0.005306
21
-0.040477
31
0.0
0
LINE
8
0
6
CONTINUOUS
10
0.004096
20
-0.042523
30
0.0
11
0.005289
21
-0.042535
31
0.0
0
LINE
8
0
6
CONTINUOUS
10
-0.016818
20
-0.040511
30
0.0
11
-0.016805
21
-0.038851
31
0.0
0
LINE
8
0
6
CONTINUOUS
10
-0.018355
20
-0.040496
30
0.0
11
-0.018016
21
-0.040499
31
0.0
0
LINE
8
0
6
CONTINUOUS
10
-0.014024
20
-0.041852
30
0.0
11
-0.011790
21
-0.041871
31
0.0
0
LINE
8
0
6
CONTINUOUS
10
-0.013601
20
-0.041356
30
0.0
11
-0.013580
21
-0.038851
31
0.0
0
LINE
8
0
6
CONTINUOUS
10
-0.015043
20
-0.041342
30
0.0
11
-0.013601
21
-0.041356
31
0.0
0
LINE
8
0
6
CONTINUOUS
10
-0.017277
20
-0.041324
30
0.0
11
-0.015043
21
-0.041342
31
0.0
0
LINE
8
0
6
CONTINUOUS
10
-0.034393
20
-0.040471
30
0.0
11
-0.033783
21
-0.040477
31
0.0
0
LINE
8
0
6
CONTINUOUS
10
-0.034384
20
-0.039386
30
0.0
11
-0.034393
21
-0.040471
31
0.0
0
LINE
8
0
6
CONTINUOUS
10
-0.042294
20
-0.038333
30
0.0
11
-0.039655
21
-0.038355
31
0.0
0
LINE
8
0
6
CONTINUOUS
10
-0.033783
20
-0.040477
30
0.0
11
-0.031456
21
-0.040496
31
0.0
0
LINE
8
0
6
CONTINUOUS
10
-0.042985
20
-0.038327
30
0.0
11
-0.042294
21
-0.038333
31
0.0
0
LINE
8
0
6
CONTINUOUS
10
-0.042980
20
-0.037665
30
0.0
11
-0.042985
21
-0.038327
31
0.0
0
LINE
8
0
6
CONTINUOUS
10
-0.041737
20
-0.037090
30
0.0
11
-0.041716
21
-0.034568
31
0.0
0
LINE
8
0
6
CONTINUOUS
10
-0.043684
20
-0.037074
30
0.0
11
-0.041737
21
-0.037090
31
0.0
0
LINE
8
0
6
CONTINUOUS
10
-0.021869
20
-0.041884
30
0.0
11
-0.021853
21
-0.040086
31
0.0
0
LINE
8
0
6
CONTINUOUS
10
-0.023480
20
-0.041871
30
0.0
11
-0.021869
21
-0.041884
31
0.0
0
LINE
8
0
6
CONTINUOUS
10
-0.017866
20
-0.042535
30
0.0
11
-0.017848
21
-0.040477
31
0.0
0
LINE
8
0
6
CONTINUOUS
10
-0.019290
20
-0.042523
30
0.0
11
-0.017866
21
-0.042535
31
0.0
0
LINE
8
0
6
CONTINUOUS
10
-0.005394
20
-0.041861
30
0.0
11
-0.005396
21
-0.041444
31
0.0
0
LINE
8
0
6
CONTINUOUS
10
-0.005398
20
-0.040830
30
0.0
11
-0.005399
21
-0.040536
31
0.0
0
LINE
8
0
6
CONTINUOUS
10
-0.007006
20
-0.041879
30
0.0
11
-0.005394
21
-0.041861
31
0.0
0
LINE
8
0
6
CONTINUOUS
10
-0.001382
20
-0.042514
30
0.0
11
-0.001386
21
-0.041444
31
0.0
0
LINE
8
0
6
CONTINUOUS
10
-0.002807
20
-0.042530
30
0.0
11
-0.001382
21
-0.042514
31
0.0
0
LINE
8
0
6
CONTINUOUS
10
-0.004737
20
-0.042535
30
0.0
11
-0.002807
21
-0.042530
31
0.0
0
LINE
8
0
6
CONTINUOUS
10
0.032278
20
-0.041847
30
0.0
11
0.033900
21
-0.041852
31
0.0
0
LINE
8
0
6
CONTINUOUS
10
0.041065
20
-0.041319
30
0.0
11
0.042687
21
-0.041324
31
0.0
0
LINE
8
0
6
CONTINUOUS
10
0.066316
20
-0.038344
30
0.0
11
0.068950
21
-0.038327
31
0.0
0
LINE
8
0
6
CONTINUOUS
10
0.038885
20
-0.041333
30
0.0
11
0.041065
21
-0.041319
31
0.0
0
LINE
8
0
6
CONTINUOUS
10
0.047080
20
-0.040506
30
0.0
11
0.047675
21
-0.040486
31
0.0
0
LINE
8
0
6
CONTINUOUS
10
0.030097
20
-0.041861
30
0.0
11
0.032278
21
-0.041847
31
0.0
0
LINE
8
0
6
CONTINUOUS
10
0.056704
20
-0.039658
30
0.0
11
0.059338
21
-0.039641
31
0.0
0
LINE
8
0
6
CONTINUOUS
10
0.021601
20
-0.042514
30
0.0
11
0.021108
21
-0.042530
31
0.0
0
LINE
8
0
6
CONTINUOUS
10
0.023528
20
-0.042502
30
0.0
11
0.021601
21
-0.042514
31
0.0
0
LINE
8
0
6
CONTINUOUS
10
0.024961
20
-0.042506
30
0.0
11
0.023528
21
-0.042502
31
0.0
0
LINE
8
0
6
CONTINUOUS
10
0.022541
20
-0.042535
30
0.0
11
0.024468
21
-0.042523
31
0.0
0
LINE
8
0
6
CONTINUOUS
10
0.021108
20
-0.042530
30
0.0
11
0.022541
21
-0.042535
31
0.0
0
LINE
8
0
6
CONTINUOUS
10
0.021601
20
-0.042514
30
0.0
11
0.023528
21
-0.042502
31
0.0
0
LINE
8
0
6
CONTINUOUS
10
0.021108
20
-0.042530
30
0.0
11
0.021601
21
-0.042514
31
0.0
0
LINE
8
0
6
CONTINUOUS
10
0.021099
20
-0.040477
30
0.0
11
0.021108
21
-0.042530
31
0.0
0
LINE
8
0
6
CONTINUOUS
10
0.023528
20
-0.042502
30
0.0
11
0.024961
21
-0.042506
31
0.0
0
LINE
8
0
6
CONTINUOUS
10
0.080479
20
-0.037051
30
0.0
11
0.078520
21
-0.037045
31
0.0
0
LINE
8
0
6
CONTINUOUS
10
0.079804
20
-0.037074
30
0.0
11
0.080479
21
-0.037051
31
0.0
0
LINE
8
0
6
CONTINUOUS
10
0.077170
20
-0.037090
30
0.0
11
0.079804
21
-0.037074
31
0.0
0
LINE
8
0
6
CONTINUOUS
10
0.075211
20
-0.037084
30
0.0
11
0.077170
21
-0.037090
31
0.0
0
LINE
8
0
6
CONTINUOUS
10
0.030097
20
-0.041861
30
0.0
11
0.029539
21
-0.041879
31
0.0
0
LINE
8
0
6
CONTINUOUS
10
0.032278
20
-0.041847
30
0.0
11
0.030097
21
-0.041861
31
0.0
0
LINE
8
0
6
CONTINUOUS
10
0.033900
20
-0.041852
30
0.0
11
0.032278
21
-0.041847
31
0.0
0
LINE
8
0
6
CONTINUOUS
10
0.033341
20
-0.041871
30
0.0
11
0.033900
21
-0.041852
31
0.0
0
LINE
8
0
6
CONTINUOUS
10
0.031160
20
-0.041884
30
0.0
11
0.033341
21
-0.041871
31
0.0
0
LINE
8
0
6
CONTINUOUS
10
0.029539
20
-0.041879
30
0.0
11
0.031160
21
-0.041884
31
0.0
0
LINE
8
0
6
CONTINUOUS
10
0.038885
20
-0.041333
30
0.0
11
0.038326
21
-0.041351
31
0.0
0
LINE
8
0
6
CONTINUOUS
10
0.041065
20
-0.041319
30
0.0
11
0.038885
21
-0.041333
31
0.0
0
LINE
8
0
6
CONTINUOUS
10
0.042687
20
-0.041324
30
0.0
11
0.041065
21
-0.041319
31
0.0
0
LINE
8
0
6
CONTINUOUS
10
0.042128
20
-0.041342
30
0.0
11
0.042687
21
-0.041324
31
0.0
0
LINE
8
0
6
CONTINUOUS
10
0.039948
20
-0.041356
30
0.0
11
0.042128
21
-0.041342
31
0.0
0
LINE
8
0
6
CONTINUOUS
10
0.038326
20
-0.041351
30
0.0
11
0.039948
21
-0.041356
31
0.0
0
LINE
8
0
6
CONTINUOUS
10
0.047675
20
-0.040486
30
0.0
11
0.047080
21
-0.040506
31
0.0
0
LINE
8
0
6
CONTINUOUS
10
0.049998
20
-0.040471
30
0.0
11
0.047675
21
-0.040486
31
0.0
0
LINE
8
0
6
CONTINUOUS
10
0.051725
20
-0.040477
30
0.0
11
0.049998
21
-0.040471
31
0.0
0
LINE
8
0
6
CONTINUOUS
10
0.051130
20
-0.040496
30
0.0
11
0.051725
21
-0.040477
31
0.0
0
LINE
8
0
6
CONTINUOUS
10
0.048807
20
-0.040511
30
0.0
11
0.051130
21
-0.040496
31
0.0
0
LINE
8
0
6
CONTINUOUS
10
0.047080
20
-0.040506
30
0.0
11
0.048807
21
-0.040511
31
0.0
0
LINE
8
0
6
CONTINUOUS
10
0.059338
20
-0.039641
30
0.0
11
0.056704
21
-0.039658
31
0.0
0
LINE
8
0
6
CONTINUOUS
10
0.061297
20
-0.039647
30
0.0
11
0.059338
21
-0.039641
31
0.0
0
LINE
8
0
6
CONTINUOUS
10
0.060622
20
-0.039669
30
0.0
11
0.061297
21
-0.039647
31
0.0
0
LINE
8
0
6
CONTINUOUS
10
0.057988
20
-0.039686
30
0.0
11
0.060622
21
-0.039669
31
0.0
0
LINE
8
0
6
CONTINUOUS
10
0.056029
20
-0.039680
30
0.0
11
0.057988
21
-0.039686
31
0.0
0
LINE
8
0
6
CONTINUOUS
10
0.068950
20
-0.038327
30
0.0
11
0.066316
21
-0.038344
31
0.0
0
LINE
8
0
6
CONTINUOUS
10
0.070910
20
-0.038333
30
0.0
11
0.068950
21
-0.038327
31
0.0
0
LINE
8
0
6
CONTINUOUS
10
0.070235
20
-0.038355
30
0.0
11
0.070910
21
-0.038333
31
0.0
0
LINE
8
0
6
CONTINUOUS
10
0.067601
20
-0.038372
30
0.0
11
0.070235
21
-0.038355
31
0.0
0
LINE
8
0
6
CONTINUOUS
10
0.065641
20
-0.038366
30
0.0
11
0.067601
21
-0.038372
31
0.0
0
LINE
8
0
6
CONTINUOUS
10
0.043491
20
-0.041324
30
0.0
11
0.043487
21
-0.040508
31
0.0
0
LINE
8
0
6
CONTINUOUS
10
0.042687
20
-0.041321
30
0.0
11
0.043491
21
-0.041324
31
0.0
0
LINE
8
0
6
CONTINUOUS
10
0.070965
20
-0.038333
30
0.0
11
0.070952
21
-0.035678
31
0.0
0
LINE
8
0
6
CONTINUOUS
10
0.070910
20
-0.038333
30
0.0
11
0.070965
21
-0.038333
31
0.0
0
LINE
8
0
6
CONTINUOUS
10
0.025559
20
-0.042502
30
0.0
11
0.024961
21
-0.042506
31
0.0
0
LINE
8
0
6
CONTINUOUS
10
0.026844
20
-0.042506
30
0.0
11
0.025559
21
-0.042502
31
0.0
0
LINE
8
0
6
CONTINUOUS
10
0.026156
20
-0.042523
30
0.0
11
0.026844
21
-0.042506
31
0.0
0
LINE
8
0
6
CONTINUOUS
10
0.024184
20
-0.042535
30
0.0
11
0.026156
21
-0.042523
31
0.0
0
LINE
8
0
6
CONTINUOUS
10
0.022900
20
-0.042530
30
0.0
11
0.024184
21
-0.042535
31
0.0
0
LINE
8
0
6
CONTINUOUS
10
0.024961
20
-0.042506
30
0.0
11
0.025559
21
-0.042502
31
0.0
0
LINE
8
0
6
CONTINUOUS
10
0.074940
20
-0.037084
30
0.0
11
0.076696
21
-0.037090
31
0.0
0
LINE
8
0
6
CONTINUOUS
10
0.035084
20
-0.041852
30
0.0
11
0.033900
21
-0.041848
31
0.0
0
LINE
8
0
6
CONTINUOUS
10
0.034306
20
-0.041871
30
0.0
11
0.035084
21
-0.041852
31
0.0
0
LINE
8
0
6
CONTINUOUS
10
0.032075
20
-0.041884
30
0.0
11
0.034306
21
-0.041871
31
0.0
0
LINE
8
0
6
CONTINUOUS
10
0.043491
20
-0.041324
30
0.0
11
0.042687
21
-0.041321
31
0.0
0
LINE
8
0
6
CONTINUOUS
10
0.042713
20
-0.041342
30
0.0
11
0.043491
21
-0.041324
31
0.0
0
LINE
8
0
6
CONTINUOUS
10
0.040482
20
-0.041356
30
0.0
11
0.042713
21
-0.041342
31
0.0
0
LINE
8
0
6
CONTINUOUS
10
0.052087
20
-0.040477
30
0.0
11
0.051725
21
-0.040475
31
0.0
0
LINE
8
0
6
CONTINUOUS
10
0.048881
20
-0.040511
30
0.0
11
0.051258
21
-0.040496
31
0.0
0
LINE
8
0
6
CONTINUOUS
10
0.061598
20
-0.039647
30
0.0
11
0.061297
21
-0.039646
31
0.0
0
LINE
8
0
6
CONTINUOUS
10
0.060658
20
-0.039669
30
0.0
11
0.061598
21
-0.039647
31
0.0
0
LINE
8
0
6
CONTINUOUS
10
0.057962
20
-0.039686
30
0.0
11
0.060658
21
-0.039669
31
0.0
0
LINE
8
0
6
CONTINUOUS
10
0.070965
20
-0.038333
30
0.0
11
0.070910
21
-0.038333
31
0.0
0
LINE
8
0
6
CONTINUOUS
10
0.065573
20
-0.038366
30
0.0
11
0.067329
21
-0.038372
31
0.0
0
LINE
8
0
6
CONTINUOUS
10
0.061711
20
-0.036759
30
0.0
11
0.061719
21
-0.038366
31
0.0
0
LINE
8
0
6
CONTINUOUS
10
0.046921
20
-0.040473
30
0.0
11
0.047079
21
-0.040474
31
0.0
0
LINE
8
0
6
CONTINUOUS
10
0.026945
20
-0.041861
30
0.0
11
0.029193
21
-0.041847
31
0.0
0
LINE
8
0
6
CONTINUOUS
10
0.018752
20
-0.042514
30
0.0
11
0.017969
21
-0.042530
31
0.0
0
LINE
8
0
6
CONTINUOUS
10
0.020739
20
-0.042502
30
0.0
11
0.018752
21
-0.042514
31
0.0
0
LINE
8
0
6
CONTINUOUS
10
0.019172
20
-0.042535
30
0.0
11
0.021108
21
-0.042523
31
0.0
0
LINE
8
0
6
CONTINUOUS
10
0.017969
20
-0.042530
30
0.0
11
0.019172
21
-0.042535
31
0.0
0
LINE
8
0
6
CONTINUOUS
10
0.018752
20
-0.042514
30
0.0
11
0.020739
21
-0.042502
31
0.0
0
LINE
8
0
6
CONTINUOUS
10
0.072101
20
-0.037062
30
0.0
11
0.071030
21
-0.037084
31
0.0
0
LINE
8
0
6
CONTINUOUS
10
0.072320
20
-0.037061
30
0.0
11
0.072101
21
-0.037062
31
0.0
0
LINE
8
0
6
CONTINUOUS
10
0.071030
20
-0.037084
30
0.0
11
0.072676
21
-0.037090
31
0.0
0
LINE
8
0
6
CONTINUOUS
10
0.029193
20
-0.041847
30
0.0
11
0.026945
21
-0.041861
31
0.0
0
LINE
8
0
6
CONTINUOUS
10
0.027420
20
-0.041884
30
0.0
11
0.029669
21
-0.041871
31
0.0
0
LINE
8
0
6
CONTINUOUS
10
0.036205
20
-0.041356
30
0.0
11
0.038454
21
-0.041342
31
0.0
0
LINE
8
0
6
CONTINUOUS
10
0.034843
20
-0.041351
30
0.0
11
0.036205
21
-0.041356
31
0.0
0
LINE
8
0
6
CONTINUOUS
10
0.047079
20
-0.040474
30
0.0
11
0.046921
21
-0.040473
31
0.0
0
LINE
8
0
6
CONTINUOUS
10
0.044607
20
-0.040511
30
0.0
11
0.047002
21
-0.040496
31
0.0
0
LINE
8
0
6
CONTINUOUS
10
0.052100
20
-0.039680
30
0.0
11
0.053745
21
-0.039686
31
0.0
0
LINE
8
0
6
CONTINUOUS
10
0.061719
20
-0.038366
30
0.0
11
0.063364
21
-0.038372
31
0.0
0
LINE
8
0
6
CONTINUOUS
10
0.005295
20
-0.041882
30
0.0
11
0.006259
21
-0.041879
31
0.0
0
LINE
8
0
6
CONTINUOUS
10
0.006259
20
-0.041879
30
0.0
11
0.007642
21
-0.041865
31
0.0
0
LINE
8
0
6
CONTINUOUS
10
0.007646
20
-0.042523
30
0.0
11
0.007914
21
-0.042535
31
0.0
0
LINE
8
0
6
CONTINUOUS
10
0.007635
20
-0.040477
30
0.0
11
0.007637
21
-0.040830
31
0.0
0
LINE
8
0
6
CONTINUOUS
10
0.007640
20
-0.041444
30
0.0
11
0.007646
21
-0.042523
31
0.0
0
LINE
8
0
6
CONTINUOUS
10
0.011350
20
-0.042514
30
0.0
11
0.011344
21
-0.041444
31
0.0
0
LINE
8
0
6
CONTINUOUS
10
0.009766
20
-0.042530
30
0.0
11
0.011350
21
-0.042514
31
0.0
0
LINE
8
0
6
CONTINUOUS
10
0.007914
20
-0.042535
30
0.0
11
0.009766
21
-0.042530
31
0.0
0
LINE
8
0
6
CONTINUOUS
10
0.016961
20
-0.041884
30
0.0
11
0.017965
21
-0.041882
31
0.0
0
LINE
8
0
6
CONTINUOUS
10
0.032796
20
-0.041351
30
0.0
11
0.033093
21
-0.041333
31
0.0
0
LINE
8
0
6
CONTINUOUS
10
0.032789
20
-0.039022
30
0.0
11
0.032796
21
-0.041351
31
0.0
0
LINE
8
0
6
CONTINUOUS
10
0.035186
20
-0.041319
30
0.0
11
0.036983
21
-0.041324
31
0.0
0
LINE
8
0
6
CONTINUOUS
10
0.033093
20
-0.041333
30
0.0
11
0.035186
21
-0.041319
31
0.0
0
LINE
8
0
6
CONTINUOUS
10
0.042777
20
-0.040486
30
0.0
11
0.045007
21
-0.040471
31
0.0
0
LINE
8
0
6
CONTINUOUS
10
0.057178
20
-0.039647
30
0.0
11
0.057170
21
-0.037290
31
0.0
0
LINE
8
0
6
CONTINUOUS
10
0.055007
20
-0.039641
30
0.0
11
0.057178
21
-0.039647
31
0.0
0
LINE
8
0
6
CONTINUOUS
10
0.067278
20
-0.038333
30
0.0
11
0.067271
21
-0.036109
31
0.0
0
LINE
8
0
6
CONTINUOUS
10
0.065108
20
-0.038327
30
0.0
11
0.067278
21
-0.038333
31
0.0
0
LINE
8
0
6
CONTINUOUS
10
0.023035
20
-0.041879
30
0.0
11
0.023331
21
-0.041861
31
0.0
0
LINE
8
0
6
CONTINUOUS
10
0.023029
20
-0.040041
30
0.0
11
0.023035
21
-0.041879
31
0.0
0
LINE
8
0
6
CONTINUOUS
10
0.042462
20
-0.040506
30
0.0
11
0.042777
21
-0.040486
31
0.0
0
LINE
8
0
6
CONTINUOUS
10
0.042456
20
-0.038753
30
0.0
11
0.042462
21
-0.040506
31
0.0
0
LINE
8
0
6
CONTINUOUS
10
0.023331
20
-0.041861
30
0.0
11
0.025424
21
-0.041847
31
0.0
0
LINE
8
0
6
CONTINUOUS
10
0.052121
20
-0.039680
30
0.0
11
0.052479
21
-0.039658
31
0.0
0
LINE
8
0
6
CONTINUOUS
10
0.052113
20
-0.037401
30
0.0
11
0.052121
21
-0.039680
31
0.0
0
LINE
8
0
6
CONTINUOUS
10
0.052479
20
-0.039658
30
0.0
11
0.055007
21
-0.039641
31
0.0
0
LINE
8
0
6
CONTINUOUS
10
0.013525
20
-0.042514
30
0.0
11
0.013263
21
-0.042530
31
0.0
0
LINE
8
0
6
CONTINUOUS
10
0.015375
20
-0.042502
30
0.0
11
0.013525
21
-0.042514
31
0.0
0
LINE
8
0
6
CONTINUOUS
10
0.016963
20
-0.042506
30
0.0
11
0.015375
21
-0.042502
31
0.0
0
LINE
8
0
6
CONTINUOUS
10
0.014851
20
-0.042535
30
0.0
11
0.016701
21
-0.042523
31
0.0
0
LINE
8
0
6
CONTINUOUS
10
0.013263
20
-0.042530
30
0.0
11
0.014851
21
-0.042535
31
0.0
0
LINE
8
0
6
CONTINUOUS
10
0.013525
20
-0.042514
30
0.0
11
0.015375
21
-0.042502
31
0.0
0
LINE
8
0
6
CONTINUOUS
10
0.016963
20
-0.042506
30
0.0
11
0.016956
21
-0.040477
31
0.0
0
LINE
8
0
6
CONTINUOUS
10
0.015375
20
-0.042502
30
0.0
11
0.016963
21
-0.042506
31
0.0
0
LINE
8
0
6
CONTINUOUS
10
0.072678
20
-0.037062
30
0.0
11
0.072320
21
-0.037084
31
0.0
0
LINE
8
0
6
CONTINUOUS
10
0.075206
20
-0.037045
30
0.0
11
0.072678
21
-0.037062
31
0.0
0
LINE
8
0
6
CONTINUOUS
10
0.077377
20
-0.037051
30
0.0
11
0.075211
21
-0.037045
31
0.0
0
LINE
8
0
6
CONTINUOUS
10
0.077019
20
-0.037074
30
0.0
11
0.077377
21
-0.037051
31
0.0
0
LINE
8
0
6
CONTINUOUS
10
0.074490
20
-0.037090
30
0.0
11
0.077019
21
-0.037074
31
0.0
0
LINE
8
0
6
CONTINUOUS
10
0.072320
20
-0.037084
30
0.0
11
0.074490
21
-0.037090
31
0.0
0
LINE
8
0
6
CONTINUOUS
10
0.023331
20
-0.041861
30
0.0
11
0.023035
21
-0.041879
31
0.0
0
LINE
8
0
6
CONTINUOUS
10
0.025424
20
-0.041847
30
0.0
11
0.023331
21
-0.041861
31
0.0
0
LINE
8
0
6
CONTINUOUS
10
0.027221
20
-0.041852
30
0.0
11
0.025424
21
-0.041847
31
0.0
0
LINE
8
0
6
CONTINUOUS
10
0.024831
20
-0.041884
30
0.0
11
0.026924
21
-0.041871
31
0.0
0
LINE
8
0
6
CONTINUOUS
10
0.023035
20
-0.041879
30
0.0
11
0.024831
21
-0.041884
31
0.0
0
LINE
8
0
6
CONTINUOUS
10
0.033093
20
-0.041333
30
0.0
11
0.032796
21
-0.041351
31
0.0
0
LINE
8
0
6
CONTINUOUS
10
0.035186
20
-0.041319
30
0.0
11
0.033093
21
-0.041333
31
0.0
0
LINE
8
0
6
CONTINUOUS
10
0.036983
20
-0.041324
30
0.0
11
0.035186
21
-0.041319
31
0.0
0
LINE
8
0
6
CONTINUOUS
10
0.034593
20
-0.041356
30
0.0
11
0.036686
21
-0.041342
31
0.0
0
LINE
8
0
6
CONTINUOUS
10
0.032796
20
-0.041351
30
0.0
11
0.034593
21
-0.041356
31
0.0
0
LINE
8
0
6
CONTINUOUS
10
0.042777
20
-0.040486
30
0.0
11
0.042462
21
-0.040506
31
0.0
0
LINE
8
0
6
CONTINUOUS
10
0.045007
20
-0.040471
30
0.0
11
0.042777
21
-0.040486
31
0.0
0
LINE
8
0
6
CONTINUOUS
10
0.046921
20
-0.040477
30
0.0
11
0.045007
21
-0.040471
31
0.0
0
LINE
8
0
6
CONTINUOUS
10
0.046605
20
-0.040496
30
0.0
11
0.046921
21
-0.040477
31
0.0
0
LINE
8
0
6
CONTINUOUS
10
0.044376
20
-0.040511
30
0.0
11
0.046605
21
-0.040496
31
0.0
0
LINE
8
0
6
CONTINUOUS
10
0.042462
20
-0.040506
30
0.0
11
0.044376
21
-0.040511
31
0.0
0
LINE
8
0
6
CONTINUOUS
10
0.052479
20
-0.039658
30
0.0
11
0.052121
21
-0.039680
31
0.0
0
LINE
8
0
6
CONTINUOUS
10
0.055007
20
-0.039641
30
0.0
11
0.052479
21
-0.039658
31
0.0
0
LINE
8
0
6
CONTINUOUS
10
0.057178
20
-0.039647
30
0.0
11
0.055007
21
-0.039641
31
0.0
0
LINE
8
0
6
CONTINUOUS
10
0.056820
20
-0.039669
30
0.0
11
0.057178
21
-0.039647
31
0.0
0
LINE
8
0
6
CONTINUOUS
10
0.054291
20
-0.039686
30
0.0
11
0.056820
21
-0.039669
31
0.0
0
LINE
8
0
6
CONTINUOUS
10
0.052121
20
-0.039680
30
0.0
11
0.054291
21
-0.039686
31
0.0
0
LINE
8
0
6
CONTINUOUS
10
0.062579
20
-0.038344
30
0.0
11
0.062221
21
-0.038366
31
0.0
0
LINE
8
0
6
CONTINUOUS
10
0.065108
20
-0.038327
30
0.0
11
0.062579
21
-0.038344
31
0.0
0
LINE
8
0
6
CONTINUOUS
10
0.067278
20
-0.038333
30
0.0
11
0.065108
21
-0.038327
31
0.0
0
LINE
8
0
6
CONTINUOUS
10
0.066920
20
-0.038355
30
0.0
11
0.067278
21
-0.038333
31
0.0
0
LINE
8
0
6
CONTINUOUS
10
0.064392
20
-0.038372
30
0.0
11
0.066920
21
-0.038355
31
0.0
0
LINE
8
0
6
CONTINUOUS
10
0.062221
20
-0.038366
30
0.0
11
0.064392
21
-0.038372
31
0.0
0
LINE
8
0
6
CONTINUOUS
10
0.023067
20
-0.041351
30
0.0
11
0.023118
21
-0.041333
31
0.0
0
LINE
8
0
6
CONTINUOUS
10
0.023064
20
-0.040040
30
0.0
11
0.023067
21
-0.041351
31
0.0
0
LINE
8
0
6
CONTINUOUS
10
0.015981
20
-0.041852
30
0.0
11
0.015978
21
-0.040477
31
0.0
0
LINE
8
0
6
CONTINUOUS
10
0.015975
20
-0.039369
30
0.0
11
0.015975
21
-0.039296
31
0.0
0
LINE
8
0
6
CONTINUOUS
10
0.014045
20
-0.041847
30
0.0
11
0.015981
21
-0.041852
31
0.0
0
LINE
8
0
6
CONTINUOUS
10
0.027040
20
-0.041324
30
0.0
11
0.027034
21
-0.038851
31
0.0
0
LINE
8
0
6
CONTINUOUS
10
0.025104
20
-0.041319
30
0.0
11
0.027040
21
-0.041324
31
0.0
0
LINE
8
0
6
CONTINUOUS
10
0.055324
20
-0.038354
30
0.0
11
0.055385
21
-0.038332
31
0.0
0
LINE
8
0
6
CONTINUOUS
10
0.055319
20
-0.036186
30
0.0
11
0.055324
21
-0.038354
31
0.0
0
LINE
8
0
6
CONTINUOUS
10
0.055385
20
-0.038332
30
0.0
11
0.057785
21
-0.038315
31
0.0
0
LINE
8
0
6
CONTINUOUS
10
0.037970
20
-0.040477
30
0.0
11
0.037967
21
-0.039132
31
0.0
0
LINE
8
0
6
CONTINUOUS
10
0.035907
20
-0.040471
30
0.0
11
0.037970
21
-0.040477
31
0.0
0
LINE
8
0
6
CONTINUOUS
10
0.023118
20
-0.041333
30
0.0
11
0.025104
21
-0.041319
31
0.0
0
LINE
8
0
6
CONTINUOUS
10
0.033791
20
-0.040486
30
0.0
11
0.035907
21
-0.040471
31
0.0
0
LINE
8
0
6
CONTINUOUS
10
0.049160
20
-0.039647
30
0.0
11
0.049157
21
-0.038187
31
0.0
0
LINE
8
0
6
CONTINUOUS
10
0.046821
20
-0.039641
30
0.0
11
0.049160
21
-0.039647
31
0.0
0
LINE
8
0
6
CONTINUOUS
10
0.066100
20
-0.037062
30
0.0
11
0.068499
21
-0.037045
31
0.0
0
LINE
8
0
6
CONTINUOUS
10
0.070838
20
-0.037051
30
0.0
11
0.070831
21
-0.034103
31
0.0
0
LINE
8
0
6
CONTINUOUS
10
0.068499
20
-0.037045
30
0.0
11
0.070838
21
-0.037051
31
0.0
0
LINE
8
0
6
CONTINUOUS
10
0.066039
20
-0.037084
30
0.0
11
0.066100
21
-0.037062
31
0.0
0
LINE
8
0
6
CONTINUOUS
10
0.066034
20
-0.034936
30
0.0
11
0.066039
21
-0.037084
31
0.0
0
LINE
8
0
6
CONTINUOUS
10
0.044361
20
-0.039680
30
0.0
11
0.044422
21
-0.039658
31
0.0
0
LINE
8
0
6
CONTINUOUS
10
0.044356
20
-0.037383
30
0.0
11
0.044361
21
-0.039680
31
0.0
0
LINE
8
0
6
CONTINUOUS
10
0.045094
20
-0.038320
30
0.0
11
0.047291
21
-0.038304
31
0.0
0
LINE
8
0
6
CONTINUOUS
10
0.066100
20
-0.037062
30
0.0
11
0.066039
21
-0.037084
31
0.0
0
LINE
8
0
6
CONTINUOUS
10
0.068499
20
-0.037045
30
0.0
11
0.066100
21
-0.037062
31
0.0
0
LINE
8
0
6
CONTINUOUS
10
0.070838
20
-0.037051
30
0.0
11
0.068499
21
-0.037045
31
0.0
0
LINE
8
0
6
CONTINUOUS
10
0.070778
20
-0.037074
30
0.0
11
0.070838
21
-0.037051
31
0.0
0
LINE
8
0
6
CONTINUOUS
10
0.068378
20
-0.037090
30
0.0
11
0.070778
21
-0.037074
31
0.0
0
LINE
8
0
6
CONTINUOUS
10
0.066039
20
-0.037084
30
0.0
11
0.068378
21
-0.037090
31
0.0
0
LINE
8
0
6
CONTINUOUS
10
0.012058
20
-0.041861
30
0.0
11
0.012008
21
-0.041879
31
0.0
0
LINE
8
0
6
CONTINUOUS
10
0.014045
20
-0.041847
30
0.0
11
0.012058
21
-0.041861
31
0.0
0
LINE
8
0
6
CONTINUOUS
10
0.015981
20
-0.041852
30
0.0
11
0.014045
21
-0.041847
31
0.0
0
LINE
8
0
6
CONTINUOUS
10
0.013944
20
-0.041884
30
0.0
11
0.015931
21
-0.041871
31
0.0
0
LINE
8
0
6
CONTINUOUS
10
0.012008
20
-0.041879
30
0.0
11
0.013944
21
-0.041884
31
0.0
0
LINE
8
0
6
CONTINUOUS
10
0.023118
20
-0.041333
30
0.0
11
0.023067
21
-0.041351
31
0.0
0
LINE
8
0
6
CONTINUOUS
10
0.025104
20
-0.041319
30
0.0
11
0.023118
21
-0.041333
31
0.0
0
LINE
8
0
6
CONTINUOUS
10
0.027040
20
-0.041324
30
0.0
11
0.025104
21
-0.041319
31
0.0
0
LINE
8
0
6
CONTINUOUS
10
0.025004
20
-0.041356
30
0.0
11
0.026990
21
-0.041342
31
0.0
0
LINE
8
0
6
CONTINUOUS
10
0.023067
20
-0.041351
30
0.0
11
0.025004
21
-0.041356
31
0.0
0
LINE
8
0
6
CONTINUOUS
10
0.033791
20
-0.040486
30
0.0
11
0.033738
21
-0.040506
31
0.0
0
LINE
8
0
6
CONTINUOUS
10
0.035907
20
-0.040471
30
0.0
11
0.033791
21
-0.040486
31
0.0
0
LINE
8
0
6
CONTINUOUS
10
0.037970
20
-0.040477
30
0.0
11
0.035907
21
-0.040471
31
0.0
0
LINE
8
0
6
CONTINUOUS
10
0.035800
20
-0.040511
30
0.0
11
0.037917
21
-0.040496
31
0.0
0
LINE
8
0
6
CONTINUOUS
10
0.033738
20
-0.040506
30
0.0
11
0.035800
21
-0.040511
31
0.0
0
LINE
8
0
6
CONTINUOUS
10
0.044422
20
-0.039658
30
0.0
11
0.044361
21
-0.039680
31
0.0
0
LINE
8
0
6
CONTINUOUS
10
0.046821
20
-0.039641
30
0.0
11
0.044422
21
-0.039658
31
0.0
0
LINE
8
0
6
CONTINUOUS
10
0.049160
20
-0.039647
30
0.0
11
0.046821
21
-0.039641
31
0.0
0
LINE
8
0
6
CONTINUOUS
10
0.049100
20
-0.039669
30
0.0
11
0.049160
21
-0.039647
31
0.0
0
LINE
8
0
6
CONTINUOUS
10
0.046700
20
-0.039686
30
0.0
11
0.049100
21
-0.039669
31
0.0
0
LINE
8
0
6
CONTINUOUS
10
0.044361
20
-0.039680
30
0.0
11
0.046700
21
-0.039686
31
0.0
0
LINE
8
0
6
CONTINUOUS
10
0.055385
20
-0.038332
30
0.0
11
0.055324
21
-0.038354
31
0.0
0
LINE
8
0
6
CONTINUOUS
10
0.057785
20
-0.038315
30
0.0
11
0.055385
21
-0.038332
31
0.0
0
LINE
8
0
6
CONTINUOUS
10
0.060124
20
-0.038321
30
0.0
11
0.057785
21
-0.038315
31
0.0
0
LINE
8
0
6
CONTINUOUS
10
0.060063
20
-0.038344
30
0.0
11
0.060124
21
-0.038321
31
0.0
0
LINE
8
0
6
CONTINUOUS
10
0.057663
20
-0.038360
30
0.0
11
0.060063
21
-0.038344
31
0.0
0
LINE
8
0
6
CONTINUOUS
10
0.055324
20
-0.038354
30
0.0
11
0.057663
21
-0.038360
31
0.0
0
LINE
8
0
6
CONTINUOUS
10
0.021804
20
-0.040486
30
0.0
11
0.023741
21
-0.040471
31
0.0
0
LINE
8
0
6
CONTINUOUS
10
0.021803
20
-0.040084
30
0.0
11
0.021804
21
-0.040486
31
0.0
0
LINE
8
0
6
CONTINUOUS
10
0.035488
20
-0.039641
30
0.0
11
0.037968
21
-0.039647
31
0.0
0
LINE
8
0
6
CONTINUOUS
10
0.050117
20
-0.038332
30
0.0
11
0.050113
21
-0.035568
31
0.0
0
LINE
8
0
6
CONTINUOUS
10
0.049802
20
-0.038310
30
0.0
11
0.050117
21
-0.038332
31
0.0
0
LINE
8
0
6
CONTINUOUS
10
0.056598
20
-0.037062
30
0.0
11
0.058795
21
-0.037045
31
0.0
0
LINE
8
0
6
CONTINUOUS
10
0.056595
20
-0.034407
30
0.0
11
0.056598
21
-0.037062
31
0.0
0
LINE
8
0
6
CONTINUOUS
10
0.047291
20
-0.038304
30
0.0
11
0.049802
21
-0.038310
31
0.0
0
LINE
8
0
6
CONTINUOUS
10
0.058795
20
-0.037045
30
0.0
11
0.061286
21
-0.037051
31
0.0
0
LINE
8
0
6
CONTINUOUS
10
0.061621
20
-0.037074
30
0.0
11
0.061617
21
-0.034043
31
0.0
0
LINE
8
0
6
CONTINUOUS
10
0.061306
20
-0.037051
30
0.0
11
0.061621
21
-0.037074
31
0.0
0
LINE
8
0
6
CONTINUOUS
10
0.010358
20
-0.041333
30
0.0
11
0.010308
21
-0.041351
31
0.0
0
LINE
8
0
6
CONTINUOUS
10
0.012344
20
-0.041319
30
0.0
11
0.010358
21
-0.041333
31
0.0
0
LINE
8
0
6
CONTINUOUS
10
0.014281
20
-0.041324
30
0.0
11
0.012344
21
-0.041319
31
0.0
0
LINE
8
0
6
CONTINUOUS
10
0.012244
20
-0.041356
30
0.0
11
0.014230
21
-0.041342
31
0.0
0
LINE
8
0
6
CONTINUOUS
10
0.010308
20
-0.041351
30
0.0
11
0.012244
21
-0.041356
31
0.0
0
LINE
8
0
6
CONTINUOUS
10
0.033291
20
-0.039658
30
0.0
11
0.035452
21
-0.039641
31
0.0
0
LINE
8
0
6
CONTINUOUS
10
0.033290
20
-0.038851
30
0.0
11
0.033291
21
-0.039658
31
0.0
0
LINE
8
0
6
CONTINUOUS
10
0.056598
20
-0.037062
30
0.0
11
0.056913
21
-0.037084
31
0.0
0
LINE
8
0
6
CONTINUOUS
10
0.058795
20
-0.037045
30
0.0
11
0.056598
21
-0.037062
31
0.0
0
LINE
8
0
6
CONTINUOUS
10
0.061306
20
-0.037051
30
0.0
11
0.058795
21
-0.037045
31
0.0
0
LINE
8
0
6
CONTINUOUS
10
0.061621
20
-0.037074
30
0.0
11
0.061306
21
-0.037051
31
0.0
0
LINE
8
0
6
CONTINUOUS
10
0.059424
20
-0.037090
30
0.0
11
0.061585
21
-0.037074
31
0.0
0
LINE
8
0
6
CONTINUOUS
10
0.056913
20
-0.037084
30
0.0
11
0.059424
21
-0.037090
31
0.0
0
LINE
8
0
6
CONTINUOUS
10
0.021804
20
-0.040486
30
0.0
11
0.022081
21
-0.040506
31
0.0
0
LINE
8
0
6
CONTINUOUS
10
0.023741
20
-0.040471
30
0.0
11
0.021804
21
-0.040486
31
0.0
0
LINE
8
0
6
CONTINUOUS
10
0.025955
20
-0.040477
30
0.0
11
0.023741
21
-0.040471
31
0.0
0
LINE
8
0
6
CONTINUOUS
10
0.026233
20
-0.040496
30
0.0
11
0.025955
21
-0.040477
31
0.0
0
LINE
8
0
6
CONTINUOUS
10
0.024296
20
-0.040511
30
0.0
11
0.026233
21
-0.040496
31
0.0
0
LINE
8
0
6
CONTINUOUS
10
0.022081
20
-0.040506
30
0.0
11
0.024296
21
-0.040511
31
0.0
0
LINE
8
0
6
CONTINUOUS
10
0.033291
20
-0.039658
30
0.0
11
0.033606
21
-0.039680
31
0.0
0
LINE
8
0
6
CONTINUOUS
10
0.035488
20
-0.039641
30
0.0
11
0.033291
21
-0.039658
31
0.0
0
LINE
8
0
6
CONTINUOUS
10
0.037999
20
-0.039647
30
0.0
11
0.035488
21
-0.039641
31
0.0
0
LINE
8
0
6
CONTINUOUS
10
0.038314
20
-0.039669
30
0.0
11
0.037999
21
-0.039647
31
0.0
0
LINE
8
0
6
CONTINUOUS
10
0.036117
20
-0.039686
30
0.0
11
0.038314
21
-0.039669
31
0.0
0
LINE
8
0
6
CONTINUOUS
10
0.033606
20
-0.039680
30
0.0
11
0.036117
21
-0.039686
31
0.0
0
LINE
8
0
6
CONTINUOUS
10
0.045094
20
-0.038320
30
0.0
11
0.045409
21
-0.038343
31
0.0
0
LINE
8
0
6
CONTINUOUS
10
0.047291
20
-0.038304
30
0.0
11
0.045094
21
-0.038320
31
0.0
0
LINE
8
0
6
CONTINUOUS
10
0.049802
20
-0.038310
30
0.0
11
0.047322
21
-0.038304
31
0.0
0
LINE
8
0
6
CONTINUOUS
10
0.050117
20
-0.038332
30
0.0
11
0.049802
21
-0.038310
31
0.0
0
LINE
8
0
6
CONTINUOUS
10
0.047920
20
-0.038348
30
0.0
11
0.050117
21
-0.038332
31
0.0
0
LINE
8
0
6
CONTINUOUS
10
0.045409
20
-0.038343
30
0.0
11
0.047920
21
-0.038348
31
0.0
0
LINE
8
0
6
CONTINUOUS
10
0.009718
20
-0.040472
30
0.0
11
0.011797
21
-0.040477
31
0.0
0
LINE
8
0
6
CONTINUOUS
10
0.024724
20
-0.039669
30
0.0
11
0.024721
21
-0.036979
31
0.0
0
LINE
8
0
6
CONTINUOUS
10
0.024410
20
-0.039647
30
0.0
11
0.024724
21
-0.039669
31
0.0
0
LINE
8
0
6
CONTINUOUS
10
0.044591
20
-0.037062
30
0.0
11
0.046788
21
-0.037045
31
0.0
0
LINE
8
0
6
CONTINUOUS
10
0.044587
20
-0.034238
30
0.0
11
0.044591
21
-0.037062
31
0.0
0
LINE
8
0
6
CONTINUOUS
10
0.007900
20
-0.040486
30
0.0
11
0.009718
21
-0.040472
31
0.0
0
LINE
8
0
6
CONTINUOUS
10
0.007898
20
-0.039369
30
0.0
11
0.007900
21
-0.040477
31
0.0
0
LINE
8
0
6
CONTINUOUS
10
0.034557
20
-0.038292
30
0.0
11
0.037069
21
-0.038298
31
0.0
0
LINE
8
0
6
CONTINUOUS
10
0.049614
20
-0.037074
30
0.0
11
0.049610
21
-0.033991
31
0.0
0
LINE
8
0
6
CONTINUOUS
10
0.049299
20
-0.037051
30
0.0
11
0.049614
21
-0.037074
31
0.0
0
LINE
8
0
6
CONTINUOUS
10
0.021898
20
-0.039641
30
0.0
11
0.024410
21
-0.039647
31
0.0
0
LINE
8
0
6
CONTINUOUS
10
0.037383
20
-0.038320
30
0.0
11
0.037380
21
-0.035646
31
0.0
0
LINE
8
0
6
CONTINUOUS
10
0.037069
20
-0.038298
30
0.0
11
0.037383
21
-0.038320
31
0.0
0
LINE
8
0
6
CONTINUOUS
10
0.046788
20
-0.037045
30
0.0
11
0.049299
21
-0.037051
31
0.0
0
LINE
8
0
6
CONTINUOUS
10
0.007135
20
-0.039641
30
0.0
11
0.009646
21
-0.039647
31
0.0
0
LINE
8
0
6
CONTINUOUS
10
0.030749
20
-0.037040
30
0.0
11
0.032946
21
-0.037023
31
0.0
0
LINE
8
0
6
CONTINUOUS
10
0.030746
20
-0.034219
30
0.0
11
0.030749
21
-0.037040
31
0.0
0
LINE
8
0
6
CONTINUOUS
10
0.019701
20
-0.039658
30
0.0
11
0.020016
21
-0.039680
31
0.0
0
LINE
8
0
6
CONTINUOUS
10
0.021898
20
-0.039641
30
0.0
11
0.019701
21
-0.039658
31
0.0
0
LINE
8
0
6
CONTINUOUS
10
0.024410
20
-0.039647
30
0.0
11
0.021928
21
-0.039641
31
0.0
0
LINE
8
0
6
CONTINUOUS
10
0.024724
20
-0.039669
30
0.0
11
0.024410
21
-0.039647
31
0.0
0
LINE
8
0
6
CONTINUOUS
10
0.022527
20
-0.039686
30
0.0
11
0.024724
21
-0.039669
31
0.0
0
LINE
8
0
6
CONTINUOUS
10
0.020016
20
-0.039680
30
0.0
11
0.022527
21
-0.039686
31
0.0
0
LINE
8
0
6
CONTINUOUS
10
0.007900
20
-0.040486
30
0.0
11
0.008160
21
-0.040504
31
0.0
0
LINE
8
0
6
CONTINUOUS
10
0.009718
20
-0.040472
30
0.0
11
0.007900
21
-0.040486
31
0.0
0
LINE
8
0
6
CONTINUOUS
10
0.011797
20
-0.040477
30
0.0
11
0.009718
21
-0.040472
31
0.0
0
LINE
8
0
6
CONTINUOUS
10
0.012058
20
-0.040496
30
0.0
11
0.011797
21
-0.040477
31
0.0
0
LINE
8
0
6
CONTINUOUS
10
0.010239
20
-0.040509
30
0.0
11
0.012058
21
-0.040496
31
0.0
0
LINE
8
0
6
CONTINUOUS
10
0.008160
20
-0.040504
30
0.0
11
0.010239
21
-0.040509
31
0.0
0
LINE
8
0
6
CONTINUOUS
10
0.032360
20
-0.038309
30
0.0
11
0.032675
21
-0.038331
31
0.0
0
LINE
8
0
6
CONTINUOUS
10
0.034557
20
-0.038292
30
0.0
11
0.032360
21
-0.038309
31
0.0
0
LINE
8
0
6
CONTINUOUS
10
0.037069
20
-0.038298
30
0.0
11
0.034557
21
-0.038292
31
0.0
0
LINE
8
0
6
CONTINUOUS
10
0.037383
20
-0.038320
30
0.0
11
0.037069
21
-0.038298
31
0.0
0
LINE
8
0
6
CONTINUOUS
10
0.035187
20
-0.038337
30
0.0
11
0.037383
21
-0.038320
31
0.0
0
LINE
8
0
6
CONTINUOUS
10
0.032675
20
-0.038331
30
0.0
11
0.035187
21
-0.038337
31
0.0
0
LINE
8
0
6
CONTINUOUS
10
0.044591
20
-0.037062
30
0.0
11
0.044906
21
-0.037084
31
0.0
0
LINE
8
0
6
CONTINUOUS
10
0.046788
20
-0.037045
30
0.0
11
0.044591
21
-0.037062
31
0.0
0
LINE
8
0
6
CONTINUOUS
10
0.049299
20
-0.037051
30
0.0
11
0.046788
21
-0.037045
31
0.0
0
LINE
8
0
6
CONTINUOUS
10
0.049614
20
-0.037074
30
0.0
11
0.049299
21
-0.037051
31
0.0
0
LINE
8
0
6
CONTINUOUS
10
0.047417
20
-0.037090
30
0.0
11
0.049614
21
-0.037074
31
0.0
0
LINE
8
0
6
CONTINUOUS
10
0.044906
20
-0.037084
30
0.0
11
0.047417
21
-0.037090
31
0.0
0
LINE
8
0
6
CONTINUOUS
10
0.004367
20
-0.038304
30
0.0
11
0.006878
21
-0.038310
31
0.0
0
LINE
8
0
6
CONTINUOUS
10
0.004938
20
-0.039658
30
0.0
11
0.005253
21
-0.039680
31
0.0
0
LINE
8
0
6
CONTINUOUS
10
0.007135
20
-0.039641
30
0.0
11
0.004938
21
-0.039658
31
0.0
0
LINE
8
0
6
CONTINUOUS
10
0.009646
20
-0.039647
30
0.0
11
0.007135
21
-0.039641
31
0.0
0
LINE
8
0
6
CONTINUOUS
10
0.009961
20
-0.039669
30
0.0
11
0.009646
21
-0.039647
31
0.0
0
LINE
8
0
6
CONTINUOUS
10
0.007764
20
-0.039686
30
0.0
11
0.009961
21
-0.039669
31
0.0
0
LINE
8
0
6
CONTINUOUS
10
0.005253
20
-0.039680
30
0.0
11
0.007764
21
-0.039686
31
0.0
0
LINE
8
0
6
CONTINUOUS
10
0.007193
20
-0.038332
30
0.0
11
0.007190
21
-0.035982
31
0.0
0
LINE
8
0
6
CONTINUOUS
10
0.006878
20
-0.038310
30
0.0
11
0.007193
21
-0.038332
31
0.0
0
LINE
8
0
6
CONTINUOUS
10
0.009961
20
-0.039669
30
0.0
11
0.009958
21
-0.037057
31
0.0
0
LINE
8
0
6
CONTINUOUS
10
0.009646
20
-0.039647
30
0.0
11
0.009961
21
-0.039669
31
0.0
0
LINE
8
0
6
CONTINUOUS
10
0.002170
20
-0.038320
30
0.0
11
0.004367
21
-0.038304
31
0.0
0
LINE
8
0
6
CONTINUOUS
10
0.002169
20
-0.037665
30
0.0
11
0.002170
21
-0.038320
31
0.0
0
LINE
8
0
6
CONTINUOUS
10
0.004938
20
-0.039658
30
0.0
11
0.007135
21
-0.039641
31
0.0
0
LINE
8
0
6
CONTINUOUS
10
0.004937
20
-0.038851
30
0.0
11
0.004938
21
-0.039658
31
0.0
0
LINE
8
0
6
CONTINUOUS
10
0.002170
20
-0.038320
30
0.0
11
0.002485
21
-0.038343
31
0.0
0
LINE
8
0
6
CONTINUOUS
10
0.004367
20
-0.038304
30
0.0
11
0.002170
21
-0.038320
31
0.0
0
LINE
8
0
6
CONTINUOUS
10
0.006878
20
-0.038310
30
0.0
11
0.004367
21
-0.038304
31
0.0
0
LINE
8
0
6
CONTINUOUS
10
0.007193
20
-0.038332
30
0.0
11
0.006878
21
-0.038310
31
0.0
0
LINE
8
0
6
CONTINUOUS
10
0.004996
20
-0.038348
30
0.0
11
0.007193
21
-0.038332
31
0.0
0
LINE
8
0
6
CONTINUOUS
10
0.002485
20
-0.038343
30
0.0
11
0.004996
21
-0.038348
31
0.0
0
LINE
8
0
6
CONTINUOUS
10
0.030749
20
-0.037040
30
0.0
11
0.031064
21
-0.037062
31
0.0
0
LINE
8
0
6
CONTINUOUS
10
0.032946
20
-0.037023
30
0.0
11
0.030749
21
-0.037040
31
0.0
0
LINE
8
0
6
CONTINUOUS
10
0.035457
20
-0.037029
30
0.0
11
0.032946
21
-0.037023
31
0.0
0
LINE
8
0
6
CONTINUOUS
10
0.035772
20
-0.037051
30
0.0
11
0.035457
21
-0.037029
31
0.0
0
LINE
8
0
6
CONTINUOUS
10
0.033575
20
-0.037068
30
0.0
11
0.035772
21
-0.037051
31
0.0
0
LINE
8
0
6
CONTINUOUS
10
0.031064
20
-0.037062
30
0.0
11
0.033575
21
-0.037068
31
0.0
0
LINE
8
0
6
CONTINUOUS
10
-0.001038
20
-0.037040
30
0.0
11
-0.000723
21
-0.037062
31
0.0
0
LINE
8
0
6
CONTINUOUS
10
0.001159
20
-0.037023
30
0.0
11
-0.001038
21
-0.037040
31
0.0
0
LINE
8
0
6
CONTINUOUS
10
0.003671
20
-0.037029
30
0.0
11
0.001159
21
-0.037023
31
0.0
0
LINE
8
0
6
CONTINUOUS
10
0.003985
20
-0.037051
30
0.0
11
0.003671
21
-0.037029
31
0.0
0
LINE
8
0
6
CONTINUOUS
10
0.001789
20
-0.037068
30
0.0
11
0.003985
21
-0.037051
31
0.0
0
LINE
8
0
6
CONTINUOUS
10
-0.000723
20
-0.037062
30
0.0
11
0.001789
21
-0.037068
31
0.0
0
LINE
8
0
6
CONTINUOUS
10
0.003985
20
-0.037051
30
0.0
11
0.003982
21
-0.034756
31
0.0
0
LINE
8
0
6
CONTINUOUS
10
0.003671
20
-0.037029
30
0.0
11
0.003985
21
-0.037051
31
0.0
0
LINE
8
0
6
CONTINUOUS
10
0.015224
20
-0.037040
30
0.0
11
0.017420
21
-0.037023
31
0.0
0
LINE
8
0
6
CONTINUOUS
10
0.015220
20
-0.034369
30
0.0
11
0.015224
21
-0.037040
31
0.0
0
LINE
8
0
6
CONTINUOUS
10
0.017420
20
-0.037023
30
0.0
11
0.019932
21
-0.037029
31
0.0
0
LINE
8
0
6
CONTINUOUS
10
0.015224
20
-0.037040
30
0.0
11
0.015538
21
-0.037062
31
0.0
0
LINE
8
0
6
CONTINUOUS
10
0.017420
20
-0.037023
30
0.0
11
0.015224
21
-0.037040
31
0.0
0
LINE
8
0
6
CONTINUOUS
10
0.019932
20
-0.037029
30
0.0
11
0.017420
21
-0.037023
31
0.0
0
LINE
8
0
6
CONTINUOUS
10
0.020247
20
-0.037051
30
0.0
11
0.019932
21
-0.037029
31
0.0
0
LINE
8
0
6
CONTINUOUS
10
0.018050
20
-0.037068
30
0.0
11
0.020209
21
-0.037052
31
0.0
0
LINE
8
0
6
CONTINUOUS
10
0.015538
20
-0.037062
30
0.0
11
0.018050
21
-0.037068
31
0.0
0
LINE
8
0
6
CONTINUOUS
10
0.019986
20
-0.038315
30
0.0
11
0.022498
21
-0.038321
31
0.0
0
LINE
8
0
6
CONTINUOUS
10
0.022812
20
-0.038344
30
0.0
11
0.022809
21
-0.035831
31
0.0
0
LINE
8
0
6
CONTINUOUS
10
0.022498
20
-0.038321
30
0.0
11
0.022812
21
-0.038344
31
0.0
0
LINE
8
0
6
CONTINUOUS
10
0.017789
20
-0.038332
30
0.0
11
0.019986
21
-0.038315
31
0.0
0
LINE
8
0
6
CONTINUOUS
10
0.017789
20
-0.037665
30
0.0
11
0.017789
21
-0.038332
31
0.0
0
LINE
8
0
6
CONTINUOUS
10
0.017789
20
-0.038332
30
0.0
11
0.018104
21
-0.038354
31
0.0
0
LINE
8
0
6
CONTINUOUS
10
0.019986
20
-0.038315
30
0.0
11
0.017789
21
-0.038332
31
0.0
0
LINE
8
0
6
CONTINUOUS
10
0.022498
20
-0.038321
30
0.0
11
0.019986
21
-0.038315
31
0.0
0
LINE
8
0
6
CONTINUOUS
10
0.022812
20
-0.038344
30
0.0
11
0.022498
21
-0.038321
31
0.0
0
LINE
8
0
6
CONTINUOUS
10
0.020615
20
-0.038360
30
0.0
11
0.022812
21
-0.038344
31
0.0
0
LINE
8
0
6
CONTINUOUS
10
0.018104
20
-0.038354
30
0.0
11
0.020615
21
-0.038360
31
0.0
0
LINE
8
0
6
CONTINUOUS
10
-0.017173
20
-0.042523
30
0.0
11
-0.016508
21
-0.042535
31
0.0
0
LINE
8
0
6
CONTINUOUS
10
-0.017177
20
-0.041325
30
0.0
11
-0.017173
21
-0.042523
31
0.0
0
LINE
8
0
6
CONTINUOUS
10
-0.013238
20
-0.042514
30
0.0
11
-0.013240
21
-0.041862
31
0.0
0
LINE
8
0
6
CONTINUOUS
10
-0.014540
20
-0.042530
30
0.0
11
-0.013238
21
-0.042514
31
0.0
0
LINE
8
0
6
CONTINUOUS
10
-0.016508
20
-0.042535
30
0.0
11
-0.014540
21
-0.042530
31
0.0
0
LINE
8
0
6
CONTINUOUS
10
-0.029131
20
-0.041881
30
0.0
11
-0.028165
21
-0.041879
31
0.0
0
LINE
8
0
6
CONTINUOUS
10
-0.026788
20
-0.041861
30
0.0
11
-0.026789
21
-0.041349
31
0.0
0
LINE
8
0
6
CONTINUOUS
10
-0.028165
20
-0.041879
30
0.0
11
-0.026788
21
-0.041861
31
0.0
0
LINE
8
0
6
CONTINUOUS
10
-0.022350
20
-0.042530
30
0.0
11
-0.021133
21
-0.042514
31
0.0
0
LINE
8
0
6
CONTINUOUS
10
-0.022922
20
-0.042532
30
0.0
11
-0.022350
21
-0.042530
31
0.0
0
LINE
8
0
6
CONTINUOUS
10
-0.033328
20
-0.041847
30
0.0
11
-0.033017
21
-0.041852
31
0.0
0
LINE
8
0
6
CONTINUOUS
10
-0.033307
20
-0.039454
30
0.0
11
-0.033328
21
-0.041847
31
0.0
0
LINE
8
0
6
CONTINUOUS
10
-0.038948
20
-0.041319
30
0.0
11
-0.038638
21
-0.041324
31
0.0
0
LINE
8
0
6
CONTINUOUS
10
-0.038928
20
-0.038851
30
0.0
11
-0.038948
21
-0.041319
31
0.0
0
LINE
8
0
6
CONTINUOUS
10
-0.033017
20
-0.041852
30
0.0
11
-0.030919
21
-0.041871
31
0.0
0
LINE
8
0
6
CONTINUOUS
10
-0.054257
20
-0.038333
30
0.0
11
-0.051722
21
-0.038355
31
0.0
0
LINE
8
0
6
CONTINUOUS
10
-0.054632
20
-0.038327
30
0.0
11
-0.054257
21
-0.038333
31
0.0
0
LINE
8
0
6
CONTINUOUS
10
-0.054625
20
-0.037596
30
0.0
11
-0.054632
21
-0.038327
31
0.0
0
LINE
8
0
6
CONTINUOUS
10
-0.059298
20
-0.037045
30
0.0
11
-0.058923
21
-0.037051
31
0.0
0
LINE
8
0
6
CONTINUOUS
10
-0.059272
20
-0.033933
30
0.0
11
-0.059298
21
-0.037045
31
0.0
0
LINE
8
0
6
CONTINUOUS
10
-0.058923
20
-0.037051
30
0.0
11
-0.056388
21
-0.037074
31
0.0
0
LINE
8
0
6
CONTINUOUS
10
-0.034752
20
-0.041356
30
0.0
11
-0.034735
21
-0.039364
31
0.0
0
LINE
8
0
6
CONTINUOUS
10
-0.036540
20
-0.041342
30
0.0
11
-0.034752
21
-0.041356
31
0.0
0
LINE
8
0
6
CONTINUOUS
10
-0.054228
20
-0.037090
30
0.0
11
-0.054205
21
-0.034338
31
0.0
0
LINE
8
0
6
CONTINUOUS
10
-0.056388
20
-0.037074
30
0.0
11
-0.054228
21
-0.037090
31
0.0
0
LINE
8
0
6
CONTINUOUS
10
-0.030919
20
-0.041871
30
0.0
11
-0.029131
21
-0.041884
31
0.0
0
LINE
8
0
6
CONTINUOUS
10
-0.038638
20
-0.041324
30
0.0
11
-0.036540
21
-0.041342
31
0.0
0
LINE
8
0
6
CONTINUOUS
10
-0.024502
20
-0.042523
30
0.0
11
-0.022922
21
-0.042535
31
0.0
0
LINE
8
0
6
CONTINUOUS
10
-0.026356
20
-0.042506
30
0.0
11
-0.024502
21
-0.042523
31
0.0
0
LINE
8
0
6
CONTINUOUS
10
-0.026630
20
-0.042502
30
0.0
11
-0.026356
21
-0.042506
31
0.0
0
LINE
8
0
6
CONTINUOUS
10
-0.048153
20
-0.040496
30
0.0
11
-0.046098
21
-0.040511
31
0.0
0
LINE
8
0
6
CONTINUOUS
10
-0.052231
20
-0.039686
30
0.0
11
-0.052216
21
-0.037877
31
0.0
0
LINE
8
0
6
CONTINUOUS
10
-0.054561
20
-0.039669
30
0.0
11
-0.052231
21
-0.039686
31
0.0
0
LINE
8
0
6
CONTINUOUS
10
-0.035021
20
-0.041847
30
0.0
11
-0.034956
21
-0.041852
31
0.0
0
LINE
8
0
6
CONTINUOUS
10
-0.035017
20
-0.041353
30
0.0
11
-0.035021
21
-0.041847
31
0.0
0
LINE
8
0
6
CONTINUOUS
10
-0.043284
20
-0.041319
30
0.0
11
-0.043220
21
-0.041324
31
0.0
0
LINE
8
0
6
CONTINUOUS
10
-0.034956
20
-0.041852
30
0.0
11
-0.032963
21
-0.041871
31
0.0
0
LINE
8
0
6
CONTINUOUS
10
-0.057047
20
-0.039641
30
0.0
11
-0.056969
21
-0.039647
31
0.0
0
LINE
8
0
6
CONTINUOUS
10
-0.057027
20
-0.037315
30
0.0
11
-0.057047
21
-0.039641
31
0.0
0
LINE
8
0
6
CONTINUOUS
10
-0.063303
20
-0.038321
30
0.0
11
-0.060895
21
-0.038344
31
0.0
0
LINE
8
0
6
CONTINUOUS
10
-0.056969
20
-0.039647
30
0.0
11
-0.054561
21
-0.039669
31
0.0
0
LINE
8
0
6
CONTINUOUS
10
-0.058565
20
-0.038360
30
0.0
11
-0.058555
21
-0.037137
31
0.0
0
LINE
8
0
6
CONTINUOUS
10
-0.060895
20
-0.038344
30
0.0
11
-0.058565
21
-0.038360
31
0.0
0
LINE
8
0
6
CONTINUOUS
10
-0.063380
20
-0.038315
30
0.0
11
-0.063303
21
-0.038321
31
0.0
0
LINE
8
0
6
CONTINUOUS
10
-0.063357
20
-0.035523
30
0.0
11
-0.063380
21
-0.038315
31
0.0
0
LINE
8
0
6
CONTINUOUS
10
-0.069139
20
-0.037045
30
0.0
11
-0.069062
21
-0.037051
31
0.0
0
LINE
8
0
6
CONTINUOUS
10
-0.069113
20
-0.033877
30
0.0
11
-0.069139
21
-0.037045
31
0.0
0
LINE
8
0
6
CONTINUOUS
10
-0.069062
20
-0.037051
30
0.0
11
-0.066654
21
-0.037074
31
0.0
0
LINE
8
0
6
CONTINUOUS
10
-0.039298
20
-0.041356
30
0.0
11
-0.039278
21
-0.038938
31
0.0
0
LINE
8
0
6
CONTINUOUS
10
-0.041227
20
-0.041342
30
0.0
11
-0.039298
21
-0.041356
31
0.0
0
LINE
8
0
6
CONTINUOUS
10
-0.064324
20
-0.037090
30
0.0
11
-0.064302
21
-0.034385
31
0.0
0
LINE
8
0
6
CONTINUOUS
10
-0.066654
20
-0.037074
30
0.0
11
-0.064324
21
-0.037090
31
0.0
0
LINE
8
0
6
CONTINUOUS
10
-0.032963
20
-0.041871
30
0.0
11
-0.031035
21
-0.041884
31
0.0
0
LINE
8
0
6
CONTINUOUS
10
-0.043220
20
-0.041324
30
0.0
11
-0.041227
21
-0.041342
31
0.0
0
LINE
8
0
6
CONTINUOUS
10
-0.050559
20
-0.040496
30
0.0
11
-0.048350
21
-0.040511
31
0.0
0
LINE
8
0
6
CONTINUOUS
10
-0.064127
20
-0.038343
30
0.0
11
-0.064110
21
-0.036168
31
0.0
0
LINE
8
0
6
CONTINUOUS
10
-0.064424
20
-0.038348
30
0.0
11
-0.064127
21
-0.038343
31
0.0
0
LINE
8
0
6
CONTINUOUS
10
-0.059071
20
-0.039669
30
0.0
11
-0.056566
21
-0.039686
31
0.0
0
LINE
8
0
6
CONTINUOUS
10
-0.039298
20
-0.041351
30
0.0
11
-0.038648
21
-0.041356
31
0.0
0
LINE
8
0
6
CONTINUOUS
10
-0.052505
20
-0.040477
30
0.0
11
-0.050559
21
-0.040496
31
0.0
0
LINE
8
0
6
CONTINUOUS
10
-0.061277
20
-0.039647
30
0.0
11
-0.059071
21
-0.039669
31
0.0
0
LINE
8
0
6
CONTINUOUS
10
-0.071171
20
-0.037084
30
0.0
11
-0.071153
21
-0.034812
31
0.0
0
LINE
8
0
6
CONTINUOUS
10
-0.071469
20
-0.037090
30
0.0
11
-0.071171
21
-0.037084
31
0.0
0
LINE
8
0
6
CONTINUOUS
10
-0.076180
20
-0.037051
30
0.0
11
-0.073973
21
-0.037074
31
0.0
0
LINE
8
0
6
CONTINUOUS
10
-0.076155
20
-0.033880
30
0.0
11
-0.076180
21
-0.037051
31
0.0
0
LINE
8
0
6
CONTINUOUS
10
-0.073973
20
-0.037074
30
0.0
11
-0.071469
21
-0.037090
31
0.0
0
LINE
8
0
6
CONTINUOUS
10
-0.048350
20
-0.040511
30
0.0
11
-0.048088
21
-0.040506
31
0.0
0
LINE
8
0
6
CONTINUOUS
10
-0.061267
20
-0.038338
30
0.0
11
-0.061277
21
-0.039647
31
0.0
0
LINE
8
0
6
CONTINUOUS
10
-0.075259
20
-0.037090
30
0.0
11
-0.074962
21
-0.037084
31
0.0
0
LINE
8
0
6
CONTINUOUS
10
-0.079971
20
-0.037051
30
0.0
11
-0.077764
21
-0.037074
31
0.0
0
LINE
8
0
6
CONTINUOUS
10
-0.079948
20
-0.034204
30
0.0
11
-0.079971
21
-0.037051
31
0.0
0
LINE
8
0
6
CONTINUOUS
10
-0.071248
20
-0.038298
30
0.0
11
-0.069041
21
-0.038320
31
0.0
0
LINE
8
0
6
CONTINUOUS
10
-0.077764
20
-0.037074
30
0.0
11
-0.075259
21
-0.037090
31
0.0
0
LINE
8
0
6
CONTINUOUS
10
-0.046098
20
-0.040509
30
0.0
11
-0.046002
21
-0.040509
31
0.0
0
LINE
8
0
6
CONTINUOUS
10
-0.080475
20
-0.037029
30
0.0
11
-0.079971
21
-0.037034
31
0.0
0
LINE
8
0
6
CONTINUOUS
10
-0.080455
20
-0.034431
30
0.0
11
-0.080475
21
-0.037029
31
0.0
0
LINE
8
0
6
CONTINUOUS
10
-0.064807
20
-0.038360
30
0.0
11
-0.064509
21
-0.038354
31
0.0
0
LINE
8
0
6
CONTINUOUS
10
-0.002206
20
-0.040511
30
0.0
11
-0.002192
21
-0.038851
31
0.0
0
LINE
8
0
6
CONTINUOUS
10
-0.003645
20
-0.040496
30
0.0
11
-0.002206
21
-0.040511
31
0.0
0
LINE
8
0
6
CONTINUOUS
10
-0.005023
20
-0.039686
30
0.0
11
-0.005001
21
-0.036977
31
0.0
0
LINE
8
0
6
CONTINUOUS
10
-0.006655
20
-0.039669
30
0.0
11
-0.005023
21
-0.039686
31
0.0
0
LINE
8
0
6
CONTINUOUS
10
-0.001334
20
-0.041444
30
0.0
11
-0.001337
21
-0.041847
31
0.0
0
LINE
8
0
6
CONTINUOUS
10
-0.007000
20
-0.040471
30
0.0
11
-0.006042
21
-0.040477
31
0.0
0
LINE
8
0
6
CONTINUOUS
10
-0.006991
20
-0.039369
30
0.0
11
-0.007000
21
-0.040471
31
0.0
0
LINE
8
0
6
CONTINUOUS
10
-0.000438
20
-0.041852
30
0.0
11
0.001812
21
-0.041871
31
0.0
0
LINE
8
0
6
CONTINUOUS
10
-0.010460
20
-0.039641
30
0.0
11
-0.009373
21
-0.039647
31
0.0
0
LINE
8
0
6
CONTINUOUS
10
-0.010453
20
-0.038851
30
0.0
11
-0.010460
21
-0.039641
31
0.0
0
LINE
8
0
6
CONTINUOUS
10
-0.012671
20
-0.038333
30
0.0
11
-0.009953
21
-0.038355
31
0.0
0
LINE
8
0
6
CONTINUOUS
10
-0.006042
20
-0.040477
30
0.0
11
-0.003645
21
-0.040496
31
0.0
0
LINE
8
0
6
CONTINUOUS
10
-0.009373
20
-0.039647
30
0.0
11
-0.006655
21
-0.039669
31
0.0
0
LINE
8
0
6
CONTINUOUS
10
-0.008321
20
-0.038372
30
0.0
11
-0.008301
21
-0.035921
31
0.0
0
LINE
8
0
6
CONTINUOUS
10
-0.009953
20
-0.038355
30
0.0
11
-0.008321
21
-0.038372
31
0.0
0
LINE
8
0
6
CONTINUOUS
10
-0.013758
20
-0.038327
30
0.0
11
-0.012671
21
-0.038333
31
0.0
0
LINE
8
0
6
CONTINUOUS
10
-0.013752
20
-0.037665
30
0.0
11
-0.013758
21
-0.038327
31
0.0
0
LINE
8
0
6
CONTINUOUS
10
-0.016893
20
-0.037045
30
0.0
11
-0.015806
21
-0.037051
31
0.0
0
LINE
8
0
6
CONTINUOUS
10
-0.016873
20
-0.034667
30
0.0
11
-0.016893
21
-0.037045
31
0.0
0
LINE
8
0
6
CONTINUOUS
10
-0.015806
20
-0.037051
30
0.0
11
-0.013088
21
-0.037074
31
0.0
0
LINE
8
0
6
CONTINUOUS
10
0.000454
20
-0.041356
30
0.0
11
0.000475
21
-0.038851
31
0.0
0
LINE
8
0
6
CONTINUOUS
10
-0.000897
20
-0.041342
30
0.0
11
0.000454
21
-0.041356
31
0.0
0
LINE
8
0
6
CONTINUOUS
10
0.003163
20
-0.041884
30
0.0
11
0.003175
21
-0.040477
31
0.0
0
LINE
8
0
6
CONTINUOUS
10
0.001812
20
-0.041871
30
0.0
11
0.003163
21
-0.041884
31
0.0
0
LINE
8
0
6
CONTINUOUS
10
0.002107
20
-0.042506
30
0.0
11
0.001312
21
-0.042502
31
0.0
0
LINE
8
0
6
CONTINUOUS
10
0.004096
20
-0.042523
30
0.0
11
0.002107
21
-0.042506
31
0.0
0
LINE
8
0
6
CONTINUOUS
10
0.005289
20
-0.042535
30
0.0
11
0.004096
21
-0.042523
31
0.0
0
LINE
8
0
6
CONTINUOUS
10
0.002107
20
-0.042506
30
0.0
11
0.004096
21
-0.042523
31
0.0
0
LINE
8
0
6
CONTINUOUS
10
0.001321
20
-0.041444
30
0.0
11
0.001312
21
-0.042502
31
0.0
0
LINE
8
0
6
CONTINUOUS
10
-0.015806
20
-0.037051
30
0.0
11
-0.016893
21
-0.037045
31
0.0
0
LINE
8
0
6
CONTINUOUS
10
-0.013088
20
-0.037074
30
0.0
11
-0.015806
21
-0.037051
31
0.0
0
LINE
8
0
6
CONTINUOUS
10
-0.011456
20
-0.037090
30
0.0
11
-0.013088
21
-0.037074
31
0.0
0
LINE
8
0
6
CONTINUOUS
10
-0.012543
20
-0.037084
30
0.0
11
-0.011456
21
-0.037090
31
0.0
0
LINE
8
0
6
CONTINUOUS
10
-0.000438
20
-0.041852
30
0.0
11
-0.001337
21
-0.041847
31
0.0
0
LINE
8
0
6
CONTINUOUS
10
0.001812
20
-0.041871
30
0.0
11
-0.000438
21
-0.041852
31
0.0
0
LINE
8
0
6
CONTINUOUS
10
0.003163
20
-0.041884
30
0.0
11
0.001812
21
-0.041871
31
0.0
0
LINE
8
0
6
CONTINUOUS
10
0.002264
20
-0.041879
30
0.0
11
0.003163
21
-0.041884
31
0.0
0
LINE
8
0
6
CONTINUOUS
10
-0.003147
20
-0.041324
30
0.0
11
-0.004046
21
-0.041319
31
0.0
0
LINE
8
0
6
CONTINUOUS
10
-0.000897
20
-0.041342
30
0.0
11
-0.003147
21
-0.041324
31
0.0
0
LINE
8
0
6
CONTINUOUS
10
0.000454
20
-0.041356
30
0.0
11
-0.000897
21
-0.041342
31
0.0
0
LINE
8
0
6
CONTINUOUS
10
-0.000445
20
-0.041351
30
0.0
11
0.000454
21
-0.041356
31
0.0
0
LINE
8
0
6
CONTINUOUS
10
-0.006042
20
-0.040477
30
0.0
11
-0.007000
21
-0.040471
31
0.0
0
LINE
8
0
6
CONTINUOUS
10
-0.003645
20
-0.040496
30
0.0
11
-0.006042
21
-0.040477
31
0.0
0
LINE
8
0
6
CONTINUOUS
10
-0.002206
20
-0.040511
30
0.0
11
-0.003645
21
-0.040496
31
0.0
0
LINE
8
0
6
CONTINUOUS
10
-0.003164
20
-0.040506
30
0.0
11
-0.002206
21
-0.040511
31
0.0
0
LINE
8
0
6
CONTINUOUS
10
-0.009373
20
-0.039647
30
0.0
11
-0.010460
21
-0.039641
31
0.0
0
LINE
8
0
6
CONTINUOUS
10
-0.006655
20
-0.039669
30
0.0
11
-0.009373
21
-0.039647
31
0.0
0
LINE
8
0
6
CONTINUOUS
10
-0.005023
20
-0.039686
30
0.0
11
-0.006655
21
-0.039669
31
0.0
0
LINE
8
0
6
CONTINUOUS
10
-0.006110
20
-0.039680
30
0.0
11
-0.005023
21
-0.039686
31
0.0
0
LINE
8
0
6
CONTINUOUS
10
-0.013253
20
-0.038332
30
0.0
11
-0.012126
21
-0.038344
31
0.0
0
LINE
8
0
6
CONTINUOUS
10
-0.012671
20
-0.038333
30
0.0
11
-0.013758
21
-0.038327
31
0.0
0
LINE
8
0
6
CONTINUOUS
10
-0.009953
20
-0.038355
30
0.0
11
-0.012671
21
-0.038333
31
0.0
0
LINE
8
0
6
CONTINUOUS
10
-0.008321
20
-0.038372
30
0.0
11
-0.009953
21
-0.038355
31
0.0
0
LINE
8
0
6
CONTINUOUS
10
-0.009408
20
-0.038366
30
0.0
11
-0.008321
21
-0.038372
31
0.0
0
LINE
8
0
6
CONTINUOUS
10
-0.020017
20
-0.039686
30
0.0
11
-0.019995
21
-0.037059
31
0.0
0
LINE
8
0
6
CONTINUOUS
10
-0.021760
20
-0.039669
30
0.0
11
-0.020017
21
-0.039686
31
0.0
0
LINE
8
0
6
CONTINUOUS
10
-0.018061
20
-0.040477
30
0.0
11
-0.018068
21
-0.041319
31
0.0
0
LINE
8
0
6
CONTINUOUS
10
-0.021578
20
-0.040471
30
0.0
11
-0.020735
21
-0.040477
31
0.0
0
LINE
8
0
6
CONTINUOUS
10
-0.021574
20
-0.040096
30
0.0
11
-0.021578
21
-0.040471
31
0.0
0
LINE
8
0
6
CONTINUOUS
10
-0.025414
20
-0.039641
30
0.0
11
-0.024458
21
-0.039647
31
0.0
0
LINE
8
0
6
CONTINUOUS
10
-0.025408
20
-0.038851
30
0.0
11
-0.025414
21
-0.039641
31
0.0
0
LINE
8
0
6
CONTINUOUS
10
-0.028055
20
-0.038333
30
0.0
11
-0.025356
21
-0.038355
31
0.0
0
LINE
8
0
6
CONTINUOUS
10
-0.020735
20
-0.040477
30
0.0
11
-0.018355
21
-0.040496
31
0.0
0
LINE
8
0
6
CONTINUOUS
10
-0.024458
20
-0.039647
30
0.0
11
-0.021760
21
-0.039669
31
0.0
0
LINE
8
0
6
CONTINUOUS
10
-0.023614
20
-0.038372
30
0.0
11
-0.023593
21
-0.035936
31
0.0
0
LINE
8
0
6
CONTINUOUS
10
-0.025356
20
-0.038355
30
0.0
11
-0.023614
21
-0.038372
31
0.0
0
LINE
8
0
6
CONTINUOUS
10
-0.029011
20
-0.038327
30
0.0
11
-0.028055
21
-0.038333
31
0.0
0
LINE
8
0
6
CONTINUOUS
10
-0.029005
20
-0.037665
30
0.0
11
-0.029011
21
-0.038327
31
0.0
0
LINE
8
0
6
CONTINUOUS
10
-0.032607
20
-0.037045
30
0.0
11
-0.031651
21
-0.037051
31
0.0
0
LINE
8
0
6
CONTINUOUS
10
-0.032585
20
-0.034452
30
0.0
11
-0.032607
21
-0.037045
31
0.0
0
LINE
8
0
6
CONTINUOUS
10
-0.031651
20
-0.037051
30
0.0
11
-0.028952
21
-0.037074
31
0.0
0
LINE
8
0
6
CONTINUOUS
10
-0.027210
20
-0.037090
30
0.0
11
-0.027190
21
-0.034690
31
0.0
0
LINE
8
0
6
CONTINUOUS
10
-0.028952
20
-0.037074
30
0.0
11
-0.027210
21
-0.037090
31
0.0
0
LINE
8
0
6
CONTINUOUS
10
-0.010347
20
-0.041884
30
0.0
11
-0.010336
21
-0.040477
31
0.0
0
LINE
8
0
6
CONTINUOUS
10
-0.011790
20
-0.041871
30
0.0
11
-0.010347
21
-0.041884
31
0.0
0
LINE
8
0
6
CONTINUOUS
10
-0.010978
20
-0.042506
30
0.0
11
-0.011677
21
-0.042502
31
0.0
0
LINE
8
0
6
CONTINUOUS
10
-0.009004
20
-0.042523
30
0.0
11
-0.010978
21
-0.042506
31
0.0
0
LINE
8
0
6
CONTINUOUS
10
-0.007729
20
-0.042535
30
0.0
11
-0.009004
21
-0.042523
31
0.0
0
LINE
8
0
6
CONTINUOUS
10
-0.007729
20
-0.042535
30
0.0
11
-0.007712
21
-0.040497
31
0.0
0
LINE
8
0
6
CONTINUOUS
10
-0.009004
20
-0.042523
30
0.0
11
-0.007729
21
-0.042535
31
0.0
0
LINE
8
0
6
CONTINUOUS
10
-0.010978
20
-0.042506
30
0.0
11
-0.009004
21
-0.042523
31
0.0
0
LINE
8
0
6
CONTINUOUS
10
-0.011669
20
-0.041444
30
0.0
11
-0.011677
21
-0.042502
31
0.0
0
LINE
8
0
6
CONTINUOUS
10
-0.028236
20
-0.037084
30
0.0
11
-0.028166
21
-0.037084
31
0.0
0
LINE
8
0
6
CONTINUOUS
10
-0.031651
20
-0.037051
30
0.0
11
-0.032607
21
-0.037045
31
0.0
0
LINE
8
0
6
CONTINUOUS
10
-0.028952
20
-0.037074
30
0.0
11
-0.031651
21
-0.037051
31
0.0
0
LINE
8
0
6
CONTINUOUS
10
-0.027210
20
-0.037090
30
0.0
11
-0.028952
21
-0.037074
31
0.0
0
LINE
8
0
6
CONTINUOUS
10
-0.028166
20
-0.037084
30
0.0
11
-0.027210
21
-0.037090
31
0.0
0
LINE
8
0
6
CONTINUOUS
10
-0.014024
20
-0.041852
30
0.0
11
-0.014815
21
-0.041847
31
0.0
0
LINE
8
0
6
CONTINUOUS
10
-0.011790
20
-0.041871
30
0.0
11
-0.014024
21
-0.041852
31
0.0
0
LINE
8
0
6
CONTINUOUS
10
-0.010347
20
-0.041884
30
0.0
11
-0.011790
21
-0.041871
31
0.0
0
LINE
8
0
6
CONTINUOUS
10
-0.011139
20
-0.041879
30
0.0
11
-0.010347
21
-0.041884
31
0.0
0
LINE
8
0
6
CONTINUOUS
10
-0.017277
20
-0.041324
30
0.0
11
-0.018068
21
-0.041319
31
0.0
0
LINE
8
0
6
CONTINUOUS
10
-0.015043
20
-0.041342
30
0.0
11
-0.017277
21
-0.041324
31
0.0
0
LINE
8
0
6
CONTINUOUS
10
-0.013601
20
-0.041356
30
0.0
11
-0.015043
21
-0.041342
31
0.0
0
LINE
8
0
6
CONTINUOUS
10
-0.014392
20
-0.041351
30
0.0
11
-0.013601
21
-0.041356
31
0.0
0
LINE
8
0
6
CONTINUOUS
10
-0.020735
20
-0.040477
30
0.0
11
-0.021578
21
-0.040471
31
0.0
0
LINE
8
0
6
CONTINUOUS
10
-0.018355
20
-0.040496
30
0.0
11
-0.020735
21
-0.040477
31
0.0
0
LINE
8
0
6
CONTINUOUS
10
-0.016818
20
-0.040511
30
0.0
11
-0.018355
21
-0.040496
31
0.0
0
LINE
8
0
6
CONTINUOUS
10
-0.017661
20
-0.040506
30
0.0
11
-0.016818
21
-0.040511
31
0.0
0
LINE
8
0
6
CONTINUOUS
10
-0.024458
20
-0.039647
30
0.0
11
-0.025414
21
-0.039641
31
0.0
0
LINE
8
0
6
CONTINUOUS
10
-0.021760
20
-0.039669
30
0.0
11
-0.024458
21
-0.039647
31
0.0
0
LINE
8
0
6
CONTINUOUS
10
-0.020017
20
-0.039686
30
0.0
11
-0.021760
21
-0.039669
31
0.0
0
LINE
8
0
6
CONTINUOUS
10
-0.020973
20
-0.039680
30
0.0
11
-0.020017
21
-0.039686
31
0.0
0
LINE
8
0
6
CONTINUOUS
10
-0.028055
20
-0.038333
30
0.0
11
-0.029011
21
-0.038327
31
0.0
0
LINE
8
0
6
CONTINUOUS
10
-0.025356
20
-0.038355
30
0.0
11
-0.028055
21
-0.038333
31
0.0
0
LINE
8
0
6
CONTINUOUS
10
-0.023614
20
-0.038372
30
0.0
11
-0.025350
21
-0.038355
31
0.0
0
LINE
8
0
6
CONTINUOUS
10
-0.024570
20
-0.038366
30
0.0
11
-0.023614
21
-0.038372
31
0.0
0
LINE
8
0
6
CONTINUOUS
10
-0.029739
20
-0.040511
30
0.0
11
-0.029725
21
-0.038851
31
0.0
0
LINE
8
0
6
CONTINUOUS
10
-0.031456
20
-0.040496
30
0.0
11
-0.029739
21
-0.040511
31
0.0
0
LINE
8
0
6
CONTINUOUS
10
-0.033465
20
-0.039686
30
0.0
11
-0.033443
21
-0.037177
31
0.0
0
LINE
8
0
6
CONTINUOUS
10
-0.035412
20
-0.039669
30
0.0
11
-0.033465
21
-0.039686
31
0.0
0
LINE
8
0
6
CONTINUOUS
10
-0.026237
20
-0.041847
30
0.0
11
-0.025665
21
-0.041852
31
0.0
0
LINE
8
0
6
CONTINUOUS
10
-0.030301
20
-0.041319
30
0.0
11
-0.029728
21
-0.041324
31
0.0
0
LINE
8
0
6
CONTINUOUS
10
-0.025665
20
-0.041852
30
0.0
11
-0.023480
21
-0.041871
31
0.0
0
LINE
8
0
6
CONTINUOUS
10
-0.038742
20
-0.039641
30
0.0
11
-0.038050
21
-0.039647
31
0.0
0
LINE
8
0
6
CONTINUOUS
10
-0.038735
20
-0.038851
30
0.0
11
-0.038742
21
-0.039641
31
0.0
0
LINE
8
0
6
CONTINUOUS
10
-0.038050
20
-0.039647
30
0.0
11
-0.035412
21
-0.039669
31
0.0
0
LINE
8
0
6
CONTINUOUS
10
-0.037708
20
-0.038372
30
0.0
11
-0.037687
21
-0.035871
31
0.0
0
LINE
8
0
6
CONTINUOUS
10
-0.039655
20
-0.038355
30
0.0
11
-0.037708
21
-0.038372
31
0.0
0
LINE
8
0
6
CONTINUOUS
10
-0.047014
20
-0.037045
30
0.0
11
-0.046323
21
-0.037051
31
0.0
0
LINE
8
0
6
CONTINUOUS
10
-0.046989
20
-0.034114
30
0.0
11
-0.047014
21
-0.037045
31
0.0
0
LINE
8
0
6
CONTINUOUS
10
-0.046323
20
-0.037051
30
0.0
11
-0.043684
21
-0.037074
31
0.0
0
LINE
8
0
6
CONTINUOUS
10
-0.025932
20
-0.041356
30
0.0
11
-0.025912
21
-0.038914
31
0.0
0
LINE
8
0
6
CONTINUOUS
10
-0.027544
20
-0.041342
30
0.0
11
-0.025932
21
-0.041356
31
0.0
0
LINE
8
0
6
CONTINUOUS
10
-0.029728
20
-0.041324
30
0.0
11
-0.027544
21
-0.041342
31
0.0
0
LINE
8
0
6
CONTINUOUS
10
-0.021220
20
-0.042506
30
0.0
11
-0.019290
21
-0.042523
31
0.0
0
LINE
8
0
6
CONTINUOUS
10
-0.021726
20
-0.042502
30
0.0
11
-0.021220
21
-0.042506
31
0.0
0
LINE
8
0
6
CONTINUOUS
10
-0.021709
20
-0.040477
30
0.0
11
-0.021726
21
-0.042502
31
0.0
0
LINE
8
0
6
CONTINUOUS
10
-0.046323
20
-0.037051
30
0.0
11
-0.047014
21
-0.037045
31
0.0
0
LINE
8
0
6
CONTINUOUS
10
-0.043684
20
-0.037074
30
0.0
11
-0.046323
21
-0.037051
31
0.0
0
LINE
8
0
6
CONTINUOUS
10
-0.041737
20
-0.037090
30
0.0
11
-0.043684
21
-0.037074
31
0.0
0
LINE
8
0
6
CONTINUOUS
10
-0.029728
20
-0.041324
30
0.0
11
-0.030301
21
-0.041319
31
0.0
0
LINE
8
0
6
CONTINUOUS
10
-0.027544
20
-0.041342
30
0.0
11
-0.029728
21
-0.041324
31
0.0
0
LINE
8
0
6
CONTINUOUS
10
-0.025932
20
-0.041356
30
0.0
11
-0.027544
21
-0.041342
31
0.0
0
LINE
8
0
6
CONTINUOUS
10
-0.033783
20
-0.040477
30
0.0
11
-0.034393
21
-0.040471
31
0.0
0
LINE
8
0
6
CONTINUOUS
10
-0.031456
20
-0.040496
30
0.0
11
-0.033783
21
-0.040477
31
0.0
0
LINE
8
0
6
CONTINUOUS
10
-0.029739
20
-0.040511
30
0.0
11
-0.031456
21
-0.040496
31
0.0
0
LINE
8
0
6
CONTINUOUS
10
-0.038050
20
-0.039647
30
0.0
11
-0.038742
21
-0.039641
31
0.0
0
LINE
8
0
6
CONTINUOUS
10
-0.035412
20
-0.039669
30
0.0
11
-0.038050
21
-0.039647
31
0.0
0
LINE
8
0
6
CONTINUOUS
10
-0.033465
20
-0.039686
30
0.0
11
-0.035412
21
-0.039669
31
0.0
0
LINE
8
0
6
CONTINUOUS
10
-0.042294
20
-0.038333
30
0.0
11
-0.042985
21
-0.038327
31
0.0
0
LINE
8
0
6
CONTINUOUS
10
-0.039655
20
-0.038355
30
0.0
11
-0.042294
21
-0.038333
31
0.0
0
LINE
8
0
6
CONTINUOUS
10
-0.037708
20
-0.038372
30
0.0
11
-0.039655
21
-0.038355
31
0.0
0
LINE
8
0
6
CONTINUOUS
10
-0.017712
20
-0.041444
30
0.0
11
-0.016241
21
-0.041444
31
0.0
0
LINE
8
0
6
CONTINUOUS
10
-0.016241
20
-0.041444
30
0.0
11
-0.014812
21
-0.041444
31
0.0
0
LINE
8
0
6
CONTINUOUS
10
-0.005672
20
-0.040830
30
0.0
11
-0.007715
21
-0.040830
31
0.0
0
LINE
8
0
6
CONTINUOUS
10
-0.007720
20
-0.041444
30
0.0
11
-0.005479
21
-0.041444
31
0.0
0
LINE
8
0
6
CONTINUOUS
10
-0.004042
20
-0.040830
30
0.0
11
-0.005672
21
-0.040830
31
0.0
0
LINE
8
0
6
CONTINUOUS
10
-0.005479
20
-0.041444
30
0.0
11
-0.002815
21
-0.041444
31
0.0
0
LINE
8
0
6
CONTINUOUS
10
-0.002815
20
-0.041444
30
0.0
11
-0.001334
21
-0.041444
31
0.0
0
LINE
8
0
6
CONTINUOUS
10
0.005596
20
-0.040830
30
0.0
11
0.005303
21
-0.040830
31
0.0
0
LINE
8
0
6
CONTINUOUS
10
0.005298
20
-0.041444
30
0.0
11
0.005402
21
-0.041444
31
0.0
0
LINE
8
0
6
CONTINUOUS
10
0.008213
20
-0.040830
30
0.0
11
0.005596
21
-0.040830
31
0.0
0
LINE
8
0
6
CONTINUOUS
10
0.005402
20
-0.041444
30
0.0
11
0.007928
21
-0.041444
31
0.0
0
LINE
8
0
6
CONTINUOUS
10
0.010307
20
-0.040830
30
0.0
11
0.008213
21
-0.040830
31
0.0
0
LINE
8
0
6
CONTINUOUS
10
0.007928
20
-0.041444
30
0.0
11
0.010292
21
-0.041444
31
0.0
0
LINE
8
0
6
CONTINUOUS
10
0.010292
20
-0.041444
30
0.0
11
0.012007
21
-0.041444
31
0.0
0
LINE
8
0
6
CONTINUOUS
10
0.018268
20
-0.040830
30
0.0
11
0.016822
21
-0.040830
31
0.0
0
LINE
8
0
6
CONTINUOUS
10
0.016826
20
-0.041444
30
0.0
11
0.017636
21
-0.041444
31
0.0
0
LINE
8
0
6
CONTINUOUS
10
0.019496
20
-0.040830
30
0.0
11
0.018268
21
-0.040830
31
0.0
0
LINE
8
0
6
CONTINUOUS
10
0.017636
20
-0.041444
30
0.0
11
0.018822
21
-0.041444
31
0.0
0
LINE
8
0
6
CONTINUOUS
10
0.020406
20
-0.040830
30
0.0
11
0.019496
21
-0.040830
31
0.0
0
LINE
8
0
6
CONTINUOUS
10
0.018822
20
-0.041444
30
0.0
11
0.019700
21
-0.041444
31
0.0
0
LINE
8
0
6
CONTINUOUS
10
0.020970
20
-0.040830
30
0.0
11
0.020406
21
-0.040830
31
0.0
0
LINE
8
0
6
CONTINUOUS
10
0.019700
20
-0.041444
30
0.0
11
0.020244
21
-0.041444
31
0.0
0
LINE
8
0
6
CONTINUOUS
10
0.021163
20
-0.040830
30
0.0
11
0.020970
21
-0.040830
31
0.0
0
LINE
8
0
6
CONTINUOUS
10
0.020431
20
-0.041444
30
0.0
11
0.021163
21
-0.040830
31
0.0
0
LINE
8
0
6
CONTINUOUS
10
0.020244
20
-0.041444
30
0.0
11
0.020431
21
-0.041444
31
0.0
0
LINE
8
0
6
CONTINUOUS
10
-0.052224
20
-0.038851
30
0.0
11
-0.051777
21
-0.038851
31
0.0
0
LINE
8
0
6
CONTINUOUS
10
-0.051777
20
-0.038851
30
0.0
11
-0.049574
21
-0.038851
31
0.0
0
LINE
8
0
6
CONTINUOUS
10
-0.043738
20
-0.037665
30
0.0
11
-0.044493
21
-0.037665
31
0.0
0
LINE
8
0
6
CONTINUOUS
10
-0.044503
20
-0.038851
30
0.0
11
-0.042527
21
-0.038851
31
0.0
0
LINE
8
0
6
CONTINUOUS
10
-0.042980
20
-0.037665
30
0.0
11
-0.043738
21
-0.037665
31
0.0
0
LINE
8
0
6
CONTINUOUS
10
-0.042527
20
-0.038851
30
0.0
11
-0.038735
21
-0.038851
31
0.0
0
LINE
8
0
6
CONTINUOUS
10
-0.033458
20
-0.038851
30
0.0
11
-0.032853
21
-0.038851
31
0.0
0
LINE
8
0
6
CONTINUOUS
10
-0.029005
20
-0.037665
30
0.0
11
-0.033448
21
-0.037665
31
0.0
0
LINE
8
0
6
CONTINUOUS
10
-0.032853
20
-0.038851
30
0.0
11
-0.027155
21
-0.038851
31
0.0
0
LINE
8
0
6
CONTINUOUS
10
-0.027155
20
-0.038851
30
0.0
11
-0.025408
21
-0.038851
31
0.0
0
LINE
8
0
6
CONTINUOUS
10
-0.014765
20
-0.037665
30
0.0
11
-0.020000
21
-0.037665
31
0.0
0
LINE
8
0
6
CONTINUOUS
10
-0.020010
20
-0.038851
30
0.0
11
-0.014359
21
-0.038851
31
0.0
0
LINE
8
0
6
CONTINUOUS
10
-0.013752
20
-0.037665
30
0.0
11
-0.014765
21
-0.037665
31
0.0
0
LINE
8
0
6
CONTINUOUS
10
-0.014359
20
-0.038851
30
0.0
11
-0.010453
21
-0.038851
31
0.0
0
LINE
8
0
6
CONTINUOUS
10
-0.000121
20
-0.037665
30
0.0
11
-0.005006
21
-0.037665
31
0.0
0
LINE
8
0
6
CONTINUOUS
10
-0.005016
20
-0.038851
30
0.0
11
-0.000121
21
-0.038851
31
0.0
0
LINE
8
0
6
CONTINUOUS
10
0.002169
20
-0.037665
30
0.0
11
-0.000121
21
-0.037665
31
0.0
0
LINE
8
0
6
CONTINUOUS
10
-0.000121
20
-0.038851
30
0.0
11
0.004937
21
-0.038851
31
0.0
0
LINE
8
0
6
CONTINUOUS
10
0.014522
20
-0.037665
30
0.0
11
0.009959
21
-0.037665
31
0.0
0
LINE
8
0
6
CONTINUOUS
10
0.009960
20
-0.038851
30
0.0
11
0.014117
21
-0.038851
31
0.0
0
LINE
8
0
6
CONTINUOUS
10
0.017789
20
-0.037665
30
0.0
11
0.014522
21
-0.037665
31
0.0
0
LINE
8
0
6
CONTINUOUS
10
0.014117
20
-0.038851
30
0.0
11
0.019700
21
-0.038851
31
0.0
0
LINE
8
0
6
CONTINUOUS
10
0.027686
20
-0.037665
30
0.0
11
0.024722
21
-0.037665
31
0.0
0
LINE
8
0
6
CONTINUOUS
10
0.024723
20
-0.038851
30
0.0
11
0.026913
21
-0.038851
31
0.0
0
LINE
8
0
6
CONTINUOUS
10
0.032360
20
-0.037665
30
0.0
11
0.027686
21
-0.037665
31
0.0
0
LINE
8
0
6
CONTINUOUS
10
0.026913
20
-0.038851
30
0.0
11
0.032610
21
-0.038851
31
0.0
0
LINE
8
0
6
CONTINUOUS
10
0.038838
20
-0.037665
30
0.0
11
0.038311
21
-0.037665
31
0.0
0
LINE
8
0
6
CONTINUOUS
10
0.032610
20
-0.038851
30
0.0
11
0.033290
21
-0.038851
31
0.0
0
LINE
8
0
6
CONTINUOUS
10
0.043495
20
-0.037666
30
0.0
11
0.038838
21
-0.037665
31
0.0
0
LINE
8
0
6
CONTINUOUS
10
0.038313
20
-0.038851
30
0.0
11
0.042284
21
-0.038851
31
0.0
0
LINE
8
0
6
CONTINUOUS
10
0.044356
20
-0.037666
30
0.0
11
0.043495
21
-0.037666
31
0.0
0
LINE
8
0
6
CONTINUOUS
10
0.042284
20
-0.038851
30
0.0
11
0.044359
21
-0.038851
31
0.0
0
LINE
8
0
6
CONTINUOUS
10
0.050648
20
-0.037666
30
0.0
11
0.050116
21
-0.037666
31
0.0
0
LINE
8
0
6
CONTINUOUS
10
0.049158
20
-0.038851
30
0.0
11
0.049237
21
-0.038851
31
0.0
0
LINE
8
0
6
CONTINUOUS
10
0.052114
20
-0.037665
30
0.0
11
0.050648
21
-0.037666
31
0.0
0
LINE
8
0
6
CONTINUOUS
10
0.049237
20
-0.038851
30
0.0
11
0.051534
21
-0.038851
31
0.0
0
LINE
8
0
6
CONTINUOUS
10
0.051534
20
-0.038851
30
0.0
11
0.052079
21
-0.038851
31
0.0
0
LINE
8
0
6
CONTINUOUS
10
-0.034744
20
-0.040477
30
0.0
11
-0.034224
21
-0.040477
31
0.0
0
LINE
8
0
6
CONTINUOUS
10
-0.025412
20
-0.039369
30
0.0
11
-0.025916
21
-0.039369
31
0.0
0
LINE
8
0
6
CONTINUOUS
10
-0.025925
20
-0.040477
30
0.0
11
-0.022762
21
-0.040477
31
0.0
0
LINE
8
0
6
CONTINUOUS
10
-0.022762
20
-0.040477
30
0.0
11
-0.021709
21
-0.040477
31
0.0
0
LINE
8
0
6
CONTINUOUS
10
-0.010457
20
-0.039369
30
0.0
11
-0.013584
21
-0.039369
31
0.0
0
LINE
8
0
6
CONTINUOUS
10
-0.013593
20
-0.040477
30
0.0
11
-0.010014
21
-0.040477
31
0.0
0
LINE
8
0
6
CONTINUOUS
10
-0.010014
20
-0.040477
30
0.0
11
-0.007712
21
-0.040477
31
0.0
0
LINE
8
0
6
CONTINUOUS
10
0.004959
20
-0.039369
30
0.0
11
0.000471
21
-0.039369
31
0.0
0
LINE
8
0
6
CONTINUOUS
10
0.000461
20
-0.040477
30
0.0
11
0.004811
21
-0.040477
31
0.0
0
LINE
8
0
6
CONTINUOUS
10
0.004811
20
-0.040477
30
0.0
11
0.007900
21
-0.040477
31
0.0
0
LINE
8
0
6
CONTINUOUS
10
0.014604
20
-0.039369
30
0.0
11
0.014301
21
-0.039369
31
0.0
0
LINE
8
0
6
CONTINUOUS
10
0.018996
20
-0.039369
30
0.0
11
0.014604
21
-0.039369
31
0.0
0
LINE
8
0
6
CONTINUOUS
10
0.014278
20
-0.040477
30
0.0
11
0.018437
21
-0.040477
31
0.0
0
LINE
8
0
6
CONTINUOUS
10
0.019701
20
-0.039369
30
0.0
11
0.018996
21
-0.039369
31
0.0
0
LINE
8
0
6
CONTINUOUS
10
0.018437
20
-0.040477
30
0.0
11
0.021804
21
-0.040477
31
0.0
0
LINE
8
0
6
CONTINUOUS
10
0.029909
20
-0.039369
30
0.0
11
0.027035
21
-0.039369
31
0.0
0
LINE
8
0
6
CONTINUOUS
10
0.027038
20
-0.040477
30
0.0
11
0.029032
21
-0.040477
31
0.0
0
LINE
8
0
6
CONTINUOUS
10
0.032642
20
-0.039369
30
0.0
11
0.029909
21
-0.039369
31
0.0
0
LINE
8
0
6
CONTINUOUS
10
0.029032
20
-0.040477
30
0.0
11
0.031686
21
-0.040477
31
0.0
0
LINE
8
0
6
CONTINUOUS
10
0.032790
20
-0.039369
30
0.0
11
0.032642
21
-0.039369
31
0.0
0
LINE
8
0
6
CONTINUOUS
10
0.031686
20
-0.040477
30
0.0
11
0.032794
21
-0.040477
31
0.0
0
LINE
8
0
6
CONTINUOUS
10
-0.058918
20
-0.033696
30
0.0
11
-0.059033
21
-0.033763
31
0.0
0
LINE
8
0
6
CONTINUOUS
10
-0.056190
20
-0.033969
30
0.0
11
-0.054205
21
-0.034338
31
0.0
0
LINE
8
0
6
CONTINUOUS
10
-0.056362
20
-0.033929
30
0.0
11
-0.056190
21
-0.033969
31
0.0
0
LINE
8
0
6
CONTINUOUS
10
-0.063278
20
-0.035340
30
0.0
11
-0.063354
21
-0.035513
31
0.0
0
LINE
8
0
6
CONTINUOUS
10
-0.069033
20
-0.033555
30
0.0
11
-0.069113
21
-0.033877
31
0.0
0
LINE
8
0
6
CONTINUOUS
10
-0.071432
20
-0.034598
30
0.0
11
-0.071291
21
-0.034718
31
0.0
0
LINE
8
0
6
CONTINUOUS
10
-0.071291
20
-0.034718
30
0.0
11
-0.071153
21
-0.034812
31
0.0
0
LINE
8
0
6
CONTINUOUS
10
-0.073950
20
-0.034094
30
0.0
11
-0.071449
21
-0.034582
31
0.0
0
LINE
8
0
6
CONTINUOUS
10
-0.079948
20
-0.034204
30
0.0
11
-0.077743
21
-0.034462
31
0.0
0
LINE
8
0
6
CONTINUOUS
10
0.000471
20
-0.039337
30
0.0
11
0.001834
21
-0.039306
31
0.0
0
LINE
8
0
6
CONTINUOUS
10
-0.008775
20
-0.035845
30
0.0
11
-0.008301
21
-0.035921
31
0.0
0
LINE
8
0
6
CONTINUOUS
10
-0.009930
20
-0.035626
30
0.0
11
-0.008775
21
-0.035845
31
0.0
0
LINE
8
0
6
CONTINUOUS
10
-0.025333
20
-0.035627
30
0.0
11
-0.023593
21
-0.035936
31
0.0
0
LINE
8
0
6
CONTINUOUS
10
-0.031627
20
-0.034196
30
0.0
11
-0.032585
21
-0.034452
31
0.0
0
LINE
8
0
6
CONTINUOUS
10
-0.027640
20
-0.034595
30
0.0
11
-0.027190
21
-0.034690
31
0.0
0
LINE
8
0
6
CONTINUOUS
10
-0.011768
20
-0.039313
30
0.0
11
-0.010631
21
-0.039410
31
0.0
0
LINE
8
0
6
CONTINUOUS
10
-0.046296
20
-0.033832
30
0.0
11
-0.046989
21
-0.034114
31
0.0
0
LINE
8
0
6
CONTINUOUS
10
0.032923
20
-0.038983
30
0.0
11
0.032789
21
-0.039022
31
0.0
0
LINE
8
0
6
CONTINUOUS
10
0.033085
20
-0.038905
30
0.0
11
0.032923
21
-0.038983
31
0.0
0
LINE
8
0
6
CONTINUOUS
10
0.052471
20
-0.037216
30
0.0
11
0.052256
21
-0.037332
31
0.0
0
LINE
8
0
6
CONTINUOUS
10
0.052256
20
-0.037332
30
0.0
11
0.052113
21
-0.037401
31
0.0
0
LINE
8
0
6
CONTINUOUS
10
0.055379
20
-0.035961
30
0.0
11
0.055321
21
-0.036181
31
0.0
0
LINE
8
0
6
CONTINUOUS
10
0.066094
20
-0.034718
30
0.0
11
0.066985
21
-0.034559
31
0.0
0
LINE
8
0
6
CONTINUOUS
10
0.068493
20
-0.034259
30
0.0
11
0.070831
21
-0.034103
31
0.0
0
LINE
8
0
6
CONTINUOUS
10
0.044416
20
-0.037174
30
0.0
11
0.044356
21
-0.037383
31
0.0
0
LINE
8
0
6
CONTINUOUS
10
0.049798
20
-0.035280
30
0.0
11
0.050015
21
-0.035484
31
0.0
0
LINE
8
0
6
CONTINUOUS
10
0.050015
20
-0.035484
30
0.0
11
0.050113
21
-0.035568
31
0.0
0
LINE
8
0
6
CONTINUOUS
10
0.024406
20
-0.036676
30
0.0
11
0.024684
21
-0.036945
31
0.0
0
LINE
8
0
6
CONTINUOUS
10
0.024684
20
-0.036945
30
0.0
11
0.024721
21
-0.036979
31
0.0
0
LINE
8
0
6
CONTINUOUS
10
0.049295
20
-0.033592
30
0.0
11
0.049610
21
-0.033991
31
0.0
0
LINE
8
0
6
CONTINUOUS
10
0.037065
20
-0.035348
30
0.0
11
0.037380
21
-0.035646
31
0.0
0
LINE
8
0
6
CONTINUOUS
10
0.007191
20
-0.036663
30
0.0
11
0.009643
21
-0.036751
31
0.0
0
LINE
8
0
6
CONTINUOUS
10
0.007050
20
-0.035848
30
0.0
11
0.007190
21
-0.035982
31
0.0
0
LINE
8
0
6
CONTINUOUS
10
0.006875
20
-0.035642
30
0.0
11
0.007050
21
-0.035848
31
0.0
0
LINE
8
0
6
CONTINUOUS
10
0.003667
20
-0.034386
30
0.0
11
0.003982
21
-0.034756
31
0.0
0
LINE
8
0
6
CONTINUOUS
10
0.020245
20
-0.035491
30
0.0
11
0.022494
21
-0.035505
31
0.0
0
LINE
8
0
6
CONTINUOUS
10
0.022569
20
-0.035599
30
0.0
11
0.022809
21
-0.035831
31
0.0
0
LINE
8
0
6
CONTINUOUS
10
0.022494
20
-0.035505
30
0.0
11
0.022569
21
-0.035599
31
0.0
0
LINE
8
0
6
CONTINUOUS
10
0.078510
20
-0.034623
30
0.0
11
0.080468
21
-0.034387
31
0.0
0
LINE
8
0
6
CONTINUOUS
10
0.062572
20
-0.036076
30
0.0
11
0.062214
21
-0.036249
31
0.0
0
LINE
8
0
6
CONTINUOUS
10
0.075198
20
-0.034513
30
0.0
11
0.077368
21
-0.034323
31
0.0
0
LINE
8
0
6
CONTINUOUS
10
0.072671
20
-0.034889
30
0.0
11
0.072313
21
-0.035075
31
0.0
0
LINE
8
0
6
CONTINUOUS
10
0.037996
20
-0.036667
30
0.0
11
0.038311
21
-0.036952
31
0.0
0
LINE
8
0
6
CONTINUOUS
10
0.019928
20
-0.034071
30
0.0
11
0.020243
21
-0.034454
31
0.0
0
LINE
8
0
6
CONTINUOUS
10
-0.049180
20
-0.036665
30
0.0
11
-0.049557
21
-0.036836
31
0.0
0
LINE
8
0
6
CONTINUOUS
10
-0.051697
20
-0.035399
30
0.0
11
-0.049549
21
-0.035862
31
0.0
0
LINE
8
0
6
CONTINUOUS
10
-0.013583
20
-0.039285
30
0.0
11
-0.012258
21
-0.039316
31
0.0
0
ENDSEC
0
EOF
