999
unknown String-ID: 20550
0
SECTION
2
HEADER
9
$ACADVER
1
AC1009
9
$DWGCODEPAGE
3
unknown String-ID: 20561
0
ENDSEC
0
SECTION
2
TABLES
0
TABLE
2
LAYER
70
1
0
LAYER
2
0
70
0
62
7
6
CONTINUOUS
0
ENDTAB
0
ENDSEC
0
SECTION
2
ENTITIES
0
LINE
8
0
6
CONTINUOUS
10
0.076852
20
0.207559
30
0.0
11
0.076066
21
0.208547
31
0.0
0
LINE
8
0
6
CONTINUOUS
10
-0.004507
20
0.138507
30
0.0
11
-0.006040
21
0.135060
31
0.0
0
LINE
8
0
6
CONTINUOUS
10
0.059512
20
0.213751
30
0.0
11
0.056270
21
0.209762
31
0.0
0
LINE
8
0
6
CONTINUOUS
10
0.063618
20
0.218688
30
0.0
11
0.063145
21
0.218348
31
0.0
0
LINE
8
0
6
CONTINUOUS
10
0.056270
20
0.209762
30
0.0
11
0.052247
21
0.204738
31
0.0
0
LINE
8
0
6
CONTINUOUS
10
-0.020501
20
0.003201
30
0.0
11
-0.016338
21
0.018449
31
0.0
0
LINE
8
0
6
CONTINUOUS
10
-0.039353
20
0.024295
30
0.0
11
-0.043671
21
0.008960
31
0.0
0
LINE
8
0
6
CONTINUOUS
10
-0.029677
20
0.057807
30
0.0
11
-0.039353
21
0.024295
31
0.0
0
LINE
8
0
6
CONTINUOUS
10
-0.006991
20
0.052027
30
0.0
11
0.000802
21
0.077911
31
0.0
0
LINE
8
0
6
CONTINUOUS
10
0.000802
20
0.077911
30
0.0
11
0.005496
21
0.097369
31
0.0
0
LINE
8
0
6
CONTINUOUS
10
-0.022275
20
0.083544
30
0.0
11
-0.029677
21
0.057807
31
0.0
0
LINE
8
0
6
CONTINUOUS
10
-0.016153
20
0.104732
30
0.0
11
-0.022275
21
0.083544
31
0.0
0
LINE
8
0
6
CONTINUOUS
10
-0.012855
20
0.115762
30
0.0
11
-0.016153
21
0.104732
31
0.0
0
LINE
8
0
6
CONTINUOUS
10
-0.010426
20
0.123371
30
0.0
11
-0.012855
21
0.115762
31
0.0
0
LINE
8
0
6
CONTINUOUS
10
-0.008930
20
0.127710
30
0.0
11
-0.010426
21
0.123371
31
0.0
0
LINE
8
0
6
CONTINUOUS
10
-0.006040
20
0.135060
30
0.0
11
-0.007410
21
0.131655
31
0.0
0
LINE
8
0
6
CONTINUOUS
10
0.065288
20
0.218685
30
0.0
11
0.063618
21
0.218688
31
0.0
0
LINE
8
0
6
CONTINUOUS
10
0.065903
20
0.218121
30
0.0
11
0.065288
21
0.218685
31
0.0
0
LINE
8
0
6
CONTINUOUS
10
0.075943
20
0.208670
30
0.0
11
0.072606
21
0.211977
31
0.0
0
LINE
8
0
6
CONTINUOUS
10
-0.007410
20
0.131655
30
0.0
11
-0.008930
21
0.127710
31
0.0
0
LINE
8
0
6
CONTINUOUS
10
-0.016338
20
0.018449
30
0.0
11
-0.006991
21
0.052027
31
0.0
0
LINE
8
0
6
CONTINUOUS
10
-0.002570
20
0.142557
30
0.0
11
-0.004507
21
0.138507
31
0.0
0
LINE
8
0
6
CONTINUOUS
10
-0.000516
20
0.146664
30
0.0
11
-0.002570
21
0.142557
31
0.0
0
LINE
8
0
6
CONTINUOUS
10
0.006653
20
0.158663
30
0.0
11
0.004815
21
0.155751
31
0.0
0
LINE
8
0
6
CONTINUOUS
10
0.002976
20
0.152840
30
0.0
11
0.001230
21
0.149752
31
0.0
0
LINE
8
0
6
CONTINUOUS
10
0.017558
20
0.173740
30
0.0
11
0.006653
21
0.158663
31
0.0
0
LINE
8
0
6
CONTINUOUS
10
0.030415
20
0.188947
30
0.0
11
0.023987
21
0.181343
31
0.0
0
LINE
8
0
6
CONTINUOUS
10
0.044814
20
0.203319
30
0.0
11
0.037615
21
0.196133
31
0.0
0
LINE
8
0
6
CONTINUOUS
10
0.056164
20
0.213040
30
0.0
11
0.050489
21
0.208179
31
0.0
0
LINE
8
0
6
CONTINUOUS
10
0.021634
20
0.138904
30
0.0
11
0.024539
21
0.142448
31
0.0
0
LINE
8
0
6
CONTINUOUS
10
0.063145
20
0.218348
30
0.0
11
0.056164
21
0.213040
31
0.0
0
LINE
8
0
6
CONTINUOUS
10
0.018037
20
0.134028
30
0.0
11
0.019538
21
0.136108
31
0.0
0
LINE
8
0
6
CONTINUOUS
10
0.074493
20
0.204349
30
0.0
11
0.076097
21
0.206300
31
0.0
0
LINE
8
0
6
CONTINUOUS
10
0.015313
20
0.129923
30
0.0
11
0.018037
21
0.134028
31
0.0
0
LINE
8
0
6
CONTINUOUS
10
0.028265
20
0.146985
30
0.0
11
0.033803
21
0.153945
31
0.0
0
LINE
8
0
6
CONTINUOUS
10
0.072606
20
0.211977
30
0.0
11
0.065903
21
0.218121
31
0.0
0
LINE
8
0
6
CONTINUOUS
10
0.076066
20
0.208547
30
0.0
11
0.075943
21
0.208670
31
0.0
0
LINE
8
0
6
CONTINUOUS
10
-0.020923
20
0.002834
30
0.0
11
-0.020537
21
0.003062
31
0.0
0
LINE
8
0
6
CONTINUOUS
10
-0.036803
20
0.006782
30
0.0
11
-0.032621
21
0.005742
31
0.0
0
LINE
8
0
6
CONTINUOUS
10
-0.037720
20
0.007010
30
0.0
11
-0.037382
21
0.006926
31
0.0
0
LINE
8
0
6
CONTINUOUS
10
-0.037382
20
0.006926
30
0.0
11
-0.036803
21
0.006782
31
0.0
0
LINE
8
0
6
CONTINUOUS
10
-0.040162
20
0.007617
30
0.0
11
-0.037720
21
0.007010
31
0.0
0
LINE
8
0
6
CONTINUOUS
10
-0.043709
20
0.008822
30
0.0
11
-0.043486
21
0.008443
31
0.0
0
LINE
8
0
6
CONTINUOUS
10
-0.020537
20
0.003062
30
0.0
11
-0.020501
21
0.003201
31
0.0
0
LINE
8
0
6
CONTINUOUS
10
-0.043671
20
0.008960
30
0.0
11
-0.043709
21
0.008822
31
0.0
0
LINE
8
0
6
CONTINUOUS
10
0.005730
20
0.100922
30
0.0
11
0.005409
21
0.103037
31
0.0
0
LINE
8
0
6
CONTINUOUS
10
0.006074
20
0.100000
30
0.0
11
0.005730
21
0.100922
31
0.0
0
LINE
8
0
6
CONTINUOUS
10
0.006132
20
0.099724
30
0.0
11
0.006074
21
0.100000
31
0.0
0
LINE
8
0
6
CONTINUOUS
10
0.005496
20
0.097369
30
0.0
11
0.006132
21
0.099724
31
0.0
0
LINE
8
0
6
CONTINUOUS
10
0.005409
20
0.103037
30
0.0
11
0.007696
21
0.112296
31
0.0
0
LINE
8
0
6
CONTINUOUS
10
0.007696
20
0.112296
30
0.0
11
0.011582
21
0.121123
31
0.0
0
LINE
8
0
6
CONTINUOUS
10
0.013395
20
0.126508
30
0.0
11
0.015313
21
0.129923
31
0.0
0
LINE
8
0
6
CONTINUOUS
10
0.069779
20
0.198292
30
0.0
11
0.072418
21
0.201536
31
0.0
0
LINE
8
0
6
CONTINUOUS
10
0.072418
20
0.201536
30
0.0
11
0.074493
21
0.204349
31
0.0
0
LINE
8
0
6
CONTINUOUS
10
0.076597
20
0.206887
30
0.0
11
0.076852
21
0.207559
31
0.0
0
LINE
8
0
6
CONTINUOUS
10
0.076097
20
0.206300
30
0.0
11
0.076597
21
0.206887
31
0.0
0
LINE
8
0
6
CONTINUOUS
10
0.046028
20
0.168861
30
0.0
11
0.051455
21
0.175481
31
0.0
0
LINE
8
0
6
CONTINUOUS
10
0.066046
20
0.193689
30
0.0
11
0.069779
21
0.198292
31
0.0
0
LINE
8
0
6
CONTINUOUS
10
0.061333
20
0.187736
30
0.0
11
0.066046
21
0.193689
31
0.0
0
LINE
8
0
6
CONTINUOUS
10
0.033803
20
0.153945
30
0.0
11
0.040099
21
0.161624
31
0.0
0
LINE
8
0
6
CONTINUOUS
10
0.013295
20
0.125043
30
0.0
11
0.013395
21
0.126508
31
0.0
0
LINE
8
0
6
CONTINUOUS
10
0.011582
20
0.121123
30
0.0
11
0.013284
21
0.124896
31
0.0
0
LINE
8
0
6
CONTINUOUS
10
0.013284
20
0.124896
30
0.0
11
0.013295
21
0.125043
31
0.0
0
LINE
8
0
6
CONTINUOUS
10
0.004815
20
0.155751
30
0.0
11
0.002976
21
0.152840
31
0.0
0
LINE
8
0
6
CONTINUOUS
10
0.024539
20
0.142448
30
0.0
11
0.028265
21
0.146985
31
0.0
0
LINE
8
0
6
CONTINUOUS
10
0.001230
20
0.149752
30
0.0
11
-0.000516
21
0.146664
31
0.0
0
LINE
8
0
6
CONTINUOUS
10
0.019538
20
0.136108
30
0.0
11
0.021634
21
0.138904
31
0.0
0
LINE
8
0
6
CONTINUOUS
10
0.023987
20
0.181343
30
0.0
11
0.017558
21
0.173740
31
0.0
0
LINE
8
0
6
CONTINUOUS
10
0.040102
20
0.161628
30
0.0
11
0.046028
21
0.168861
31
0.0
0
LINE
8
0
6
CONTINUOUS
10
0.050489
20
0.208179
30
0.0
11
0.044814
21
0.203319
31
0.0
0
LINE
8
0
6
CONTINUOUS
10
0.056620
20
0.181784
30
0.0
11
0.061333
21
0.187736
31
0.0
0
LINE
8
0
6
CONTINUOUS
10
0.037615
20
0.196133
30
0.0
11
0.030415
21
0.188947
31
0.0
0
LINE
8
0
6
CONTINUOUS
10
0.051455
20
0.175481
30
0.0
11
0.056620
21
0.181784
31
0.0
0
LINE
8
0
6
CONTINUOUS
10
-0.044086
20
0.006430
30
0.0
11
-0.045570
21
-0.001308
31
0.0
0
LINE
8
0
6
CONTINUOUS
10
-0.029568
20
-0.026041
30
0.0
11
-0.021336
21
0.000775
31
0.0
0
LINE
8
0
6
CONTINUOUS
10
-0.043580
20
0.008466
30
0.0
11
-0.043602
21
0.008376
31
0.0
0
LINE
8
0
6
CONTINUOUS
10
-0.043192
20
0.008370
30
0.0
11
-0.043580
21
0.008466
31
0.0
0
LINE
8
0
6
CONTINUOUS
10
-0.022354
20
0.003190
30
0.0
11
-0.024162
21
0.003639
31
0.0
0
LINE
8
0
6
CONTINUOUS
10
-0.021218
20
0.002907
30
0.0
11
-0.022354
21
0.003190
31
0.0
0
LINE
8
0
6
CONTINUOUS
10
-0.029261
20
0.004907
30
0.0
11
-0.032205
21
0.005639
31
0.0
0
LINE
8
0
6
CONTINUOUS
10
-0.020853
20
0.002721
30
0.0
11
-0.020830
21
0.002811
31
0.0
0
LINE
8
0
6
CONTINUOUS
10
-0.043602
20
0.008376
30
0.0
11
-0.044086
21
0.006430
31
0.0
0
LINE
8
0
6
CONTINUOUS
10
-0.021336
20
0.000775
30
0.0
11
-0.020853
21
0.002721
31
0.0
0
LINE
8
0
6
CONTINUOUS
10
-0.029713
20
-0.026511
30
0.0
11
-0.029568
21
-0.026041
31
0.0
0
LINE
8
0
6
CONTINUOUS
10
0.018037
20
0.134028
30
0.0
11
0.015313
21
0.129923
31
0.0
0
LINE
8
0
6
CONTINUOUS
10
0.076097
20
0.206300
30
0.0
11
0.074493
21
0.204349
31
0.0
0
LINE
8
0
6
CONTINUOUS
10
0.025021
20
0.134376
30
0.0
11
0.025577
21
0.134875
31
0.0
0
LINE
8
0
6
CONTINUOUS
10
0.017038
20
0.127150
30
0.0
11
0.017898
21
0.127502
31
0.0
0
LINE
8
0
6
CONTINUOUS
10
0.013395
20
0.126508
30
0.0
11
0.013295
21
0.125043
31
0.0
0
LINE
8
0
6
CONTINUOUS
10
0.015313
20
0.129923
30
0.0
11
0.013395
21
0.126508
31
0.0
0
LINE
8
0
6
CONTINUOUS
10
0.061333
20
0.187736
30
0.0
11
0.056620
21
0.181784
31
0.0
0
LINE
8
0
6
CONTINUOUS
10
0.072418
20
0.201536
30
0.0
11
0.069779
21
0.198292
31
0.0
0
LINE
8
0
6
CONTINUOUS
10
0.069779
20
0.198292
30
0.0
11
0.066046
21
0.193689
31
0.0
0
LINE
8
0
6
CONTINUOUS
10
0.074493
20
0.204349
30
0.0
11
0.072418
21
0.201536
31
0.0
0
LINE
8
0
6
CONTINUOUS
10
0.063617
20
0.180600
30
0.0
11
0.064065
21
0.181428
31
0.0
0
LINE
8
0
6
CONTINUOUS
10
0.076597
20
0.206887
30
0.0
11
0.076097
21
0.206300
31
0.0
0
LINE
8
0
6
CONTINUOUS
10
0.074101
20
0.201078
30
0.0
11
0.076597
21
0.206887
31
0.0
0
LINE
8
0
6
CONTINUOUS
10
0.048230
20
0.171546
30
0.0
11
0.046028
21
0.168861
31
0.0
0
LINE
8
0
6
CONTINUOUS
10
0.038231
20
0.159346
30
0.0
11
0.033803
21
0.153945
31
0.0
0
LINE
8
0
6
CONTINUOUS
10
0.045119
20
0.154930
30
0.0
11
0.048288
21
0.158887
31
0.0
0
LINE
8
0
6
CONTINUOUS
10
0.033803
20
0.153945
30
0.0
11
0.028265
21
0.146985
31
0.0
0
LINE
8
0
6
CONTINUOUS
10
0.039814
20
0.149185
30
0.0
11
0.041770
21
0.151208
31
0.0
0
LINE
8
0
6
CONTINUOUS
10
0.024067
20
0.141873
30
0.0
11
0.021634
21
0.138904
31
0.0
0
LINE
8
0
6
CONTINUOUS
10
0.030095
20
0.139210
30
0.0
11
0.031422
21
0.140561
31
0.0
0
LINE
8
0
6
CONTINUOUS
10
0.020808
20
0.137803
30
0.0
11
0.019538
21
0.136108
31
0.0
0
LINE
8
0
6
CONTINUOUS
10
0.018217
20
0.127810
30
0.0
11
0.021909
21
0.131518
31
0.0
0
LINE
8
0
6
CONTINUOUS
10
0.017898
20
0.127502
30
0.0
11
0.017973
21
0.127547
31
0.0
0
LINE
8
0
6
CONTINUOUS
10
0.017973
20
0.127547
30
0.0
11
0.018217
21
0.127810
31
0.0
0
LINE
8
0
6
CONTINUOUS
10
0.013284
20
0.124896
30
0.0
11
0.017038
21
0.127150
31
0.0
0
LINE
8
0
6
CONTINUOUS
10
0.013295
20
0.125043
30
0.0
11
0.013284
21
0.124896
31
0.0
0
LINE
8
0
6
CONTINUOUS
10
0.027924
20
0.146570
30
0.0
11
0.024539
21
0.142448
31
0.0
0
LINE
8
0
6
CONTINUOUS
10
0.019260
20
0.135723
30
0.0
11
0.018037
21
0.134028
31
0.0
0
LINE
8
0
6
CONTINUOUS
10
0.025577
20
0.134875
30
0.0
11
0.025792
21
0.135081
31
0.0
0
LINE
8
0
6
CONTINUOUS
10
0.044716
20
0.167260
30
0.0
11
0.040102
21
0.161628
31
0.0
0
LINE
8
0
6
CONTINUOUS
10
0.052979
20
0.164743
30
0.0
11
0.054136
21
0.166188
31
0.0
0
LINE
8
0
6
CONTINUOUS
10
0.066046
20
0.193689
30
0.0
11
0.061333
21
0.187736
31
0.0
0
LINE
8
0
6
CONTINUOUS
10
0.068257
20
0.189170
30
0.0
11
0.068630
21
0.189859
31
0.0
0
LINE
8
0
6
CONTINUOUS
10
0.070560
20
0.193424
30
0.0
11
0.071370
21
0.194921
31
0.0
0
LINE
8
0
6
CONTINUOUS
10
0.052986
20
0.177349
30
0.0
11
0.051455
21
0.175481
31
0.0
0
LINE
8
0
6
CONTINUOUS
10
0.060824
20
0.176330
30
0.0
11
0.061438
21
0.177269
31
0.0
0
LINE
8
0
6
CONTINUOUS
10
0.063512
20
0.180439
30
0.0
11
0.063617
21
0.180600
31
0.0
0
LINE
8
0
6
CONTINUOUS
10
0.013335
20
0.124692
30
0.0
11
0.016777
21
0.126753
31
0.0
0
LINE
8
0
6
CONTINUOUS
10
0.011621
20
0.120935
30
0.0
11
0.013335
21
0.124692
31
0.0
0
LINE
8
0
6
CONTINUOUS
10
0.017641
20
0.127105
30
0.0
11
0.017719
21
0.127147
31
0.0
0
LINE
8
0
6
CONTINUOUS
10
0.005607
20
0.103297
30
0.0
11
0.007804
21
0.112190
31
0.0
0
LINE
8
0
6
CONTINUOUS
10
0.007804
20
0.112190
30
0.0
11
0.011621
21
0.120935
31
0.0
0
LINE
8
0
6
CONTINUOUS
10
0.006203
20
0.100470
30
0.0
11
0.005886
21
0.101486
31
0.0
0
LINE
8
0
6
CONTINUOUS
10
0.005886
20
0.101486
30
0.0
11
0.005607
21
0.103297
31
0.0
0
LINE
8
0
6
CONTINUOUS
10
0.006256
20
0.100183
30
0.0
11
0.006203
21
0.100470
31
0.0
0
LINE
8
0
6
CONTINUOUS
10
0.016777
20
0.126753
30
0.0
11
0.017641
21
0.127105
31
0.0
0
LINE
8
0
6
CONTINUOUS
10
0.006203
20
0.100470
30
0.0
11
0.006256
21
0.100183
31
0.0
0
LINE
8
0
6
CONTINUOUS
10
0.006256
20
0.100183
30
0.0
11
0.009073
21
0.110615
31
0.0
0
LINE
8
0
6
CONTINUOUS
10
0.005886
20
0.101486
30
0.0
11
0.006203
21
0.100470
31
0.0
0
LINE
8
0
6
CONTINUOUS
10
0.011621
20
0.120935
30
0.0
11
0.007804
21
0.112190
31
0.0
0
LINE
8
0
6
CONTINUOUS
10
0.009073
20
0.110615
30
0.0
11
0.011905
21
0.117991
31
0.0
0
LINE
8
0
6
CONTINUOUS
10
0.016777
20
0.126753
30
0.0
11
0.013335
21
0.124692
31
0.0
0
LINE
8
0
6
CONTINUOUS
10
0.013335
20
0.124692
30
0.0
11
0.011621
21
0.120935
31
0.0
0
LINE
8
0
6
CONTINUOUS
10
0.005607
20
0.103297
30
0.0
11
0.005886
21
0.101486
31
0.0
0
LINE
8
0
6
CONTINUOUS
10
0.007804
20
0.112190
30
0.0
11
0.005607
21
0.103297
31
0.0
0
LINE
8
0
6
CONTINUOUS
10
0.017641
20
0.127105
30
0.0
11
0.016777
21
0.126753
31
0.0
0
LINE
8
0
6
CONTINUOUS
10
0.017719
20
0.127147
30
0.0
11
0.017641
21
0.127105
31
0.0
0
LINE
8
0
6
CONTINUOUS
10
0.011905
20
0.117991
30
0.0
11
0.017719
21
0.127147
31
0.0
0
LINE
8
0
6
CONTINUOUS
10
0.035619
20
0.144904
30
0.0
11
0.036312
21
0.144975
31
0.0
0
LINE
8
0
6
CONTINUOUS
10
0.036312
20
0.144975
30
0.0
11
0.036430
21
0.145120
31
0.0
0
LINE
8
0
6
CONTINUOUS
10
0.035924
20
0.145470
30
0.0
11
0.035570
21
0.145035
31
0.0
0
LINE
8
0
6
CONTINUOUS
10
0.036430
20
0.145120
30
0.0
11
0.036774
21
0.145542
31
0.0
0
LINE
8
0
6
CONTINUOUS
10
0.036494
20
0.146172
30
0.0
11
0.035924
21
0.145470
31
0.0
0
LINE
8
0
6
CONTINUOUS
10
0.036774
20
0.145542
30
0.0
11
0.037327
21
0.146223
31
0.0
0
LINE
8
0
6
CONTINUOUS
10
0.039345
20
0.149678
30
0.0
11
0.039311
21
0.149636
31
0.0
0
LINE
8
0
6
CONTINUOUS
10
0.039767
20
0.149223
30
0.0
11
0.040096
21
0.149627
31
0.0
0
LINE
8
0
6
CONTINUOUS
10
0.040623
20
0.151248
30
0.0
11
0.039345
21
0.149678
31
0.0
0
LINE
8
0
6
CONTINUOUS
10
0.040096
20
0.149627
30
0.0
11
0.041336
21
0.151152
31
0.0
0
LINE
8
0
6
CONTINUOUS
10
0.042038
20
0.152988
30
0.0
11
0.040623
21
0.151248
31
0.0
0
LINE
8
0
6
CONTINUOUS
10
0.041336
20
0.151152
30
0.0
11
0.042710
21
0.152841
31
0.0
0
LINE
8
0
6
CONTINUOUS
10
0.043536
20
0.154829
30
0.0
11
0.042038
21
0.152988
31
0.0
0
LINE
8
0
6
CONTINUOUS
10
0.042710
20
0.152841
30
0.0
11
0.044201
21
0.154675
31
0.0
0
LINE
8
0
6
CONTINUOUS
10
0.044201
20
0.154675
30
0.0
11
0.045795
21
0.156634
31
0.0
0
LINE
8
0
6
CONTINUOUS
10
0.046948
20
0.159024
30
0.0
11
0.046174
21
0.158073
31
0.0
0
LINE
8
0
6
CONTINUOUS
10
0.045795
20
0.156634
30
0.0
11
0.047476
21
0.158700
31
0.0
0
LINE
8
0
6
CONTINUOUS
10
0.048752
20
0.161242
30
0.0
11
0.046948
21
0.159024
31
0.0
0
LINE
8
0
6
CONTINUOUS
10
0.047476
20
0.158700
30
0.0
11
0.049228
21
0.160855
31
0.0
0
LINE
8
0
6
CONTINUOUS
10
0.050556
20
0.163460
30
0.0
11
0.048752
21
0.161242
31
0.0
0
LINE
8
0
6
CONTINUOUS
10
0.049228
20
0.160855
30
0.0
11
0.050980
21
0.163009
31
0.0
0
LINE
8
0
6
CONTINUOUS
10
0.051530
20
0.164658
30
0.0
11
0.050556
21
0.163460
31
0.0
0
LINE
8
0
6
CONTINUOUS
10
0.050980
20
0.163009
30
0.0
11
0.052661
21
0.165075
31
0.0
0
LINE
8
0
6
CONTINUOUS
10
0.052661
20
0.165075
30
0.0
11
0.054255
21
0.167035
31
0.0
0
LINE
8
0
6
CONTINUOUS
10
0.055466
20
0.169496
30
0.0
11
0.054207
21
0.167948
31
0.0
0
LINE
8
0
6
CONTINUOUS
10
0.054255
20
0.167035
30
0.0
11
0.055747
21
0.168868
31
0.0
0
LINE
8
0
6
CONTINUOUS
10
0.056881
20
0.171236
30
0.0
11
0.055466
21
0.169496
31
0.0
0
LINE
8
0
6
CONTINUOUS
10
0.055747
20
0.168868
30
0.0
11
0.057120
21
0.170557
31
0.0
0
LINE
8
0
6
CONTINUOUS
10
0.058047
20
0.172670
30
0.0
11
0.056881
21
0.171236
31
0.0
0
LINE
8
0
6
CONTINUOUS
10
0.057120
20
0.170557
30
0.0
11
0.058361
21
0.172082
31
0.0
0
LINE
8
0
6
CONTINUOUS
10
0.058361
20
0.172082
30
0.0
11
0.059453
21
0.173425
31
0.0
0
LINE
8
0
6
CONTINUOUS
10
0.059453
20
0.173425
30
0.0
11
0.060381
21
0.174566
31
0.0
0
LINE
8
0
6
CONTINUOUS
10
0.060381
20
0.174566
30
0.0
11
0.061130
21
0.175486
31
0.0
0
LINE
8
0
6
CONTINUOUS
10
0.061581
20
0.177014
30
0.0
11
0.061010
21
0.176312
31
0.0
0
LINE
8
0
6
CONTINUOUS
10
0.061130
20
0.175486
30
0.0
11
0.061683
21
0.176167
31
0.0
0
LINE
8
0
6
CONTINUOUS
10
0.061683
20
0.176167
30
0.0
11
0.062027
21
0.176589
31
0.0
0
LINE
8
0
6
CONTINUOUS
10
0.062027
20
0.176589
30
0.0
11
0.062145
21
0.176734
31
0.0
0
LINE
8
0
6
CONTINUOUS
10
0.048915
20
0.158378
30
0.0
11
0.049519
21
0.159120
31
0.0
0
LINE
8
0
6
CONTINUOUS
10
0.060824
20
0.176330
30
0.0
11
0.060768
21
0.176376
31
0.0
0
LINE
8
0
6
CONTINUOUS
10
0.060841
20
0.174006
30
0.0
11
0.061971
21
0.175397
31
0.0
0
LINE
8
0
6
CONTINUOUS
10
0.068112
20
0.188124
30
0.0
11
0.068682
21
0.188825
31
0.0
0
LINE
8
0
6
CONTINUOUS
10
0.069226
20
0.189374
30
0.0
11
0.070258
21
0.190642
31
0.0
0
LINE
8
0
6
CONTINUOUS
10
0.070258
20
0.190642
30
0.0
11
0.071515
21
0.192187
31
0.0
0
LINE
8
0
6
CONTINUOUS
10
0.071515
20
0.192187
30
0.0
11
0.071740
21
0.192464
31
0.0
0
LINE
8
0
6
CONTINUOUS
10
0.043574
20
0.151507
30
0.0
11
0.044893
21
0.153129
31
0.0
0
LINE
8
0
6
CONTINUOUS
10
0.042692
20
0.150457
30
0.0
11
0.043146
21
0.151016
31
0.0
0
LINE
8
0
6
CONTINUOUS
10
0.041560
20
0.151378
30
0.0
11
0.042692
21
0.150457
31
0.0
0
LINE
8
0
6
CONTINUOUS
10
0.030576
20
0.141875
30
0.0
11
0.031440
21
0.142939
31
0.0
0
LINE
8
0
6
CONTINUOUS
10
0.029233
20
0.142967
30
0.0
11
0.030576
21
0.141875
31
0.0
0
LINE
8
0
6
CONTINUOUS
10
0.037610
20
0.150655
30
0.0
11
0.038474
21
0.151718
31
0.0
0
LINE
8
0
6
CONTINUOUS
10
0.036333
20
0.151694
30
0.0
11
0.037610
21
0.150655
31
0.0
0
LINE
8
0
6
CONTINUOUS
10
0.031631
20
0.140391
30
0.0
11
0.032085
21
0.140950
31
0.0
0
LINE
8
0
6
CONTINUOUS
10
0.069208
20
0.189389
30
0.0
11
0.069434
21
0.189666
31
0.0
0
LINE
8
0
6
CONTINUOUS
10
0.068426
20
0.190025
30
0.0
11
0.069208
21
0.189389
31
0.0
0
LINE
8
0
6
CONTINUOUS
10
0.069434
20
0.189666
30
0.0
11
0.070691
21
0.191211
31
0.0
0
LINE
8
0
6
CONTINUOUS
10
0.071722
20
0.192479
30
0.0
11
0.070475
21
0.193493
31
0.0
0
LINE
8
0
6
CONTINUOUS
10
0.070691
20
0.191211
30
0.0
11
0.071722
21
0.192479
31
0.0
0
LINE
8
0
6
CONTINUOUS
10
0.063237
20
0.178116
30
0.0
11
0.064425
21
0.179577
31
0.0
0
LINE
8
0
6
CONTINUOUS
10
0.064483
20
0.179649
30
0.0
11
0.063336
21
0.180582
31
0.0
0
LINE
8
0
6
CONTINUOUS
10
0.064425
20
0.179577
30
0.0
11
0.064483
21
0.179649
31
0.0
0
LINE
8
0
6
CONTINUOUS
10
0.057630
20
0.170126
30
0.0
11
0.058923
21
0.171715
31
0.0
0
LINE
8
0
6
CONTINUOUS
10
0.059262
20
0.172131
30
0.0
11
0.058743
21
0.172552
31
0.0
0
LINE
8
0
6
CONTINUOUS
10
0.050554
20
0.161248
30
0.0
11
0.051288
21
0.162151
31
0.0
0
LINE
8
0
6
CONTINUOUS
10
0.050327
20
0.161433
30
0.0
11
0.050554
21
0.161248
31
0.0
0
LINE
8
0
6
CONTINUOUS
10
0.068180
20
0.190671
30
0.0
11
0.069311
21
0.192062
31
0.0
0
LINE
8
0
6
CONTINUOUS
10
0.067312
20
0.191377
30
0.0
11
0.068180
21
0.190671
31
0.0
0
LINE
8
0
6
CONTINUOUS
10
0.069311
20
0.192062
30
0.0
11
0.070475
21
0.193493
31
0.0
0
LINE
8
0
6
CONTINUOUS
10
0.075559
20
0.199892
30
0.0
11
0.074101
21
0.201078
31
0.0
0
LINE
8
0
6
CONTINUOUS
10
0.075266
20
0.199532
30
0.0
11
0.075559
21
0.199892
31
0.0
0
LINE
8
0
6
CONTINUOUS
10
0.040437
20
0.157551
30
0.0
11
0.039667
21
0.158178
31
0.0
0
LINE
8
0
6
CONTINUOUS
10
0.039983
20
0.156993
30
0.0
11
0.040437
21
0.157551
31
0.0
0
LINE
8
0
6
CONTINUOUS
10
0.037824
20
0.145456
30
0.0
11
0.038689
21
0.146519
31
0.0
0
LINE
8
0
6
CONTINUOUS
10
0.040008
20
0.148141
30
0.0
11
0.038689
21
0.146519
31
0.0
0
LINE
8
0
6
CONTINUOUS
10
0.040462
20
0.148700
30
0.0
11
0.040008
21
0.148141
31
0.0
0
LINE
8
0
6
CONTINUOUS
10
0.038689
20
0.146519
30
0.0
11
0.037824
21
0.145456
31
0.0
0
LINE
8
0
6
CONTINUOUS
10
0.071628
20
0.194712
30
0.0
11
0.072659
21
0.195981
31
0.0
0
LINE
8
0
6
CONTINUOUS
10
0.071596
20
0.194738
30
0.0
11
0.071628
21
0.194712
31
0.0
0
LINE
8
0
6
CONTINUOUS
10
0.072659
20
0.195981
30
0.0
11
0.073916
21
0.197526
31
0.0
0
LINE
8
0
6
CONTINUOUS
10
0.073916
20
0.197526
30
0.0
11
0.074141
21
0.197803
31
0.0
0
LINE
8
0
6
CONTINUOUS
10
0.049519
20
0.159120
30
0.0
11
0.050858
21
0.160766
31
0.0
0
LINE
8
0
6
CONTINUOUS
10
0.050858
20
0.160766
30
0.0
11
0.051592
21
0.161668
31
0.0
0
LINE
8
0
6
CONTINUOUS
10
0.051211
20
0.161948
30
0.0
11
0.052549
21
0.163593
31
0.0
0
LINE
8
0
6
CONTINUOUS
10
0.052549
20
0.163593
30
0.0
11
0.053283
21
0.164496
31
0.0
0
LINE
8
0
6
CONTINUOUS
10
0.055155
20
0.166051
30
0.0
11
0.056448
21
0.167640
31
0.0
0
LINE
8
0
6
CONTINUOUS
10
0.054817
20
0.165635
30
0.0
11
0.055155
21
0.166051
31
0.0
0
LINE
8
0
6
CONTINUOUS
10
0.056448
20
0.167640
30
0.0
11
0.057401
21
0.168812
31
0.0
0
LINE
8
0
6
CONTINUOUS
10
0.057044
20
0.169346
30
0.0
11
0.058337
21
0.170935
31
0.0
0
LINE
8
0
6
CONTINUOUS
10
0.058337
20
0.170935
30
0.0
11
0.059290
21
0.172108
31
0.0
0
LINE
8
0
6
CONTINUOUS
10
0.059652
20
0.172545
30
0.0
11
0.060841
21
0.174006
31
0.0
0
LINE
8
0
6
CONTINUOUS
10
0.062182
20
0.176782
30
0.0
11
0.063371
21
0.178244
31
0.0
0
LINE
8
0
6
CONTINUOUS
10
0.062125
20
0.176711
30
0.0
11
0.062182
21
0.176782
31
0.0
0
LINE
8
0
6
CONTINUOUS
10
0.063371
20
0.178244
30
0.0
11
0.064502
21
0.179634
31
0.0
0
LINE
8
0
6
CONTINUOUS
10
0.064465
20
0.181221
30
0.0
11
0.065654
21
0.182682
31
0.0
0
LINE
8
0
6
CONTINUOUS
10
0.064407
20
0.181150
30
0.0
11
0.064465
21
0.181221
31
0.0
0
LINE
8
0
6
CONTINUOUS
10
0.065654
20
0.182682
30
0.0
11
0.066784
21
0.184072
31
0.0
0
LINE
8
0
6
CONTINUOUS
10
0.044933
20
0.154024
30
0.0
11
0.044997
21
0.154102
31
0.0
0
LINE
8
0
6
CONTINUOUS
10
0.044997
20
0.154102
30
0.0
11
0.045451
21
0.154660
31
0.0
0
LINE
8
0
6
CONTINUOUS
10
0.042709
20
0.150443
30
0.0
11
0.043574
21
0.151507
31
0.0
0
LINE
8
0
6
CONTINUOUS
10
0.044893
20
0.153129
30
0.0
11
0.045348
21
0.153687
31
0.0
0
LINE
8
0
6
CONTINUOUS
10
0.023730
20
0.131803
30
0.0
11
0.025049
21
0.133425
31
0.0
0
LINE
8
0
6
CONTINUOUS
10
0.022865
20
0.130740
30
0.0
11
0.023730
21
0.131803
31
0.0
0
LINE
8
0
6
CONTINUOUS
10
0.025049
20
0.133425
30
0.0
11
0.025503
21
0.133984
31
0.0
0
LINE
8
0
6
CONTINUOUS
10
0.033809
20
0.141527
30
0.0
11
0.035129
21
0.143149
31
0.0
0
LINE
8
0
6
CONTINUOUS
10
0.032944
20
0.140464
30
0.0
11
0.033809
21
0.141527
31
0.0
0
LINE
8
0
6
CONTINUOUS
10
0.035129
20
0.143149
30
0.0
11
0.035583
21
0.143707
31
0.0
0
LINE
8
0
6
CONTINUOUS
10
0.038689
20
0.146519
30
0.0
11
0.040008
21
0.148141
31
0.0
0
LINE
8
0
6
CONTINUOUS
10
0.040008
20
0.148141
30
0.0
11
0.040462
21
0.148700
31
0.0
0
LINE
8
0
6
CONTINUOUS
10
0.038260
20
0.146029
30
0.0
11
0.039579
21
0.147651
31
0.0
0
LINE
8
0
6
CONTINUOUS
10
0.040444
20
0.148714
30
0.0
11
0.039788
21
0.149248
31
0.0
0
LINE
8
0
6
CONTINUOUS
10
0.039579
20
0.147651
30
0.0
11
0.040444
21
0.148714
31
0.0
0
LINE
8
0
6
CONTINUOUS
10
0.032937
20
0.140470
30
0.0
11
0.033391
21
0.141029
31
0.0
0
LINE
8
0
6
CONTINUOUS
10
0.031806
20
0.141390
30
0.0
11
0.032937
21
0.140470
31
0.0
0
LINE
8
0
6
CONTINUOUS
10
0.033391
20
0.141029
30
0.0
11
0.034710
21
0.142650
31
0.0
0
LINE
8
0
6
CONTINUOUS
10
0.035575
20
0.143714
30
0.0
11
0.034986
21
0.144193
31
0.0
0
LINE
8
0
6
CONTINUOUS
10
0.034710
20
0.142650
30
0.0
11
0.035575
21
0.143714
31
0.0
0
LINE
8
0
6
CONTINUOUS
10
0.028011
20
0.135516
30
0.0
11
0.028465
21
0.136074
31
0.0
0
LINE
8
0
6
CONTINUOUS
10
0.026833
20
0.136474
30
0.0
11
0.028011
21
0.135516
31
0.0
0
LINE
8
0
6
CONTINUOUS
10
0.028465
20
0.136074
30
0.0
11
0.029784
21
0.137696
31
0.0
0
LINE
8
0
6
CONTINUOUS
10
0.030649
20
0.138759
30
0.0
11
0.029848
21
0.139411
31
0.0
0
LINE
8
0
6
CONTINUOUS
10
0.029784
20
0.137696
30
0.0
11
0.030649
21
0.138759
31
0.0
0
LINE
8
0
6
CONTINUOUS
10
0.022757
20
0.130828
30
0.0
11
0.023211
21
0.131386
31
0.0
0
LINE
8
0
6
CONTINUOUS
10
0.021776
20
0.131625
30
0.0
11
0.022757
21
0.130828
31
0.0
0
LINE
8
0
6
CONTINUOUS
10
0.023211
20
0.131386
30
0.0
11
0.024530
21
0.133008
31
0.0
0
LINE
8
0
6
CONTINUOUS
10
0.025395
20
0.134072
30
0.0
11
0.025021
21
0.134376
31
0.0
0
LINE
8
0
6
CONTINUOUS
10
0.024530
20
0.133008
30
0.0
11
0.025395
21
0.134072
31
0.0
0
LINE
8
0
6
CONTINUOUS
10
0.043146
20
0.151016
30
0.0
11
0.044465
21
0.152638
31
0.0
0
LINE
8
0
6
CONTINUOUS
10
0.045330
20
0.153701
30
0.0
11
0.044885
21
0.154063
31
0.0
0
LINE
8
0
6
CONTINUOUS
10
0.044465
20
0.152638
30
0.0
11
0.045330
21
0.153701
31
0.0
0
LINE
8
0
6
CONTINUOUS
10
0.032797
20
0.147996
30
0.0
11
0.032303
21
0.148397
31
0.0
0
LINE
8
0
6
CONTINUOUS
10
0.032343
20
0.147437
30
0.0
11
0.032797
21
0.147996
31
0.0
0
LINE
8
0
6
CONTINUOUS
10
0.031023
20
0.145815
30
0.0
11
0.032343
21
0.147437
31
0.0
0
LINE
8
0
6
CONTINUOUS
10
0.030159
20
0.144752
30
0.0
11
0.031023
21
0.145815
31
0.0
0
LINE
8
0
6
CONTINUOUS
10
0.029257
20
0.145485
30
0.0
11
0.030159
21
0.144752
31
0.0
0
LINE
8
0
6
CONTINUOUS
10
0.026947
20
0.139703
30
0.0
11
0.026314
21
0.140217
31
0.0
0
LINE
8
0
6
CONTINUOUS
10
0.026493
20
0.139145
30
0.0
11
0.026947
21
0.139703
31
0.0
0
LINE
8
0
6
CONTINUOUS
10
0.025173
20
0.137523
30
0.0
11
0.026493
21
0.139145
31
0.0
0
LINE
8
0
6
CONTINUOUS
10
0.024308
20
0.136459
30
0.0
11
0.025173
21
0.137523
31
0.0
0
LINE
8
0
6
CONTINUOUS
10
0.023157
20
0.137396
30
0.0
11
0.024308
21
0.136459
31
0.0
0
LINE
8
0
6
CONTINUOUS
10
0.033214
20
0.145119
30
0.0
11
0.032330
21
0.145838
31
0.0
0
LINE
8
0
6
CONTINUOUS
10
0.032760
20
0.144560
30
0.0
11
0.033214
21
0.145119
31
0.0
0
LINE
8
0
6
CONTINUOUS
10
0.031440
20
0.142939
30
0.0
11
0.032760
21
0.144560
31
0.0
0
LINE
8
0
6
CONTINUOUS
10
0.039218
20
0.150545
30
0.0
11
0.039673
21
0.151104
31
0.0
0
LINE
8
0
6
CONTINUOUS
10
0.037899
20
0.148923
30
0.0
11
0.039218
21
0.150545
31
0.0
0
LINE
8
0
6
CONTINUOUS
10
0.037034
20
0.147860
30
0.0
11
0.037899
21
0.148923
31
0.0
0
LINE
8
0
6
CONTINUOUS
10
0.040248
20
0.153899
30
0.0
11
0.039216
21
0.154738
31
0.0
0
LINE
8
0
6
CONTINUOUS
10
0.039794
20
0.153340
30
0.0
11
0.040248
21
0.153899
31
0.0
0
LINE
8
0
6
CONTINUOUS
10
0.038474
20
0.151718
30
0.0
11
0.039794
21
0.153340
31
0.0
0
LINE
8
0
6
CONTINUOUS
10
0.037246
20
0.145884
30
0.0
11
0.037700
21
0.146443
31
0.0
0
LINE
8
0
6
CONTINUOUS
10
0.036039
20
0.146866
30
0.0
11
0.037246
21
0.145884
31
0.0
0
LINE
8
0
6
CONTINUOUS
10
0.037700
20
0.146443
30
0.0
11
0.039020
21
0.148064
31
0.0
0
LINE
8
0
6
CONTINUOUS
10
0.039885
20
0.149128
30
0.0
11
0.038860
21
0.149961
31
0.0
0
LINE
8
0
6
CONTINUOUS
10
0.039020
20
0.148064
30
0.0
11
0.039885
21
0.149128
31
0.0
0
LINE
8
0
6
CONTINUOUS
10
0.032085
20
0.140950
30
0.0
11
0.033405
21
0.142571
31
0.0
0
LINE
8
0
6
CONTINUOUS
10
0.034270
20
0.143635
30
0.0
11
0.033676
21
0.144118
31
0.0
0
LINE
8
0
6
CONTINUOUS
10
0.033405
20
0.142571
30
0.0
11
0.034270
21
0.143635
31
0.0
0
LINE
8
0
6
CONTINUOUS
10
0.025885
20
0.135005
30
0.0
11
0.026340
21
0.135563
31
0.0
0
LINE
8
0
6
CONTINUOUS
10
0.024650
20
0.136009
30
0.0
11
0.025885
21
0.135005
31
0.0
0
LINE
8
0
6
CONTINUOUS
10
0.026340
20
0.135563
30
0.0
11
0.027659
21
0.137185
31
0.0
0
LINE
8
0
6
CONTINUOUS
10
0.028524
20
0.138248
30
0.0
11
0.027951
21
0.138714
31
0.0
0
LINE
8
0
6
CONTINUOUS
10
0.027659
20
0.137185
30
0.0
11
0.028524
21
0.138248
31
0.0
0
LINE
8
0
6
CONTINUOUS
10
0.019605
20
0.130053
30
0.0
11
0.020059
21
0.130611
31
0.0
0
LINE
8
0
6
CONTINUOUS
10
0.018792
20
0.130714
30
0.0
11
0.019605
21
0.130053
31
0.0
0
LINE
8
0
6
CONTINUOUS
10
0.020059
20
0.130611
30
0.0
11
0.021379
21
0.132233
31
0.0
0
LINE
8
0
6
CONTINUOUS
10
0.021379
20
0.132233
30
0.0
11
0.022243
21
0.133296
31
0.0
0
LINE
8
0
6
CONTINUOUS
10
0.045990
20
0.160833
30
0.0
11
0.046444
21
0.161392
31
0.0
0
LINE
8
0
6
CONTINUOUS
10
0.044860
20
0.161752
30
0.0
11
0.045990
21
0.160833
31
0.0
0
LINE
8
0
6
CONTINUOUS
10
0.046444
20
0.161392
30
0.0
11
0.047763
21
0.163014
31
0.0
0
LINE
8
0
6
CONTINUOUS
10
0.048628
20
0.164077
30
0.0
11
0.047059
21
0.165353
31
0.0
0
LINE
8
0
6
CONTINUOUS
10
0.047763
20
0.163014
30
0.0
11
0.048628
21
0.164077
31
0.0
0
LINE
8
0
6
CONTINUOUS
10
0.045045
20
0.157601
30
0.0
11
0.045499
21
0.158160
31
0.0
0
LINE
8
0
6
CONTINUOUS
10
0.045499
20
0.158160
30
0.0
11
0.046818
21
0.159782
31
0.0
0
LINE
8
0
6
CONTINUOUS
10
0.047683
20
0.160845
30
0.0
11
0.047442
21
0.161042
31
0.0
0
LINE
8
0
6
CONTINUOUS
10
0.046818
20
0.159782
30
0.0
11
0.047683
21
0.160845
31
0.0
0
LINE
8
0
6
CONTINUOUS
10
0.043967
20
0.154478
30
0.0
11
0.044422
21
0.155036
31
0.0
0
LINE
8
0
6
CONTINUOUS
10
0.042879
20
0.155363
30
0.0
11
0.043967
21
0.154478
31
0.0
0
LINE
8
0
6
CONTINUOUS
10
0.044422
20
0.155036
30
0.0
11
0.045741
21
0.156658
31
0.0
0
LINE
8
0
6
CONTINUOUS
10
0.046606
20
0.157721
30
0.0
11
0.045725
21
0.158438
31
0.0
0
LINE
8
0
6
CONTINUOUS
10
0.045741
20
0.156658
30
0.0
11
0.046606
21
0.157721
31
0.0
0
LINE
8
0
6
CONTINUOUS
10
0.042764
20
0.151456
30
0.0
11
0.043219
21
0.152014
31
0.0
0
LINE
8
0
6
CONTINUOUS
10
0.042342
20
0.151799
30
0.0
11
0.042764
21
0.151456
31
0.0
0
LINE
8
0
6
CONTINUOUS
10
0.043219
20
0.152014
30
0.0
11
0.044538
21
0.153636
31
0.0
0
LINE
8
0
6
CONTINUOUS
10
0.045403
20
0.154699
30
0.0
11
0.044712
21
0.155261
31
0.0
0
LINE
8
0
6
CONTINUOUS
10
0.044538
20
0.153636
30
0.0
11
0.045403
21
0.154699
31
0.0
0
LINE
8
0
6
CONTINUOUS
10
0.066609
20
0.184211
30
0.0
11
0.066834
21
0.184488
31
0.0
0
LINE
8
0
6
CONTINUOUS
10
0.066834
20
0.184488
30
0.0
11
0.068091
21
0.186034
31
0.0
0
LINE
8
0
6
CONTINUOUS
10
0.068129
20
0.188110
30
0.0
11
0.068059
21
0.188167
31
0.0
0
LINE
8
0
6
CONTINUOUS
10
0.068091
20
0.186034
30
0.0
11
0.069123
21
0.187302
31
0.0
0
LINE
8
0
6
CONTINUOUS
10
0.066251
20
0.185945
30
0.0
11
0.067382
21
0.187335
31
0.0
0
LINE
8
0
6
CONTINUOUS
10
0.065305
20
0.186715
30
0.0
11
0.066251
21
0.185945
31
0.0
0
LINE
8
0
6
CONTINUOUS
10
0.067382
20
0.187335
30
0.0
11
0.068571
21
0.188796
31
0.0
0
LINE
8
0
6
CONTINUOUS
10
0.068629
20
0.188867
30
0.0
11
0.068257
21
0.189170
31
0.0
0
LINE
8
0
6
CONTINUOUS
10
0.068571
20
0.188796
30
0.0
11
0.068629
21
0.188867
31
0.0
0
LINE
8
0
6
CONTINUOUS
10
0.064376
20
0.181175
30
0.0
11
0.065507
21
0.182565
31
0.0
0
LINE
8
0
6
CONTINUOUS
10
0.065507
20
0.182565
30
0.0
11
0.066696
21
0.184026
31
0.0
0
LINE
8
0
6
CONTINUOUS
10
0.066754
20
0.184097
30
0.0
11
0.066418
21
0.184371
31
0.0
0
LINE
8
0
6
CONTINUOUS
10
0.066696
20
0.184026
30
0.0
11
0.066754
21
0.184097
31
0.0
0
LINE
8
0
6
CONTINUOUS
10
0.062106
20
0.176726
30
0.0
11
0.063237
21
0.178116
31
0.0
0
LINE
8
0
6
CONTINUOUS
10
0.061186
20
0.177475
30
0.0
11
0.062106
21
0.176726
31
0.0
0
LINE
8
0
6
CONTINUOUS
10
0.059594
20
0.172474
30
0.0
11
0.060725
21
0.173864
31
0.0
0
LINE
8
0
6
CONTINUOUS
10
0.058693
20
0.173207
30
0.0
11
0.059594
21
0.172474
31
0.0
0
LINE
8
0
6
CONTINUOUS
10
0.060725
20
0.173864
30
0.0
11
0.061913
21
0.175325
31
0.0
0
LINE
8
0
6
CONTINUOUS
10
0.061116
20
0.179837
30
0.0
11
0.062070
21
0.181009
31
0.0
0
LINE
8
0
6
CONTINUOUS
10
0.060036
20
0.180716
30
0.0
11
0.061116
21
0.179837
31
0.0
0
LINE
8
0
6
CONTINUOUS
10
0.062070
20
0.181009
30
0.0
11
0.063362
21
0.182598
31
0.0
0
LINE
8
0
6
CONTINUOUS
10
0.063701
20
0.183015
30
0.0
11
0.062660
21
0.183861
31
0.0
0
LINE
8
0
6
CONTINUOUS
10
0.063362
20
0.182598
30
0.0
11
0.063701
21
0.183015
31
0.0
0
LINE
8
0
6
CONTINUOUS
10
0.059970
20
0.175937
30
0.0
11
0.060924
21
0.177110
31
0.0
0
LINE
8
0
6
CONTINUOUS
10
0.060924
20
0.177110
30
0.0
11
0.062216
21
0.178699
31
0.0
0
LINE
8
0
6
CONTINUOUS
10
0.062555
20
0.179115
30
0.0
11
0.062307
21
0.179317
31
0.0
0
LINE
8
0
6
CONTINUOUS
10
0.061506
20
0.179968
30
0.0
11
0.061336
21
0.180107
31
0.0
0
LINE
8
0
6
CONTINUOUS
10
0.062216
20
0.178699
30
0.0
11
0.062555
21
0.179115
31
0.0
0
LINE
8
0
6
CONTINUOUS
10
0.058335
20
0.172436
30
0.0
11
0.059288
21
0.173609
31
0.0
0
LINE
8
0
6
CONTINUOUS
10
0.057352
20
0.173236
30
0.0
11
0.058335
21
0.172436
31
0.0
0
LINE
8
0
6
CONTINUOUS
10
0.059288
20
0.173609
30
0.0
11
0.060581
21
0.175198
31
0.0
0
LINE
8
0
6
CONTINUOUS
10
0.060919
20
0.175614
30
0.0
11
0.060190
21
0.176207
31
0.0
0
LINE
8
0
6
CONTINUOUS
10
0.060581
20
0.175198
30
0.0
11
0.060919
21
0.175614
31
0.0
0
LINE
8
0
6
CONTINUOUS
10
0.056677
20
0.168953
30
0.0
11
0.057630
21
0.170126
31
0.0
0
LINE
8
0
6
CONTINUOUS
10
0.055815
20
0.169654
30
0.0
11
0.056677
21
0.168953
31
0.0
0
LINE
8
0
6
CONTINUOUS
10
0.054800
20
0.165648
30
0.0
11
0.055753
21
0.166821
31
0.0
0
LINE
8
0
6
CONTINUOUS
10
0.053933
20
0.166353
30
0.0
11
0.054800
21
0.165648
31
0.0
0
LINE
8
0
6
CONTINUOUS
10
0.055753
20
0.166821
30
0.0
11
0.057046
21
0.168410
31
0.0
0
LINE
8
0
6
CONTINUOUS
10
0.057385
20
0.168826
30
0.0
11
0.056925
21
0.169200
31
0.0
0
LINE
8
0
6
CONTINUOUS
10
0.057046
20
0.168410
30
0.0
11
0.057385
21
0.168826
31
0.0
0
LINE
8
0
6
CONTINUOUS
10
0.054070
20
0.170999
30
0.0
11
0.054804
21
0.171901
31
0.0
0
LINE
8
0
6
CONTINUOUS
10
0.052876
20
0.171970
30
0.0
11
0.054070
21
0.170999
31
0.0
0
LINE
8
0
6
CONTINUOUS
10
0.054804
20
0.171901
30
0.0
11
0.056142
21
0.173547
31
0.0
0
LINE
8
0
6
CONTINUOUS
10
0.056746
20
0.174289
30
0.0
11
0.055445
21
0.175348
31
0.0
0
LINE
8
0
6
CONTINUOUS
10
0.056142
20
0.173547
30
0.0
11
0.056746
21
0.174289
31
0.0
0
LINE
8
0
6
CONTINUOUS
10
0.053010
20
0.167658
30
0.0
11
0.053744
21
0.168560
31
0.0
0
LINE
8
0
6
CONTINUOUS
10
0.053744
20
0.168560
30
0.0
11
0.055082
21
0.170205
31
0.0
0
LINE
8
0
6
CONTINUOUS
10
0.055686
20
0.170948
30
0.0
11
0.055574
21
0.171039
31
0.0
0
LINE
8
0
6
CONTINUOUS
10
0.054790
20
0.171677
30
0.0
11
0.054689
21
0.171759
31
0.0
0
LINE
8
0
6
CONTINUOUS
10
0.055082
20
0.170205
30
0.0
11
0.055686
21
0.170948
31
0.0
0
LINE
8
0
6
CONTINUOUS
10
0.051886
20
0.164368
30
0.0
11
0.052620
21
0.165271
31
0.0
0
LINE
8
0
6
CONTINUOUS
10
0.050925
20
0.165150
30
0.0
11
0.051886
21
0.164368
31
0.0
0
LINE
8
0
6
CONTINUOUS
10
0.052620
20
0.165271
30
0.0
11
0.053958
21
0.166916
31
0.0
0
LINE
8
0
6
CONTINUOUS
10
0.054562
20
0.167659
30
0.0
11
0.053629
21
0.168418
31
0.0
0
LINE
8
0
6
CONTINUOUS
10
0.053958
20
0.166916
30
0.0
11
0.054562
21
0.167659
31
0.0
0
LINE
8
0
6
CONTINUOUS
10
0.051288
20
0.162151
30
0.0
11
0.052626
21
0.163796
31
0.0
0
LINE
8
0
6
CONTINUOUS
10
0.053230
20
0.164539
30
0.0
11
0.052625
21
0.165031
31
0.0
0
LINE
8
0
6
CONTINUOUS
10
0.052626
20
0.163796
30
0.0
11
0.053230
21
0.164539
31
0.0
0
LINE
8
0
6
CONTINUOUS
10
0.048886
20
0.158401
30
0.0
11
0.049620
21
0.159304
31
0.0
0
LINE
8
0
6
CONTINUOUS
10
0.047876
20
0.159223
30
0.0
11
0.048886
21
0.158401
31
0.0
0
LINE
8
0
6
CONTINUOUS
10
0.049620
20
0.159304
30
0.0
11
0.050958
21
0.160949
31
0.0
0
LINE
8
0
6
CONTINUOUS
10
0.051563
20
0.161692
30
0.0
11
0.051172
21
0.162009
31
0.0
0
LINE
8
0
6
CONTINUOUS
10
0.050958
20
0.160949
30
0.0
11
0.051563
21
0.161692
31
0.0
0
LINE
8
0
6
CONTINUOUS
10
0.046242
20
0.164628
30
0.0
11
0.046696
21
0.165187
31
0.0
0
LINE
8
0
6
CONTINUOUS
10
0.045445
20
0.165277
30
0.0
11
0.046242
21
0.164628
31
0.0
0
LINE
8
0
6
CONTINUOUS
10
0.046696
20
0.165187
30
0.0
11
0.048016
21
0.166809
31
0.0
0
LINE
8
0
6
CONTINUOUS
10
0.048016
20
0.166809
30
0.0
11
0.048881
21
0.167872
31
0.0
0
LINE
8
0
6
CONTINUOUS
10
0.071595
20
0.194738
30
0.0
11
0.071821
21
0.195015
31
0.0
0
LINE
8
0
6
CONTINUOUS
10
0.071001
20
0.195222
30
0.0
11
0.071595
21
0.194738
31
0.0
0
LINE
8
0
6
CONTINUOUS
10
0.071821
20
0.195015
30
0.0
11
0.073078
21
0.196561
31
0.0
0
LINE
8
0
6
CONTINUOUS
10
0.074109
20
0.197829
30
0.0
11
0.073068
21
0.198675
31
0.0
0
LINE
8
0
6
CONTINUOUS
10
0.073078
20
0.196561
30
0.0
11
0.074109
21
0.197829
31
0.0
0
LINE
8
0
6
CONTINUOUS
10
0.070499
20
0.193523
30
0.0
11
0.070557
21
0.193594
31
0.0
0
LINE
8
0
6
CONTINUOUS
10
0.073987
20
0.197959
30
0.0
11
0.075266
21
0.199532
31
0.0
0
LINE
8
0
6
CONTINUOUS
10
0.062441
20
0.183591
30
0.0
11
0.063394
21
0.184764
31
0.0
0
LINE
8
0
6
CONTINUOUS
10
0.061359
20
0.184471
30
0.0
11
0.062441
21
0.183591
31
0.0
0
LINE
8
0
6
CONTINUOUS
10
0.063394
20
0.184764
30
0.0
11
0.064687
21
0.186353
31
0.0
0
LINE
8
0
6
CONTINUOUS
10
0.064687
20
0.186353
30
0.0
11
0.065025
21
0.186769
31
0.0
0
LINE
8
0
6
CONTINUOUS
10
0.054696
20
0.174693
30
0.0
11
0.055430
21
0.175596
31
0.0
0
LINE
8
0
6
CONTINUOUS
10
0.053879
20
0.175358
30
0.0
11
0.054696
21
0.174693
31
0.0
0
LINE
8
0
6
CONTINUOUS
10
0.055430
20
0.175596
30
0.0
11
0.056768
21
0.177241
31
0.0
0
LINE
8
0
6
CONTINUOUS
10
0.057372
20
0.177984
30
0.0
11
0.056268
21
0.178882
31
0.0
0
LINE
8
0
6
CONTINUOUS
10
0.056768
20
0.177241
30
0.0
11
0.057372
21
0.177984
31
0.0
0
LINE
8
0
6
CONTINUOUS
10
0.038663
20
0.155371
30
0.0
11
0.039983
21
0.156993
31
0.0
0
LINE
8
0
6
CONTINUOUS
10
0.037799
20
0.154308
30
0.0
11
0.038663
21
0.155371
31
0.0
0
LINE
8
0
6
CONTINUOUS
10
0.036787
20
0.155130
30
0.0
11
0.037799
21
0.154308
31
0.0
0
LINE
8
0
6
CONTINUOUS
10
0.072659
20
0.195981
30
0.0
11
0.071628
21
0.194712
31
0.0
0
LINE
8
0
6
CONTINUOUS
10
0.073916
20
0.197526
30
0.0
11
0.072659
21
0.195981
31
0.0
0
LINE
8
0
6
CONTINUOUS
10
0.074141
20
0.197803
30
0.0
11
0.073916
21
0.197526
31
0.0
0
LINE
8
0
6
CONTINUOUS
10
0.050858
20
0.160766
30
0.0
11
0.049519
21
0.159120
31
0.0
0
LINE
8
0
6
CONTINUOUS
10
0.051592
20
0.161668
30
0.0
11
0.050858
21
0.160766
31
0.0
0
LINE
8
0
6
CONTINUOUS
10
0.049519
20
0.159120
30
0.0
11
0.048915
21
0.158378
31
0.0
0
LINE
8
0
6
CONTINUOUS
10
0.052549
20
0.163593
30
0.0
11
0.051226
21
0.161966
31
0.0
0
LINE
8
0
6
CONTINUOUS
10
0.053283
20
0.164496
30
0.0
11
0.052549
21
0.163593
31
0.0
0
LINE
8
0
6
CONTINUOUS
10
0.056448
20
0.167640
30
0.0
11
0.055155
21
0.166051
31
0.0
0
LINE
8
0
6
CONTINUOUS
10
0.057401
20
0.168812
30
0.0
11
0.056448
21
0.167640
31
0.0
0
LINE
8
0
6
CONTINUOUS
10
0.055155
20
0.166051
30
0.0
11
0.054817
21
0.165635
31
0.0
0
LINE
8
0
6
CONTINUOUS
10
0.058337
20
0.170935
30
0.0
11
0.057044
21
0.169346
31
0.0
0
LINE
8
0
6
CONTINUOUS
10
0.059290
20
0.172108
30
0.0
11
0.058337
21
0.170935
31
0.0
0
LINE
8
0
6
CONTINUOUS
10
0.060841
20
0.174006
30
0.0
11
0.059652
21
0.172545
31
0.0
0
LINE
8
0
6
CONTINUOUS
10
0.061971
20
0.175397
30
0.0
11
0.060841
21
0.174006
31
0.0
0
LINE
8
0
6
CONTINUOUS
10
0.063371
20
0.178244
30
0.0
11
0.062182
21
0.176782
31
0.0
0
LINE
8
0
6
CONTINUOUS
10
0.064502
20
0.179634
30
0.0
11
0.063371
21
0.178244
31
0.0
0
LINE
8
0
6
CONTINUOUS
10
0.062182
20
0.176782
30
0.0
11
0.062125
21
0.176711
31
0.0
0
LINE
8
0
6
CONTINUOUS
10
0.065654
20
0.182682
30
0.0
11
0.064465
21
0.181221
31
0.0
0
LINE
8
0
6
CONTINUOUS
10
0.066784
20
0.184072
30
0.0
11
0.065654
21
0.182682
31
0.0
0
LINE
8
0
6
CONTINUOUS
10
0.064465
20
0.181221
30
0.0
11
0.064407
21
0.181150
31
0.0
0
LINE
8
0
6
CONTINUOUS
10
0.068682
20
0.188825
30
0.0
11
0.068112
21
0.188124
31
0.0
0
LINE
8
0
6
CONTINUOUS
10
0.070258
20
0.190642
30
0.0
11
0.069226
21
0.189374
31
0.0
0
LINE
8
0
6
CONTINUOUS
10
0.071515
20
0.192187
30
0.0
11
0.070258
21
0.190642
31
0.0
0
LINE
8
0
6
CONTINUOUS
10
0.071740
20
0.192464
30
0.0
11
0.071515
21
0.192187
31
0.0
0
LINE
8
0
6
CONTINUOUS
10
0.044997
20
0.154102
30
0.0
11
0.044934
21
0.154024
31
0.0
0
LINE
8
0
6
CONTINUOUS
10
0.045451
20
0.154660
30
0.0
11
0.044997
21
0.154102
31
0.0
0
LINE
8
0
6
CONTINUOUS
10
0.044893
20
0.153129
30
0.0
11
0.043574
21
0.151507
31
0.0
0
LINE
8
0
6
CONTINUOUS
10
0.045348
20
0.153687
30
0.0
11
0.044893
21
0.153129
31
0.0
0
LINE
8
0
6
CONTINUOUS
10
0.043574
20
0.151507
30
0.0
11
0.042709
21
0.150443
31
0.0
0
LINE
8
0
6
CONTINUOUS
10
0.025049
20
0.133425
30
0.0
11
0.023730
21
0.131803
31
0.0
0
LINE
8
0
6
CONTINUOUS
10
0.025503
20
0.133984
30
0.0
11
0.025049
21
0.133425
31
0.0
0
LINE
8
0
6
CONTINUOUS
10
0.023730
20
0.131803
30
0.0
11
0.022865
21
0.130740
31
0.0
0
LINE
8
0
6
CONTINUOUS
10
0.035129
20
0.143149
30
0.0
11
0.033809
21
0.141527
31
0.0
0
LINE
8
0
6
CONTINUOUS
10
0.035583
20
0.143707
30
0.0
11
0.035129
21
0.143149
31
0.0
0
LINE
8
0
6
CONTINUOUS
10
0.033809
20
0.141527
30
0.0
11
0.032944
21
0.140464
31
0.0
0
LINE
8
0
6
CONTINUOUS
10
0.037806
20
0.145471
30
0.0
11
0.038260
21
0.146029
31
0.0
0
LINE
8
0
6
CONTINUOUS
10
0.036919
20
0.146192
30
0.0
11
0.037806
21
0.145471
31
0.0
0
LINE
8
0
6
CONTINUOUS
10
0.038260
20
0.146029
30
0.0
11
0.037806
21
0.145471
31
0.0
0
LINE
8
0
6
CONTINUOUS
10
0.039579
20
0.147651
30
0.0
11
0.038260
21
0.146029
31
0.0
0
LINE
8
0
6
CONTINUOUS
10
0.040444
20
0.148714
30
0.0
11
0.039579
21
0.147651
31
0.0
0
LINE
8
0
6
CONTINUOUS
10
0.033391
20
0.141029
30
0.0
11
0.032937
21
0.140470
31
0.0
0
LINE
8
0
6
CONTINUOUS
10
0.034710
20
0.142650
30
0.0
11
0.033391
21
0.141029
31
0.0
0
LINE
8
0
6
CONTINUOUS
10
0.035575
20
0.143714
30
0.0
11
0.034710
21
0.142650
31
0.0
0
LINE
8
0
6
CONTINUOUS
10
0.028465
20
0.136074
30
0.0
11
0.028011
21
0.135516
31
0.0
0
LINE
8
0
6
CONTINUOUS
10
0.029784
20
0.137696
30
0.0
11
0.028465
21
0.136074
31
0.0
0
LINE
8
0
6
CONTINUOUS
10
0.030649
20
0.138759
30
0.0
11
0.029784
21
0.137696
31
0.0
0
LINE
8
0
6
CONTINUOUS
10
0.023211
20
0.131386
30
0.0
11
0.022757
21
0.130828
31
0.0
0
LINE
8
0
6
CONTINUOUS
10
0.024530
20
0.133008
30
0.0
11
0.023211
21
0.131386
31
0.0
0
LINE
8
0
6
CONTINUOUS
10
0.025395
20
0.134072
30
0.0
11
0.024530
21
0.133008
31
0.0
0
LINE
8
0
6
CONTINUOUS
10
0.043146
20
0.151016
30
0.0
11
0.042692
21
0.150457
31
0.0
0
LINE
8
0
6
CONTINUOUS
10
0.044465
20
0.152638
30
0.0
11
0.043146
21
0.151016
31
0.0
0
LINE
8
0
6
CONTINUOUS
10
0.045330
20
0.153701
30
0.0
11
0.044465
21
0.152638
31
0.0
0
LINE
8
0
6
CONTINUOUS
10
0.031023
20
0.145815
30
0.0
11
0.030159
21
0.144752
31
0.0
0
LINE
8
0
6
CONTINUOUS
10
0.032343
20
0.147437
30
0.0
11
0.031023
21
0.145815
31
0.0
0
LINE
8
0
6
CONTINUOUS
10
0.032797
20
0.147996
30
0.0
11
0.032343
21
0.147437
31
0.0
0
LINE
8
0
6
CONTINUOUS
10
0.025173
20
0.137523
30
0.0
11
0.024308
21
0.136459
31
0.0
0
LINE
8
0
6
CONTINUOUS
10
0.026493
20
0.139145
30
0.0
11
0.025173
21
0.137523
31
0.0
0
LINE
8
0
6
CONTINUOUS
10
0.026947
20
0.139703
30
0.0
11
0.026493
21
0.139145
31
0.0
0
LINE
8
0
6
CONTINUOUS
10
0.031440
20
0.142939
30
0.0
11
0.030576
21
0.141875
31
0.0
0
LINE
8
0
6
CONTINUOUS
10
0.032760
20
0.144560
30
0.0
11
0.031440
21
0.142939
31
0.0
0
LINE
8
0
6
CONTINUOUS
10
0.033214
20
0.145119
30
0.0
11
0.032760
21
0.144560
31
0.0
0
LINE
8
0
6
CONTINUOUS
10
0.037899
20
0.148923
30
0.0
11
0.037034
21
0.147860
31
0.0
0
LINE
8
0
6
CONTINUOUS
10
0.039218
20
0.150545
30
0.0
11
0.037899
21
0.148923
31
0.0
0
LINE
8
0
6
CONTINUOUS
10
0.039673
20
0.151104
30
0.0
11
0.039218
21
0.150545
31
0.0
0
LINE
8
0
6
CONTINUOUS
10
0.038474
20
0.151718
30
0.0
11
0.037610
21
0.150655
31
0.0
0
LINE
8
0
6
CONTINUOUS
10
0.039794
20
0.153340
30
0.0
11
0.038474
21
0.151718
31
0.0
0
LINE
8
0
6
CONTINUOUS
10
0.040248
20
0.153899
30
0.0
11
0.039794
21
0.153340
31
0.0
0
LINE
8
0
6
CONTINUOUS
10
0.037700
20
0.146443
30
0.0
11
0.037246
21
0.145884
31
0.0
0
LINE
8
0
6
CONTINUOUS
10
0.039020
20
0.148064
30
0.0
11
0.037700
21
0.146443
31
0.0
0
LINE
8
0
6
CONTINUOUS
10
0.039885
20
0.149128
30
0.0
11
0.039020
21
0.148064
31
0.0
0
LINE
8
0
6
CONTINUOUS
10
0.032085
20
0.140950
30
0.0
11
0.031631
21
0.140391
31
0.0
0
LINE
8
0
6
CONTINUOUS
10
0.033405
20
0.142571
30
0.0
11
0.032085
21
0.140950
31
0.0
0
LINE
8
0
6
CONTINUOUS
10
0.034270
20
0.143635
30
0.0
11
0.033405
21
0.142571
31
0.0
0
LINE
8
0
6
CONTINUOUS
10
0.026340
20
0.135563
30
0.0
11
0.025885
21
0.135005
31
0.0
0
LINE
8
0
6
CONTINUOUS
10
0.027659
20
0.137185
30
0.0
11
0.026340
21
0.135563
31
0.0
0
LINE
8
0
6
CONTINUOUS
10
0.028524
20
0.138248
30
0.0
11
0.027659
21
0.137185
31
0.0
0
LINE
8
0
6
CONTINUOUS
10
0.020059
20
0.130611
30
0.0
11
0.019605
21
0.130053
31
0.0
0
LINE
8
0
6
CONTINUOUS
10
0.021379
20
0.132233
30
0.0
11
0.020059
21
0.130611
31
0.0
0
LINE
8
0
6
CONTINUOUS
10
0.022243
20
0.133296
30
0.0
11
0.021379
21
0.132233
31
0.0
0
LINE
8
0
6
CONTINUOUS
10
0.046444
20
0.161392
30
0.0
11
0.045990
21
0.160833
31
0.0
0
LINE
8
0
6
CONTINUOUS
10
0.047763
20
0.163014
30
0.0
11
0.046444
21
0.161392
31
0.0
0
LINE
8
0
6
CONTINUOUS
10
0.048628
20
0.164077
30
0.0
11
0.047763
21
0.163014
31
0.0
0
LINE
8
0
6
CONTINUOUS
10
0.045499
20
0.158160
30
0.0
11
0.045045
21
0.157601
31
0.0
0
LINE
8
0
6
CONTINUOUS
10
0.046818
20
0.159782
30
0.0
11
0.045499
21
0.158160
31
0.0
0
LINE
8
0
6
CONTINUOUS
10
0.047683
20
0.160845
30
0.0
11
0.046818
21
0.159782
31
0.0
0
LINE
8
0
6
CONTINUOUS
10
0.044422
20
0.155036
30
0.0
11
0.043967
21
0.154478
31
0.0
0
LINE
8
0
6
CONTINUOUS
10
0.045741
20
0.156658
30
0.0
11
0.044422
21
0.155036
31
0.0
0
LINE
8
0
6
CONTINUOUS
10
0.046606
20
0.157721
30
0.0
11
0.045741
21
0.156658
31
0.0
0
LINE
8
0
6
CONTINUOUS
10
0.043219
20
0.152014
30
0.0
11
0.042764
21
0.151456
31
0.0
0
LINE
8
0
6
CONTINUOUS
10
0.044538
20
0.153636
30
0.0
11
0.043219
21
0.152014
31
0.0
0
LINE
8
0
6
CONTINUOUS
10
0.045403
20
0.154699
30
0.0
11
0.044538
21
0.153636
31
0.0
0
LINE
8
0
6
CONTINUOUS
10
0.069434
20
0.189666
30
0.0
11
0.069208
21
0.189389
31
0.0
0
LINE
8
0
6
CONTINUOUS
10
0.070691
20
0.191211
30
0.0
11
0.069434
21
0.189666
31
0.0
0
LINE
8
0
6
CONTINUOUS
10
0.071722
20
0.192479
30
0.0
11
0.070691
21
0.191211
31
0.0
0
LINE
8
0
6
CONTINUOUS
10
0.066834
20
0.184488
30
0.0
11
0.066609
21
0.184211
31
0.0
0
LINE
8
0
6
CONTINUOUS
10
0.068091
20
0.186034
30
0.0
11
0.066834
21
0.184488
31
0.0
0
LINE
8
0
6
CONTINUOUS
10
0.069123
20
0.187302
30
0.0
11
0.068091
21
0.186034
31
0.0
0
LINE
8
0
6
CONTINUOUS
10
0.067382
20
0.187335
30
0.0
11
0.066252
21
0.185945
31
0.0
0
LINE
8
0
6
CONTINUOUS
10
0.068571
20
0.188796
30
0.0
11
0.067382
21
0.187335
31
0.0
0
LINE
8
0
6
CONTINUOUS
10
0.068629
20
0.188867
30
0.0
11
0.068571
21
0.188796
31
0.0
0
LINE
8
0
6
CONTINUOUS
10
0.065507
20
0.182565
30
0.0
11
0.064376
21
0.181175
31
0.0
0
LINE
8
0
6
CONTINUOUS
10
0.066696
20
0.184026
30
0.0
11
0.065507
21
0.182565
31
0.0
0
LINE
8
0
6
CONTINUOUS
10
0.066754
20
0.184097
30
0.0
11
0.066696
21
0.184026
31
0.0
0
LINE
8
0
6
CONTINUOUS
10
0.063237
20
0.178116
30
0.0
11
0.062106
21
0.176726
31
0.0
0
LINE
8
0
6
CONTINUOUS
10
0.064425
20
0.179577
30
0.0
11
0.063237
21
0.178116
31
0.0
0
LINE
8
0
6
CONTINUOUS
10
0.064483
20
0.179649
30
0.0
11
0.064425
21
0.179577
31
0.0
0
LINE
8
0
6
CONTINUOUS
10
0.060725
20
0.173864
30
0.0
11
0.059594
21
0.172474
31
0.0
0
LINE
8
0
6
CONTINUOUS
10
0.061913
20
0.175325
30
0.0
11
0.060725
21
0.173864
31
0.0
0
LINE
8
0
6
CONTINUOUS
10
0.062070
20
0.181009
30
0.0
11
0.061116
21
0.179837
31
0.0
0
LINE
8
0
6
CONTINUOUS
10
0.063362
20
0.182598
30
0.0
11
0.062070
21
0.181009
31
0.0
0
LINE
8
0
6
CONTINUOUS
10
0.063701
20
0.183015
30
0.0
11
0.063362
21
0.182598
31
0.0
0
LINE
8
0
6
CONTINUOUS
10
0.060924
20
0.177110
30
0.0
11
0.059970
21
0.175938
31
0.0
0
LINE
8
0
6
CONTINUOUS
10
0.062216
20
0.178699
30
0.0
11
0.060924
21
0.177110
31
0.0
0
LINE
8
0
6
CONTINUOUS
10
0.062555
20
0.179115
30
0.0
11
0.062216
21
0.178699
31
0.0
0
LINE
8
0
6
CONTINUOUS
10
0.059288
20
0.173609
30
0.0
11
0.058335
21
0.172436
31
0.0
0
LINE
8
0
6
CONTINUOUS
10
0.060581
20
0.175198
30
0.0
11
0.059288
21
0.173609
31
0.0
0
LINE
8
0
6
CONTINUOUS
10
0.060919
20
0.175614
30
0.0
11
0.060581
21
0.175198
31
0.0
0
LINE
8
0
6
CONTINUOUS
10
0.057630
20
0.170126
30
0.0
11
0.056677
21
0.168953
31
0.0
0
LINE
8
0
6
CONTINUOUS
10
0.058923
20
0.171715
30
0.0
11
0.057630
21
0.170126
31
0.0
0
LINE
8
0
6
CONTINUOUS
10
0.059262
20
0.172131
30
0.0
11
0.058923
21
0.171715
31
0.0
0
LINE
8
0
6
CONTINUOUS
10
0.055753
20
0.166821
30
0.0
11
0.054800
21
0.165648
31
0.0
0
LINE
8
0
6
CONTINUOUS
10
0.057046
20
0.168410
30
0.0
11
0.055753
21
0.166821
31
0.0
0
LINE
8
0
6
CONTINUOUS
10
0.057385
20
0.168826
30
0.0
11
0.057046
21
0.168410
31
0.0
0
LINE
8
0
6
CONTINUOUS
10
0.054804
20
0.171901
30
0.0
11
0.054070
21
0.170999
31
0.0
0
LINE
8
0
6
CONTINUOUS
10
0.056142
20
0.173547
30
0.0
11
0.054804
21
0.171901
31
0.0
0
LINE
8
0
6
CONTINUOUS
10
0.056746
20
0.174289
30
0.0
11
0.056142
21
0.173547
31
0.0
0
LINE
8
0
6
CONTINUOUS
10
0.053744
20
0.168560
30
0.0
11
0.053010
21
0.167658
31
0.0
0
LINE
8
0
6
CONTINUOUS
10
0.055082
20
0.170205
30
0.0
11
0.053744
21
0.168560
31
0.0
0
LINE
8
0
6
CONTINUOUS
10
0.055686
20
0.170948
30
0.0
11
0.055082
21
0.170205
31
0.0
0
LINE
8
0
6
CONTINUOUS
10
0.052620
20
0.165271
30
0.0
11
0.051886
21
0.164368
31
0.0
0
LINE
8
0
6
CONTINUOUS
10
0.053958
20
0.166916
30
0.0
11
0.052620
21
0.165271
31
0.0
0
LINE
8
0
6
CONTINUOUS
10
0.054562
20
0.167659
30
0.0
11
0.053958
21
0.166916
31
0.0
0
LINE
8
0
6
CONTINUOUS
10
0.051288
20
0.162151
30
0.0
11
0.050554
21
0.161248
31
0.0
0
LINE
8
0
6
CONTINUOUS
10
0.052626
20
0.163796
30
0.0
11
0.051288
21
0.162151
31
0.0
0
LINE
8
0
6
CONTINUOUS
10
0.053230
20
0.164539
30
0.0
11
0.052626
21
0.163796
31
0.0
0
LINE
8
0
6
CONTINUOUS
10
0.049620
20
0.159304
30
0.0
11
0.048886
21
0.158401
31
0.0
0
LINE
8
0
6
CONTINUOUS
10
0.050958
20
0.160949
30
0.0
11
0.049620
21
0.159304
31
0.0
0
LINE
8
0
6
CONTINUOUS
10
0.051563
20
0.161692
30
0.0
11
0.050958
21
0.160949
31
0.0
0
LINE
8
0
6
CONTINUOUS
10
0.046696
20
0.165187
30
0.0
11
0.046242
21
0.164628
31
0.0
0
LINE
8
0
6
CONTINUOUS
10
0.048016
20
0.166809
30
0.0
11
0.046696
21
0.165187
31
0.0
0
LINE
8
0
6
CONTINUOUS
10
0.048881
20
0.167872
30
0.0
11
0.048016
21
0.166809
31
0.0
0
LINE
8
0
6
CONTINUOUS
10
0.071821
20
0.195015
30
0.0
11
0.071595
21
0.194738
31
0.0
0
LINE
8
0
6
CONTINUOUS
10
0.073078
20
0.196561
30
0.0
11
0.071821
21
0.195015
31
0.0
0
LINE
8
0
6
CONTINUOUS
10
0.074109
20
0.197829
30
0.0
11
0.073078
21
0.196561
31
0.0
0
LINE
8
0
6
CONTINUOUS
10
0.069311
20
0.192062
30
0.0
11
0.068180
21
0.190672
31
0.0
0
LINE
8
0
6
CONTINUOUS
10
0.070499
20
0.193523
30
0.0
11
0.069311
21
0.192062
31
0.0
0
LINE
8
0
6
CONTINUOUS
10
0.070557
20
0.193594
30
0.0
11
0.070499
21
0.193523
31
0.0
0
LINE
8
0
6
CONTINUOUS
10
0.075266
20
0.199532
30
0.0
11
0.073987
21
0.197959
31
0.0
0
LINE
8
0
6
CONTINUOUS
10
0.075559
20
0.199892
30
0.0
11
0.075266
21
0.199532
31
0.0
0
LINE
8
0
6
CONTINUOUS
10
0.063394
20
0.184764
30
0.0
11
0.062441
21
0.183592
31
0.0
0
LINE
8
0
6
CONTINUOUS
10
0.064687
20
0.186353
30
0.0
11
0.063394
21
0.184764
31
0.0
0
LINE
8
0
6
CONTINUOUS
10
0.065025
20
0.186769
30
0.0
11
0.064687
21
0.186353
31
0.0
0
LINE
8
0
6
CONTINUOUS
10
0.055430
20
0.175596
30
0.0
11
0.054696
21
0.174693
31
0.0
0
LINE
8
0
6
CONTINUOUS
10
0.056768
20
0.177241
30
0.0
11
0.055430
21
0.175596
31
0.0
0
LINE
8
0
6
CONTINUOUS
10
0.057372
20
0.177984
30
0.0
11
0.056768
21
0.177241
31
0.0
0
LINE
8
0
6
CONTINUOUS
10
0.038663
20
0.155371
30
0.0
11
0.037799
21
0.154308
31
0.0
0
LINE
8
0
6
CONTINUOUS
10
0.039983
20
0.156993
30
0.0
11
0.038663
21
0.155371
31
0.0
0
LINE
8
0
6
CONTINUOUS
10
0.040437
20
0.157551
30
0.0
11
0.039983
21
0.156993
31
0.0
0
LINE
8
0
6
CONTINUOUS
10
0.025713
20
0.135048
30
0.0
11
0.026353
21
0.135114
31
0.0
0
LINE
8
0
6
CONTINUOUS
10
0.026353
20
0.135114
30
0.0
11
0.026551
21
0.135358
31
0.0
0
LINE
8
0
6
CONTINUOUS
10
0.026551
20
0.135358
30
0.0
11
0.027129
21
0.136068
31
0.0
0
LINE
8
0
6
CONTINUOUS
10
0.027129
20
0.136068
30
0.0
11
0.028059
21
0.137212
31
0.0
0
LINE
8
0
6
CONTINUOUS
10
0.028059
20
0.137212
30
0.0
11
0.029318
21
0.138759
31
0.0
0
LINE
8
0
6
CONTINUOUS
10
0.029561
20
0.140694
30
0.0
11
0.027955
21
0.138719
31
0.0
0
LINE
8
0
6
CONTINUOUS
10
0.029318
20
0.138759
30
0.0
11
0.030877
21
0.140677
31
0.0
0
LINE
8
0
6
CONTINUOUS
10
0.030543
20
0.141902
30
0.0
11
0.029561
21
0.140694
31
0.0
0
LINE
8
0
6
CONTINUOUS
10
0.030877
20
0.140677
30
0.0
11
0.032712
21
0.142933
31
0.0
0
LINE
8
0
6
CONTINUOUS
10
0.033598
20
0.145658
30
0.0
11
0.033182
21
0.145146
31
0.0
0
LINE
8
0
6
CONTINUOUS
10
0.032712
20
0.142933
30
0.0
11
0.034797
21
0.145496
31
0.0
0
LINE
8
0
6
CONTINUOUS
10
0.035976
20
0.148582
30
0.0
11
0.033598
21
0.145658
31
0.0
0
LINE
8
0
6
CONTINUOUS
10
0.034797
20
0.145496
30
0.0
11
0.037106
21
0.148335
31
0.0
0
LINE
8
0
6
CONTINUOUS
10
0.038559
20
0.151756
30
0.0
11
0.035976
21
0.148582
31
0.0
0
LINE
8
0
6
CONTINUOUS
10
0.037106
20
0.148335
30
0.0
11
0.039613
21
0.151417
31
0.0
0
LINE
8
0
6
CONTINUOUS
10
0.041318
20
0.155149
30
0.0
11
0.038559
21
0.151756
31
0.0
0
LINE
8
0
6
CONTINUOUS
10
0.039613
20
0.151417
30
0.0
11
0.042292
21
0.154710
31
0.0
0
LINE
8
0
6
CONTINUOUS
10
0.044228
20
0.158727
30
0.0
11
0.041318
21
0.155149
31
0.0
0
LINE
8
0
6
CONTINUOUS
10
0.042292
20
0.154710
30
0.0
11
0.045116
21
0.158183
31
0.0
0
LINE
8
0
6
CONTINUOUS
10
0.045961
20
0.160857
30
0.0
11
0.044228
21
0.158727
31
0.0
0
LINE
8
0
6
CONTINUOUS
10
0.045116
20
0.158183
30
0.0
11
0.048061
21
0.161804
31
0.0
0
LINE
8
0
6
CONTINUOUS
10
0.050293
20
0.166183
30
0.0
11
0.048600
21
0.164101
31
0.0
0
LINE
8
0
6
CONTINUOUS
10
0.048061
20
0.161804
30
0.0
11
0.051006
21
0.165424
31
0.0
0
LINE
8
0
6
CONTINUOUS
10
0.053203
20
0.169760
30
0.0
11
0.050293
21
0.166183
31
0.0
0
LINE
8
0
6
CONTINUOUS
10
0.051006
20
0.165424
30
0.0
11
0.053831
21
0.168897
31
0.0
0
LINE
8
0
6
CONTINUOUS
10
0.055963
20
0.173153
30
0.0
11
0.053203
21
0.169760
31
0.0
0
LINE
8
0
6
CONTINUOUS
10
0.053831
20
0.168897
30
0.0
11
0.056510
21
0.172190
31
0.0
0
LINE
8
0
6
CONTINUOUS
10
0.058545
20
0.176328
30
0.0
11
0.055963
21
0.173153
31
0.0
0
LINE
8
0
6
CONTINUOUS
10
0.056510
20
0.172190
30
0.0
11
0.059017
21
0.175272
31
0.0
0
LINE
8
0
6
CONTINUOUS
10
0.060923
20
0.179252
30
0.0
11
0.058545
21
0.176328
31
0.0
0
LINE
8
0
6
CONTINUOUS
10
0.059017
20
0.175272
30
0.0
11
0.061326
21
0.178111
31
0.0
0
LINE
8
0
6
CONTINUOUS
10
0.063071
20
0.181892
30
0.0
11
0.060923
21
0.179252
31
0.0
0
LINE
8
0
6
CONTINUOUS
10
0.061326
20
0.178111
30
0.0
11
0.063411
21
0.180674
31
0.0
0
LINE
8
0
6
CONTINUOUS
10
0.064961
20
0.184215
30
0.0
11
0.063071
21
0.181892
31
0.0
0
LINE
8
0
6
CONTINUOUS
10
0.063411
20
0.180674
30
0.0
11
0.065246
21
0.182930
31
0.0
0
LINE
8
0
6
CONTINUOUS
10
0.066567
20
0.186190
30
0.0
11
0.064961
21
0.184215
31
0.0
0
LINE
8
0
6
CONTINUOUS
10
0.065246
20
0.182930
30
0.0
11
0.066806
21
0.184848
31
0.0
0
LINE
8
0
6
CONTINUOUS
10
0.067863
20
0.187784
30
0.0
11
0.066567
21
0.186190
31
0.0
0
LINE
8
0
6
CONTINUOUS
10
0.066806
20
0.184848
30
0.0
11
0.068064
21
0.186395
31
0.0
0
LINE
8
0
6
CONTINUOUS
10
0.068822
20
0.188962
30
0.0
11
0.067863
21
0.187784
31
0.0
0
LINE
8
0
6
CONTINUOUS
10
0.068064
20
0.186395
30
0.0
11
0.068995
21
0.187539
31
0.0
0
LINE
8
0
6
CONTINUOUS
10
0.069417
20
0.189694
30
0.0
11
0.068822
21
0.188962
31
0.0
0
LINE
8
0
6
CONTINUOUS
10
0.068995
20
0.187539
30
0.0
11
0.069573
21
0.188249
31
0.0
0
LINE
8
0
6
CONTINUOUS
10
0.069771
20
0.188493
30
0.0
11
0.069622
21
0.189945
31
0.0
0
LINE
8
0
6
CONTINUOUS
10
0.069573
20
0.188249
30
0.0
11
0.069771
21
0.188493
31
0.0
0
LINE
8
0
6
CONTINUOUS
10
-0.068967
20
-0.217854
30
0.0
11
-0.067038
21
-0.217976
31
0.0
0
LINE
8
0
6
CONTINUOUS
10
-0.068049
20
-0.196661
30
0.0
11
-0.068967
21
-0.217854
31
0.0
0
LINE
8
0
6
CONTINUOUS
10
-0.067038
20
-0.217976
30
0.0
11
-0.062380
21
-0.218271
31
0.0
0
LINE
8
0
6
CONTINUOUS
10
-0.062380
20
-0.218271
30
0.0
11
-0.057722
21
-0.218566
31
0.0
0
LINE
8
0
6
CONTINUOUS
10
-0.057722
20
-0.218566
30
0.0
11
-0.055793
21
-0.218688
31
0.0
0
LINE
8
0
6
CONTINUOUS
10
-0.055793
20
-0.218688
30
0.0
11
-0.054856
21
-0.197083
31
0.0
0
LINE
8
0
6
CONTINUOUS
10
-0.067592
20
-0.174389
30
0.0
11
-0.068049
21
-0.196661
31
0.0
0
LINE
8
0
6
CONTINUOUS
10
-0.054856
20
-0.197083
30
0.0
11
-0.054394
21
-0.174659
31
0.0
0
LINE
8
0
6
CONTINUOUS
10
-0.067116
20
-0.151065
30
0.0
11
-0.067592
21
-0.174389
31
0.0
0
LINE
8
0
6
CONTINUOUS
10
-0.054394
20
-0.174659
30
0.0
11
-0.053922
21
-0.151465
31
0.0
0
LINE
8
0
6
CONTINUOUS
10
-0.066136
20
-0.126741
30
0.0
11
-0.067116
21
-0.151065
31
0.0
0
LINE
8
0
6
CONTINUOUS
10
-0.053922
20
-0.151465
30
0.0
11
-0.052959
21
-0.127521
31
0.0
0
LINE
8
0
6
CONTINUOUS
10
-0.064158
20
-0.101468
30
0.0
11
-0.066136
21
-0.126741
31
0.0
0
LINE
8
0
6
CONTINUOUS
10
-0.052959
20
-0.127521
30
0.0
11
-0.051030
21
-0.102850
31
0.0
0
LINE
8
0
6
CONTINUOUS
10
-0.060686
20
-0.075296
30
0.0
11
-0.064158
21
-0.101468
31
0.0
0
LINE
8
0
6
CONTINUOUS
10
-0.051030
20
-0.102850
30
0.0
11
-0.047667
21
-0.077473
31
0.0
0
LINE
8
0
6
CONTINUOUS
10
-0.055326
20
-0.048789
30
0.0
11
-0.060686
21
-0.075296
31
0.0
0
LINE
8
0
6
CONTINUOUS
10
-0.047667
20
-0.077473
30
0.0
11
-0.042440
21
-0.051610
31
0.0
0
LINE
8
0
6
CONTINUOUS
10
-0.042820
20
-0.051526
30
0.0
11
-0.041620
21
-0.051790
31
0.0
0
LINE
8
0
6
CONTINUOUS
10
-0.040335
20
-0.052068
30
0.0
11
-0.040037
21
-0.051046
31
0.0
0
LINE
8
0
6
CONTINUOUS
10
-0.040037
20
-0.051046
30
0.0
11
-0.027096
21
-0.006533
31
0.0
0
LINE
8
0
6
CONTINUOUS
10
-0.026842
20
-0.005660
30
0.0
11
-0.027027
21
-0.005616
31
0.0
0
LINE
8
0
6
CONTINUOUS
10
-0.027096
20
-0.006533
30
0.0
11
-0.026842
21
-0.005660
31
0.0
0
LINE
8
0
6
CONTINUOUS
10
-0.058855
20
-0.048023
30
0.0
11
-0.056994
21
-0.048426
31
0.0
0
LINE
8
0
6
CONTINUOUS
10
-0.050831
20
-0.049771
30
0.0
11
-0.049191
21
-0.050129
31
0.0
0
LINE
8
0
6
CONTINUOUS
10
-0.059943
20
-0.047789
30
0.0
11
-0.058855
21
-0.048023
31
0.0
0
LINE
8
0
6
CONTINUOUS
10
-0.044321
20
-0.051197
30
0.0
11
-0.042820
21
-0.051526
31
0.0
0
LINE
8
0
6
CONTINUOUS
10
-0.052442
20
-0.049418
30
0.0
11
-0.050831
21
-0.049771
31
0.0
0
LINE
8
0
6
CONTINUOUS
10
-0.041310
20
-0.051858
30
0.0
11
-0.040460
21
-0.052041
31
0.0
0
LINE
8
0
6
CONTINUOUS
10
-0.056994
20
-0.048426
30
0.0
11
-0.054868
21
-0.048889
31
0.0
0
LINE
8
0
6
CONTINUOUS
10
-0.060385
20
-0.047696
30
0.0
11
-0.059943
21
-0.047789
31
0.0
0
LINE
8
0
6
CONTINUOUS
10
-0.060926
20
-0.047578
30
0.0
11
-0.060385
21
-0.047696
31
0.0
0
LINE
8
0
6
CONTINUOUS
10
-0.054868
20
-0.048889
30
0.0
11
-0.052442
21
-0.049418
31
0.0
0
LINE
8
0
6
CONTINUOUS
10
-0.045908
20
-0.050848
30
0.0
11
-0.044321
21
-0.051197
31
0.0
0
LINE
8
0
6
CONTINUOUS
10
-0.049191
20
-0.050129
30
0.0
11
-0.047533
21
-0.050492
31
0.0
0
LINE
8
0
6
CONTINUOUS
10
-0.047533
20
-0.050492
30
0.0
11
-0.045908
21
-0.050848
31
0.0
0
LINE
8
0
6
CONTINUOUS
10
-0.075996
20
-0.044279
30
0.0
11
-0.060926
21
-0.047578
31
0.0
0
LINE
8
0
6
CONTINUOUS
10
-0.038528
20
-0.002939
30
0.0
11
-0.075993
21
0.005741
31
0.0
0
LINE
8
0
6
CONTINUOUS
10
-0.036707
20
-0.003361
30
0.0
11
-0.038528
21
-0.002939
31
0.0
0
LINE
8
0
6
CONTINUOUS
10
-0.076852
20
0.005881
30
0.0
11
-0.076851
21
0.004941
31
0.0
0
LINE
8
0
6
CONTINUOUS
10
-0.075993
20
0.005741
30
0.0
11
-0.076839
21
0.005937
31
0.0
0
LINE
8
0
6
CONTINUOUS
10
-0.029596
20
-0.005012
30
0.0
11
-0.031279
21
-0.004620
31
0.0
0
LINE
8
0
6
CONTINUOUS
10
-0.041424
20
-0.051833
30
0.0
11
-0.041310
21
-0.051858
31
0.0
0
LINE
8
0
6
CONTINUOUS
10
-0.041620
20
-0.051790
30
0.0
11
-0.041424
21
-0.051833
31
0.0
0
LINE
8
0
6
CONTINUOUS
10
-0.033065
20
-0.004205
30
0.0
11
-0.034886
21
-0.003783
31
0.0
0
LINE
8
0
6
CONTINUOUS
10
-0.031279
20
-0.004620
30
0.0
11
-0.033065
21
-0.004205
31
0.0
0
LINE
8
0
6
CONTINUOUS
10
-0.034886
20
-0.003783
30
0.0
11
-0.036707
21
-0.003361
31
0.0
0
LINE
8
0
6
CONTINUOUS
10
-0.027027
20
-0.005616
30
0.0
11
-0.028161
21
-0.005349
31
0.0
0
LINE
8
0
6
CONTINUOUS
10
-0.028161
20
-0.005349
30
0.0
11
-0.029596
21
-0.005012
31
0.0
0
LINE
8
0
6
CONTINUOUS
10
-0.076844
20
-0.044093
30
0.0
11
-0.075996
21
-0.044279
31
0.0
0
LINE
8
0
6
CONTINUOUS
10
0.052624
20
0.170118
30
0.0
11
0.053550
21
0.171422
31
0.0
0
LINE
8
0
6
CONTINUOUS
10
0.068534
20
0.190398
30
0.0
11
0.069496
21
0.192183
31
0.0
0
LINE
8
0
6
CONTINUOUS
10
0.066097
20
0.188380
30
0.0
11
0.067144
21
0.189957
31
0.0
0
LINE
8
0
6
CONTINUOUS
10
0.065898
20
0.188008
30
0.0
11
0.066097
21
0.188380
31
0.0
0
LINE
8
0
6
CONTINUOUS
10
0.060842
20
0.182362
30
0.0
11
0.061829
21
0.183845
31
0.0
0
LINE
8
0
6
CONTINUOUS
10
0.049976
20
0.163218
30
0.0
11
0.051341
21
0.164811
31
0.0
0
LINE
8
0
6
CONTINUOUS
10
0.049976
20
0.163218
30
0.0
11
0.049848
21
0.162996
31
0.0
0
LINE
8
0
6
CONTINUOUS
10
0.044091
20
0.159306
30
0.0
11
0.045392
21
0.160942
31
0.0
0
LINE
8
0
6
CONTINUOUS
10
0.044091
20
0.159306
30
0.0
11
0.043929
21
0.158510
31
0.0
0
LINE
8
0
6
CONTINUOUS
10
0.024919
20
0.136718
30
0.0
11
0.024650
21
0.136009
31
0.0
0
LINE
8
0
6
CONTINUOUS
10
0.025335
20
0.137130
30
0.0
11
0.026398
21
0.138210
31
0.0
0
LINE
8
0
6
CONTINUOUS
10
0.023944
20
0.138522
30
0.0
11
0.023157
21
0.137396
31
0.0
0
LINE
8
0
6
CONTINUOUS
10
0.024033
20
0.138609
30
0.0
11
0.023944
21
0.138522
31
0.0
0
LINE
8
0
6
CONTINUOUS
10
0.025768
20
0.140020
30
0.0
11
0.026314
21
0.140217
31
0.0
0
LINE
8
0
6
CONTINUOUS
10
0.025523
20
0.139933
30
0.0
11
0.025768
21
0.140020
31
0.0
0
LINE
8
0
6
CONTINUOUS
10
0.041993
20
0.151954
30
0.0
11
0.041560
21
0.151378
31
0.0
0
LINE
8
0
6
CONTINUOUS
10
0.041939
20
0.153055
30
0.0
11
0.041634
21
0.152375
31
0.0
0
LINE
8
0
6
CONTINUOUS
10
0.036432
20
0.150117
30
0.0
11
0.036036
21
0.149470
31
0.0
0
LINE
8
0
6
CONTINUOUS
10
0.037275
20
0.150928
30
0.0
11
0.036432
21
0.150117
31
0.0
0
LINE
8
0
6
CONTINUOUS
10
0.036575
20
0.152090
30
0.0
11
0.036333
21
0.151694
31
0.0
0
LINE
8
0
6
CONTINUOUS
10
0.031548
20
0.145546
30
0.0
11
0.030028
21
0.144099
31
0.0
0
LINE
8
0
6
CONTINUOUS
10
0.029971
20
0.146671
30
0.0
11
0.029257
21
0.145485
31
0.0
0
LINE
8
0
6
CONTINUOUS
10
0.031494
20
0.148127
30
0.0
11
0.029971
21
0.146671
31
0.0
0
LINE
8
0
6
CONTINUOUS
10
0.042004
20
0.153124
30
0.0
11
0.043231
21
0.154699
31
0.0
0
LINE
8
0
6
CONTINUOUS
10
0.037376
20
0.156418
30
0.0
11
0.038813
21
0.157945
31
0.0
0
LINE
8
0
6
CONTINUOUS
10
0.036964
20
0.155502
30
0.0
11
0.036787
21
0.155130
31
0.0
0
LINE
8
0
6
CONTINUOUS
10
0.054724
20
0.167658
30
0.0
11
0.054002
21
0.166445
31
0.0
0
LINE
8
0
6
CONTINUOUS
10
0.052318
20
0.169720
30
0.0
11
0.051942
21
0.168731
31
0.0
0
LINE
8
0
6
CONTINUOUS
10
0.045759
20
0.166522
30
0.0
11
0.046693
21
0.167885
31
0.0
0
LINE
8
0
6
CONTINUOUS
10
0.045350
20
0.162964
30
0.0
11
0.046235
21
0.164256
31
0.0
0
LINE
8
0
6
CONTINUOUS
10
0.059579
20
0.178204
30
0.0
11
0.060693
21
0.179938
31
0.0
0
LINE
8
0
6
CONTINUOUS
10
0.068666
20
0.193737
30
0.0
11
0.069165
21
0.194608
31
0.0
0
LINE
8
0
6
CONTINUOUS
10
0.060679
20
0.182140
30
0.0
11
0.060110
21
0.180931
31
0.0
0
LINE
8
0
6
CONTINUOUS
10
0.054522
20
0.174626
30
0.0
11
0.054619
21
0.174785
31
0.0
0
LINE
8
0
6
CONTINUOUS
10
0.055258
20
0.177817
30
0.0
11
0.055543
21
0.178237
31
0.0
0
LINE
8
0
6
CONTINUOUS
10
0.019264
20
0.131626
30
0.0
11
0.020530
21
0.132923
31
0.0
0
LINE
8
0
6
CONTINUOUS
10
0.036733
20
0.152401
30
0.0
11
0.036575
21
0.152090
31
0.0
0
LINE
8
0
6
CONTINUOUS
10
0.071055
20
0.195639
30
0.0
11
0.071054
21
0.195509
31
0.0
0
ENDSEC
0
EOF
