999
unknown String-ID: 20550
0
SECTION
2
HEADER
9
$ACADVER
1
AC1009
9
$DWGCODEPAGE
3
unknown String-ID: 20561
0
ENDSEC
0
SECTION
2
TABLES
0
TABLE
2
LAYER
70
1
0
LAYER
2
0
70
0
62
7
6
CONTINUOUS
0
ENDTAB
0
ENDSEC
0
SECTION
2
ENTITIES
0
LINE
8
0
6
CONTINUOUS
10
-0.052128
20
0.154667
30
0.0
11
-0.050108
21
0.147341
31
0.0
0
LINE
8
0
6
CONTINUOUS
10
-0.015138
20
0.056659
30
0.0
11
-0.013609
21
0.022930
31
0.0
0
LINE
8
0
6
CONTINUOUS
10
-0.016272
20
0.082601
30
0.0
11
-0.015138
21
0.056659
31
0.0
0
LINE
8
0
6
CONTINUOUS
10
-0.017344
20
0.103012
30
0.0
11
-0.016272
21
0.082601
31
0.0
0
LINE
8
0
6
CONTINUOUS
10
-0.018322
20
0.116761
30
0.0
11
-0.017344
21
0.103012
31
0.0
0
LINE
8
0
6
CONTINUOUS
10
-0.053685
20
0.185221
30
0.0
11
-0.054239
21
0.178398
31
0.0
0
LINE
8
0
6
CONTINUOUS
10
-0.052700
20
0.158425
30
0.0
11
-0.052148
21
0.154801
31
0.0
0
LINE
8
0
6
CONTINUOUS
10
-0.053771
20
0.166286
30
0.0
11
-0.052700
21
0.158425
31
0.0
0
LINE
8
0
6
CONTINUOUS
10
-0.000000
20
0.218688
30
0.0
11
-0.012608
21
0.218244
31
0.0
0
LINE
8
0
6
CONTINUOUS
10
-0.012608
20
0.218244
30
0.0
11
-0.024977
21
0.216540
31
0.0
0
LINE
8
0
6
CONTINUOUS
10
-0.024977
20
0.216540
30
0.0
11
-0.033938
21
0.214071
31
0.0
0
LINE
8
0
6
CONTINUOUS
10
-0.041806
20
0.209012
30
0.0
11
-0.047043
21
0.203662
31
0.0
0
LINE
8
0
6
CONTINUOUS
10
-0.040733
20
0.209817
30
0.0
11
-0.041806
21
0.209012
31
0.0
0
LINE
8
0
6
CONTINUOUS
10
-0.033938
20
0.214071
30
0.0
11
-0.040733
21
0.209817
31
0.0
0
LINE
8
0
6
CONTINUOUS
10
-0.023903
20
0.126022
30
0.0
11
-0.019505
21
0.121064
31
0.0
0
LINE
8
0
6
CONTINUOUS
10
-0.044026
20
0.138904
30
0.0
11
-0.046961
21
0.142448
31
0.0
0
LINE
8
0
6
CONTINUOUS
10
-0.047510
20
0.142356
30
0.0
11
-0.044527
21
0.138821
31
0.0
0
LINE
8
0
6
CONTINUOUS
10
-0.036858
20
0.134028
30
0.0
11
-0.040513
21
0.136108
31
0.0
0
LINE
8
0
6
CONTINUOUS
10
-0.040985
20
0.136046
30
0.0
11
-0.037300
21
0.133987
31
0.0
0
LINE
8
0
6
CONTINUOUS
10
-0.025482
20
0.204349
30
0.0
11
-0.012752
21
0.206300
31
0.0
0
LINE
8
0
6
CONTINUOUS
10
-0.037300
20
0.133987
30
0.0
11
-0.028753
21
0.129930
31
0.0
0
LINE
8
0
6
CONTINUOUS
10
-0.028400
20
0.129923
30
0.0
11
-0.036858
21
0.134028
31
0.0
0
LINE
8
0
6
CONTINUOUS
10
-0.049396
20
0.146985
30
0.0
11
-0.051080
21
0.153945
31
0.0
0
LINE
8
0
6
CONTINUOUS
10
-0.051847
20
0.153889
30
0.0
11
-0.049992
21
0.146883
31
0.0
0
LINE
8
0
6
CONTINUOUS
10
-0.028714
20
0.129838
30
0.0
11
-0.023903
21
0.126022
31
0.0
0
LINE
8
0
6
CONTINUOUS
10
-0.047043
20
0.203662
30
0.0
11
-0.050499
21
0.197694
31
0.0
0
LINE
8
0
6
CONTINUOUS
10
-0.013609
20
0.022930
30
0.0
11
-0.012349
21
0.007231
31
0.0
0
LINE
8
0
6
CONTINUOUS
10
-0.020254
20
0.121908
30
0.0
11
-0.017379
21
0.114252
31
0.0
0
LINE
8
0
6
CONTINUOUS
10
-0.052148
20
0.154801
30
0.0
11
-0.052128
21
0.154667
31
0.0
0
LINE
8
0
6
CONTINUOUS
10
-0.002608
20
0.002930
30
0.0
11
0.000000
21
0.002834
31
0.0
0
LINE
8
0
6
CONTINUOUS
10
-0.005426
20
0.003210
30
0.0
11
-0.002608
21
0.002930
31
0.0
0
LINE
8
0
6
CONTINUOUS
10
-0.007833
20
0.003656
30
0.0
11
-0.005426
21
0.003210
31
0.0
0
LINE
8
0
6
CONTINUOUS
10
-0.009682
20
0.004237
30
0.0
11
-0.007833
21
0.003656
31
0.0
0
LINE
8
0
6
CONTINUOUS
10
-0.010295
20
0.004580
30
0.0
11
-0.009682
21
0.004237
31
0.0
0
LINE
8
0
6
CONTINUOUS
10
-0.010915
20
0.004928
30
0.0
11
-0.010295
21
0.004580
31
0.0
0
LINE
8
0
6
CONTINUOUS
10
-0.011228
20
0.005206
30
0.0
11
-0.010915
21
0.004928
31
0.0
0
LINE
8
0
6
CONTINUOUS
10
-0.011676
20
0.005613
30
0.0
11
-0.011228
21
0.005206
31
0.0
0
LINE
8
0
6
CONTINUOUS
10
-0.012142
20
0.006035
30
0.0
11
-0.011676
21
0.005613
31
0.0
0
LINE
8
0
6
CONTINUOUS
10
-0.012349
20
0.007231
30
0.0
11
-0.012343
21
0.007089
31
0.0
0
LINE
8
0
6
CONTINUOUS
10
-0.012343
20
0.007089
30
0.0
11
-0.012142
21
0.006035
31
0.0
0
LINE
8
0
6
CONTINUOUS
10
-0.008121
20
0.100922
30
0.0
11
-0.011243
21
0.103037
31
0.0
0
LINE
8
0
6
CONTINUOUS
10
-0.003834
20
0.100000
30
0.0
11
-0.008121
21
0.100922
31
0.0
0
LINE
8
0
6
CONTINUOUS
10
0.000000
20
0.099724
30
0.0
11
-0.003834
21
0.100000
31
0.0
0
LINE
8
0
6
CONTINUOUS
10
-0.011243
20
0.103037
30
0.0
11
-0.013498
21
0.112296
31
0.0
0
LINE
8
0
6
CONTINUOUS
10
-0.013498
20
0.112296
30
0.0
11
-0.017214
21
0.121123
31
0.0
0
LINE
8
0
6
CONTINUOUS
10
-0.023533
20
0.126508
30
0.0
11
-0.028400
21
0.129923
31
0.0
0
LINE
8
0
6
CONTINUOUS
10
-0.040066
20
0.198292
30
0.0
11
-0.034395
21
0.201536
31
0.0
0
LINE
8
0
6
CONTINUOUS
10
-0.034395
20
0.201536
30
0.0
11
-0.025482
21
0.204349
31
0.0
0
LINE
8
0
6
CONTINUOUS
10
-0.012752
20
0.206300
30
0.0
11
-0.000001
21
0.206887
31
0.0
0
LINE
8
0
6
CONTINUOUS
10
-0.052058
20
0.168861
30
0.0
11
-0.051413
21
0.175481
31
0.0
0
LINE
8
0
6
CONTINUOUS
10
-0.044921
20
0.193689
30
0.0
11
-0.040066
21
0.198292
31
0.0
0
LINE
8
0
6
CONTINUOUS
10
-0.048257
20
0.187736
30
0.0
11
-0.044921
21
0.193689
31
0.0
0
LINE
8
0
6
CONTINUOUS
10
-0.051080
20
0.153945
30
0.0
11
-0.052037
21
0.161628
31
0.0
0
LINE
8
0
6
CONTINUOUS
10
-0.020290
20
0.125043
30
0.0
11
-0.023533
21
0.126508
31
0.0
0
LINE
8
0
6
CONTINUOUS
10
-0.017214
20
0.121123
30
0.0
11
-0.019966
21
0.124896
31
0.0
0
LINE
8
0
6
CONTINUOUS
10
-0.019966
20
0.124896
30
0.0
11
-0.020290
21
0.125043
31
0.0
0
LINE
8
0
6
CONTINUOUS
10
-0.046961
20
0.142448
30
0.0
11
-0.049396
21
0.146985
31
0.0
0
LINE
8
0
6
CONTINUOUS
10
-0.049992
20
0.146883
30
0.0
11
-0.047510
21
0.142356
31
0.0
0
LINE
8
0
6
CONTINUOUS
10
-0.040513
20
0.136108
30
0.0
11
-0.044026
21
0.138904
31
0.0
0
LINE
8
0
6
CONTINUOUS
10
-0.044527
20
0.138821
30
0.0
11
-0.040985
21
0.136046
31
0.0
0
LINE
8
0
6
CONTINUOUS
10
-0.054015
20
0.171075
30
0.0
11
-0.053994
21
0.170711
31
0.0
0
LINE
8
0
6
CONTINUOUS
10
-0.054239
20
0.178398
30
0.0
11
-0.054015
21
0.171075
31
0.0
0
LINE
8
0
6
CONTINUOUS
10
-0.053994
20
0.170711
30
0.0
11
-0.053771
21
0.166286
31
0.0
0
LINE
8
0
6
CONTINUOUS
10
-0.052037
20
0.161628
30
0.0
11
-0.052058
21
0.168861
31
0.0
0
LINE
8
0
6
CONTINUOUS
10
-0.050499
20
0.197694
30
0.0
11
-0.052410
21
0.191726
31
0.0
0
LINE
8
0
6
CONTINUOUS
10
-0.050047
20
0.181784
30
0.0
11
-0.048257
21
0.187736
31
0.0
0
LINE
8
0
6
CONTINUOUS
10
-0.052410
20
0.191726
30
0.0
11
-0.053685
21
0.185221
31
0.0
0
LINE
8
0
6
CONTINUOUS
10
-0.051413
20
0.175481
30
0.0
11
-0.050047
21
0.181784
31
0.0
0
LINE
8
0
6
CONTINUOUS
10
0.050108
20
0.147340
30
0.0
11
0.052128
21
0.154667
31
0.0
0
LINE
8
0
6
CONTINUOUS
10
0.013611
20
0.022930
30
0.0
11
0.015139
21
0.056659
31
0.0
0
LINE
8
0
6
CONTINUOUS
10
0.015139
20
0.056659
30
0.0
11
0.016273
21
0.082601
31
0.0
0
LINE
8
0
6
CONTINUOUS
10
0.016273
20
0.082601
30
0.0
11
0.017345
21
0.103012
31
0.0
0
LINE
8
0
6
CONTINUOUS
10
0.017345
20
0.103012
30
0.0
11
0.018323
21
0.116763
31
0.0
0
LINE
8
0
6
CONTINUOUS
10
0.054239
20
0.178398
30
0.0
11
0.053685
21
0.185220
31
0.0
0
LINE
8
0
6
CONTINUOUS
10
0.052700
20
0.158424
30
0.0
11
0.053771
21
0.166286
31
0.0
0
LINE
8
0
6
CONTINUOUS
10
0.052148
20
0.154801
30
0.0
11
0.052700
21
0.158424
31
0.0
0
LINE
8
0
6
CONTINUOUS
10
0.012607
20
0.218244
30
0.0
11
-0.000000
21
0.218688
31
0.0
0
LINE
8
0
6
CONTINUOUS
10
0.024976
20
0.216539
30
0.0
11
0.012607
21
0.218244
31
0.0
0
LINE
8
0
6
CONTINUOUS
10
0.033937
20
0.214071
30
0.0
11
0.024976
21
0.216539
31
0.0
0
LINE
8
0
6
CONTINUOUS
10
0.047042
20
0.203661
30
0.0
11
0.041805
21
0.209012
31
0.0
0
LINE
8
0
6
CONTINUOUS
10
0.040732
20
0.209817
30
0.0
11
0.033937
21
0.214071
31
0.0
0
LINE
8
0
6
CONTINUOUS
10
0.041805
20
0.209012
30
0.0
11
0.040732
21
0.209817
31
0.0
0
LINE
8
0
6
CONTINUOUS
10
0.019505
20
0.121063
30
0.0
11
0.023903
21
0.126022
31
0.0
0
LINE
8
0
6
CONTINUOUS
10
0.044527
20
0.138821
30
0.0
11
0.047510
21
0.142355
31
0.0
0
LINE
8
0
6
CONTINUOUS
10
0.046961
20
0.142448
30
0.0
11
0.044026
21
0.138903
31
0.0
0
LINE
8
0
6
CONTINUOUS
10
0.037300
20
0.133987
30
0.0
11
0.040985
21
0.136045
31
0.0
0
LINE
8
0
6
CONTINUOUS
10
0.040514
20
0.136107
30
0.0
11
0.036859
21
0.134028
31
0.0
0
LINE
8
0
6
CONTINUOUS
10
0.012751
20
0.206300
30
0.0
11
0.025480
21
0.204348
31
0.0
0
LINE
8
0
6
CONTINUOUS
10
0.036859
20
0.134028
30
0.0
11
0.028401
21
0.129923
31
0.0
0
LINE
8
0
6
CONTINUOUS
10
0.028753
20
0.129930
30
0.0
11
0.037300
21
0.133987
31
0.0
0
LINE
8
0
6
CONTINUOUS
10
0.049992
20
0.146882
30
0.0
11
0.051847
21
0.153889
31
0.0
0
LINE
8
0
6
CONTINUOUS
10
0.051080
20
0.153944
30
0.0
11
0.049396
21
0.146985
31
0.0
0
LINE
8
0
6
CONTINUOUS
10
0.023903
20
0.126022
30
0.0
11
0.028715
21
0.129838
31
0.0
0
LINE
8
0
6
CONTINUOUS
10
0.050499
20
0.197693
30
0.0
11
0.047042
21
0.203661
31
0.0
0
LINE
8
0
6
CONTINUOUS
10
0.012351
20
0.007231
30
0.0
11
0.013611
21
0.022930
31
0.0
0
LINE
8
0
6
CONTINUOUS
10
0.017380
20
0.114252
30
0.0
11
0.020255
21
0.121908
31
0.0
0
LINE
8
0
6
CONTINUOUS
10
0.052128
20
0.154667
30
0.0
11
0.052148
21
0.154801
31
0.0
0
LINE
8
0
6
CONTINUOUS
10
0.000000
20
0.002834
30
0.0
11
0.002608
21
0.002930
31
0.0
0
LINE
8
0
6
CONTINUOUS
10
0.002608
20
0.002930
30
0.0
11
0.005427
21
0.003210
31
0.0
0
LINE
8
0
6
CONTINUOUS
10
0.005427
20
0.003210
30
0.0
11
0.007834
21
0.003656
31
0.0
0
LINE
8
0
6
CONTINUOUS
10
0.007834
20
0.003656
30
0.0
11
0.009683
21
0.004237
31
0.0
0
LINE
8
0
6
CONTINUOUS
10
0.009683
20
0.004237
30
0.0
11
0.010296
21
0.004580
31
0.0
0
LINE
8
0
6
CONTINUOUS
10
0.010916
20
0.004927
30
0.0
11
0.011229
21
0.005206
31
0.0
0
LINE
8
0
6
CONTINUOUS
10
0.010296
20
0.004580
30
0.0
11
0.010916
21
0.004927
31
0.0
0
LINE
8
0
6
CONTINUOUS
10
0.011229
20
0.005206
30
0.0
11
0.011677
21
0.005613
31
0.0
0
LINE
8
0
6
CONTINUOUS
10
0.011677
20
0.005613
30
0.0
11
0.012143
21
0.006035
31
0.0
0
LINE
8
0
6
CONTINUOUS
10
0.012143
20
0.006035
30
0.0
11
0.012344
21
0.007089
31
0.0
0
LINE
8
0
6
CONTINUOUS
10
0.012344
20
0.007089
30
0.0
11
0.012351
21
0.007231
31
0.0
0
LINE
8
0
6
CONTINUOUS
10
0.011243
20
0.103037
30
0.0
11
0.008122
21
0.100922
31
0.0
0
LINE
8
0
6
CONTINUOUS
10
0.008122
20
0.100922
30
0.0
11
0.003834
21
0.100000
31
0.0
0
LINE
8
0
6
CONTINUOUS
10
0.003834
20
0.100000
30
0.0
11
0.000000
21
0.099724
31
0.0
0
LINE
8
0
6
CONTINUOUS
10
0.013499
20
0.112296
30
0.0
11
0.011243
21
0.103037
31
0.0
0
LINE
8
0
6
CONTINUOUS
10
0.017214
20
0.121123
30
0.0
11
0.013499
21
0.112296
31
0.0
0
LINE
8
0
6
CONTINUOUS
10
0.028401
20
0.129923
30
0.0
11
0.023533
21
0.126508
31
0.0
0
LINE
8
0
6
CONTINUOUS
10
0.034394
20
0.201536
30
0.0
11
0.040065
21
0.198292
31
0.0
0
LINE
8
0
6
CONTINUOUS
10
0.025480
20
0.204348
30
0.0
11
0.034394
21
0.201536
31
0.0
0
LINE
8
0
6
CONTINUOUS
10
-0.000001
20
0.206887
30
0.0
11
0.012751
21
0.206300
31
0.0
0
LINE
8
0
6
CONTINUOUS
10
0.051413
20
0.175481
30
0.0
11
0.052057
21
0.168860
31
0.0
0
LINE
8
0
6
CONTINUOUS
10
0.040065
20
0.198292
30
0.0
11
0.044920
21
0.193688
31
0.0
0
LINE
8
0
6
CONTINUOUS
10
0.044920
20
0.193688
30
0.0
11
0.048256
21
0.187736
31
0.0
0
LINE
8
0
6
CONTINUOUS
10
0.052037
20
0.161627
30
0.0
11
0.051080
21
0.153944
31
0.0
0
LINE
8
0
6
CONTINUOUS
10
0.023533
20
0.126508
30
0.0
11
0.020296
21
0.125046
31
0.0
0
LINE
8
0
6
CONTINUOUS
10
0.020296
20
0.125046
30
0.0
11
0.019966
21
0.124896
31
0.0
0
LINE
8
0
6
CONTINUOUS
10
0.019966
20
0.124896
30
0.0
11
0.017214
21
0.121123
31
0.0
0
LINE
8
0
6
CONTINUOUS
10
0.047510
20
0.142355
30
0.0
11
0.049992
21
0.146882
31
0.0
0
LINE
8
0
6
CONTINUOUS
10
0.049396
20
0.146985
30
0.0
11
0.046961
21
0.142448
31
0.0
0
LINE
8
0
6
CONTINUOUS
10
0.040985
20
0.136045
30
0.0
11
0.044527
21
0.138821
31
0.0
0
LINE
8
0
6
CONTINUOUS
10
0.044026
20
0.138903
30
0.0
11
0.040514
21
0.136107
31
0.0
0
LINE
8
0
6
CONTINUOUS
10
0.054015
20
0.171075
30
0.0
11
0.054239
21
0.178398
31
0.0
0
LINE
8
0
6
CONTINUOUS
10
0.053994
20
0.170711
30
0.0
11
0.054015
21
0.171075
31
0.0
0
LINE
8
0
6
CONTINUOUS
10
0.053771
20
0.166286
30
0.0
11
0.053994
21
0.170711
31
0.0
0
LINE
8
0
6
CONTINUOUS
10
0.052057
20
0.168860
30
0.0
11
0.052037
21
0.161627
31
0.0
0
LINE
8
0
6
CONTINUOUS
10
0.052410
20
0.191726
30
0.0
11
0.050499
21
0.197693
31
0.0
0
LINE
8
0
6
CONTINUOUS
10
0.048256
20
0.187736
30
0.0
11
0.050046
21
0.181783
31
0.0
0
LINE
8
0
6
CONTINUOUS
10
0.053685
20
0.185220
30
0.0
11
0.052410
21
0.191726
31
0.0
0
LINE
8
0
6
CONTINUOUS
10
0.050046
20
0.181783
30
0.0
11
0.051413
21
0.175481
31
0.0
0
LINE
8
0
6
CONTINUOUS
10
0.011265
20
-0.004560
30
0.0
11
0.011721
21
0.003603
31
0.0
0
LINE
8
0
6
CONTINUOUS
10
-0.011720
20
0.003603
30
0.0
11
-0.011242
21
-0.004958
31
0.0
0
LINE
8
0
6
CONTINUOUS
10
0.011721
20
0.005548
30
0.0
11
0.011721
21
0.005639
31
0.0
0
LINE
8
0
6
CONTINUOUS
10
-0.011720
20
0.005639
30
0.0
11
-0.011720
21
0.005548
31
0.0
0
LINE
8
0
6
CONTINUOUS
10
-0.011720
20
0.005548
30
0.0
11
-0.011720
21
0.003603
31
0.0
0
LINE
8
0
6
CONTINUOUS
10
0.011721
20
0.003603
30
0.0
11
0.011721
21
0.005548
31
0.0
0
LINE
8
0
6
CONTINUOUS
10
0.008812
20
-0.025284
30
0.0
11
0.008928
21
-0.025216
31
0.0
0
LINE
8
0
6
CONTINUOUS
10
0.000000
20
-0.026511
30
0.0
11
0.002634
21
-0.026427
31
0.0
0
LINE
8
0
6
CONTINUOUS
10
-0.008811
20
-0.025283
30
0.0
11
-0.007194
21
-0.025792
31
0.0
0
LINE
8
0
6
CONTINUOUS
10
0.002634
20
-0.026427
30
0.0
11
0.005088
21
-0.026182
31
0.0
0
LINE
8
0
6
CONTINUOUS
10
-0.007194
20
-0.025792
30
0.0
11
-0.005087
21
-0.026182
31
0.0
0
LINE
8
0
6
CONTINUOUS
10
0.005088
20
-0.026182
30
0.0
11
0.007195
21
-0.025792
31
0.0
0
LINE
8
0
6
CONTINUOUS
10
-0.005087
20
-0.026182
30
0.0
11
-0.002633
21
-0.026427
31
0.0
0
LINE
8
0
6
CONTINUOUS
10
-0.002633
20
-0.026427
30
0.0
11
0.000000
21
-0.026511
31
0.0
0
LINE
8
0
6
CONTINUOUS
10
-0.009546
20
-0.024856
30
0.0
11
-0.008811
21
-0.025283
31
0.0
0
LINE
8
0
6
CONTINUOUS
10
0.007195
20
-0.025792
30
0.0
11
0.008812
21
-0.025284
31
0.0
0
LINE
8
0
6
CONTINUOUS
10
-0.036858
20
0.134028
30
0.0
11
-0.028400
21
0.129923
31
0.0
0
LINE
8
0
6
CONTINUOUS
10
-0.012752
20
0.206300
30
0.0
11
-0.025482
21
0.204349
31
0.0
0
LINE
8
0
6
CONTINUOUS
10
-0.013771
20
0.127150
30
0.0
11
-0.006974
21
0.127502
31
0.0
0
LINE
8
0
6
CONTINUOUS
10
-0.023533
20
0.126508
30
0.0
11
-0.020290
21
0.125043
31
0.0
0
LINE
8
0
6
CONTINUOUS
10
-0.028400
20
0.129923
30
0.0
11
-0.023533
21
0.126508
31
0.0
0
LINE
8
0
6
CONTINUOUS
10
-0.048257
20
0.187736
30
0.0
11
-0.050047
21
0.181784
31
0.0
0
LINE
8
0
6
CONTINUOUS
10
-0.034395
20
0.201536
30
0.0
11
-0.040066
21
0.198292
31
0.0
0
LINE
8
0
6
CONTINUOUS
10
-0.040066
20
0.198292
30
0.0
11
-0.044921
21
0.193689
31
0.0
0
LINE
8
0
6
CONTINUOUS
10
-0.025482
20
0.204349
30
0.0
11
-0.034395
21
0.201536
31
0.0
0
LINE
8
0
6
CONTINUOUS
10
-0.000001
20
0.206887
30
0.0
11
-0.012752
21
0.206300
31
0.0
0
LINE
8
0
6
CONTINUOUS
10
-0.051413
20
0.175481
30
0.0
11
-0.052058
21
0.168861
31
0.0
0
LINE
8
0
6
CONTINUOUS
10
-0.052037
20
0.161628
30
0.0
11
-0.051080
21
0.153945
31
0.0
0
LINE
8
0
6
CONTINUOUS
10
-0.051080
20
0.153945
30
0.0
11
-0.049396
21
0.146985
31
0.0
0
LINE
8
0
6
CONTINUOUS
10
-0.046961
20
0.142448
30
0.0
11
-0.044025
21
0.138904
31
0.0
0
LINE
8
0
6
CONTINUOUS
10
-0.044025
20
0.138904
30
0.0
11
-0.040513
21
0.136108
31
0.0
0
LINE
8
0
6
CONTINUOUS
10
-0.006974
20
0.127502
30
0.0
11
0.000000
21
0.127547
31
0.0
0
LINE
8
0
6
CONTINUOUS
10
-0.019966
20
0.124896
30
0.0
11
-0.013771
21
0.127150
31
0.0
0
LINE
8
0
6
CONTINUOUS
10
-0.020290
20
0.125043
30
0.0
11
-0.019966
21
0.124896
31
0.0
0
LINE
8
0
6
CONTINUOUS
10
-0.049396
20
0.146985
30
0.0
11
-0.046961
21
0.142448
31
0.0
0
LINE
8
0
6
CONTINUOUS
10
-0.040513
20
0.136108
30
0.0
11
-0.036858
21
0.134028
31
0.0
0
LINE
8
0
6
CONTINUOUS
10
-0.052058
20
0.168861
30
0.0
11
-0.052037
21
0.161628
31
0.0
0
LINE
8
0
6
CONTINUOUS
10
-0.044921
20
0.193689
30
0.0
11
-0.048257
21
0.187736
31
0.0
0
LINE
8
0
6
CONTINUOUS
10
-0.050047
20
0.181784
30
0.0
11
-0.051413
21
0.175481
31
0.0
0
LINE
8
0
6
CONTINUOUS
10
0.028401
20
0.129923
30
0.0
11
0.036859
21
0.134028
31
0.0
0
LINE
8
0
6
CONTINUOUS
10
0.025480
20
0.204348
30
0.0
11
0.012751
21
0.206300
31
0.0
0
LINE
8
0
6
CONTINUOUS
10
0.006975
20
0.127502
30
0.0
11
0.013771
21
0.127150
31
0.0
0
LINE
8
0
6
CONTINUOUS
10
0.023533
20
0.126508
30
0.0
11
0.028401
21
0.129923
31
0.0
0
LINE
8
0
6
CONTINUOUS
10
0.020296
20
0.125046
30
0.0
11
0.023533
21
0.126508
31
0.0
0
LINE
8
0
6
CONTINUOUS
10
0.050046
20
0.181783
30
0.0
11
0.048256
21
0.187736
31
0.0
0
LINE
8
0
6
CONTINUOUS
10
0.044920
20
0.193688
30
0.0
11
0.040065
21
0.198292
31
0.0
0
LINE
8
0
6
CONTINUOUS
10
0.040065
20
0.198292
30
0.0
11
0.034394
21
0.201536
31
0.0
0
LINE
8
0
6
CONTINUOUS
10
0.034394
20
0.201536
30
0.0
11
0.025480
21
0.204348
31
0.0
0
LINE
8
0
6
CONTINUOUS
10
0.012751
20
0.206300
30
0.0
11
-0.000001
21
0.206887
31
0.0
0
LINE
8
0
6
CONTINUOUS
10
0.052057
20
0.168860
30
0.0
11
0.051413
21
0.175481
31
0.0
0
LINE
8
0
6
CONTINUOUS
10
0.051080
20
0.153944
30
0.0
11
0.052037
21
0.161627
31
0.0
0
LINE
8
0
6
CONTINUOUS
10
0.049396
20
0.146985
30
0.0
11
0.051080
21
0.153944
31
0.0
0
LINE
8
0
6
CONTINUOUS
10
0.044026
20
0.138903
30
0.0
11
0.046961
21
0.142448
31
0.0
0
LINE
8
0
6
CONTINUOUS
10
0.040514
20
0.136107
30
0.0
11
0.044026
21
0.138903
31
0.0
0
LINE
8
0
6
CONTINUOUS
10
0.000000
20
0.127547
30
0.0
11
0.006975
21
0.127502
31
0.0
0
LINE
8
0
6
CONTINUOUS
10
0.019966
20
0.124896
30
0.0
11
0.020296
21
0.125046
31
0.0
0
LINE
8
0
6
CONTINUOUS
10
0.013771
20
0.127150
30
0.0
11
0.019966
21
0.124896
31
0.0
0
LINE
8
0
6
CONTINUOUS
10
0.046961
20
0.142448
30
0.0
11
0.049396
21
0.146985
31
0.0
0
LINE
8
0
6
CONTINUOUS
10
0.036859
20
0.134028
30
0.0
11
0.040514
21
0.136107
31
0.0
0
LINE
8
0
6
CONTINUOUS
10
0.052037
20
0.161627
30
0.0
11
0.052057
21
0.168860
31
0.0
0
LINE
8
0
6
CONTINUOUS
10
0.048256
20
0.187736
30
0.0
11
0.044920
21
0.193688
31
0.0
0
LINE
8
0
6
CONTINUOUS
10
0.051413
20
0.175481
30
0.0
11
0.050046
21
0.181783
31
0.0
0
LINE
8
0
6
CONTINUOUS
10
-0.003834
20
0.100000
30
0.0
11
0.000000
21
0.099724
31
0.0
0
LINE
8
0
6
CONTINUOUS
10
-0.019307
20
0.124692
30
0.0
11
-0.013636
21
0.126753
31
0.0
0
LINE
8
0
6
CONTINUOUS
10
-0.016556
20
0.120935
30
0.0
11
-0.019307
21
0.124692
31
0.0
0
LINE
8
0
6
CONTINUOUS
10
0.008122
20
0.100922
30
0.0
11
0.011243
21
0.103037
31
0.0
0
LINE
8
0
6
CONTINUOUS
10
0.003834
20
0.100000
30
0.0
11
0.008122
21
0.100922
31
0.0
0
LINE
8
0
6
CONTINUOUS
10
0.000000
20
0.099724
30
0.0
11
0.003834
21
0.100000
31
0.0
0
LINE
8
0
6
CONTINUOUS
10
0.011243
20
0.103037
30
0.0
11
0.013499
21
0.112296
31
0.0
0
LINE
8
0
6
CONTINUOUS
10
0.013499
20
0.112296
30
0.0
11
0.017214
21
0.121123
31
0.0
0
LINE
8
0
6
CONTINUOUS
10
0.013771
20
0.127150
30
0.0
11
0.006975
21
0.127502
31
0.0
0
LINE
8
0
6
CONTINUOUS
10
0.006975
20
0.127502
30
0.0
11
0.000006
21
0.127547
31
0.0
0
LINE
8
0
6
CONTINUOUS
10
0.019966
20
0.124896
30
0.0
11
0.013771
21
0.127150
31
0.0
0
LINE
8
0
6
CONTINUOUS
10
0.017214
20
0.121123
30
0.0
11
0.019966
21
0.124896
31
0.0
0
LINE
8
0
6
CONTINUOUS
10
-0.008121
20
0.100922
30
0.0
11
-0.003834
21
0.100000
31
0.0
0
LINE
8
0
6
CONTINUOUS
10
-0.017214
20
0.121123
30
0.0
11
-0.013498
21
0.112296
31
0.0
0
LINE
8
0
6
CONTINUOUS
10
-0.011243
20
0.103037
30
0.0
11
-0.008121
21
0.100922
31
0.0
0
LINE
8
0
6
CONTINUOUS
10
0.019319
20
0.124692
30
0.0
11
0.016568
21
0.120935
31
0.0
0
LINE
8
0
6
CONTINUOUS
10
-0.019966
20
0.124896
30
0.0
11
-0.017214
21
0.121123
31
0.0
0
LINE
8
0
6
CONTINUOUS
10
-0.013498
20
0.112296
30
0.0
11
-0.011243
21
0.103037
31
0.0
0
LINE
8
0
6
CONTINUOUS
10
-0.006903
20
0.127105
30
0.0
11
0.000006
21
0.127147
31
0.0
0
LINE
8
0
6
CONTINUOUS
10
0.000006
20
0.127547
30
0.0
11
-0.006974
21
0.127502
31
0.0
0
LINE
8
0
6
CONTINUOUS
10
-0.010845
20
0.103297
30
0.0
11
-0.012991
21
0.112190
31
0.0
0
LINE
8
0
6
CONTINUOUS
10
-0.012991
20
0.112190
30
0.0
11
-0.016556
21
0.120935
31
0.0
0
LINE
8
0
6
CONTINUOUS
10
-0.003847
20
0.100470
30
0.0
11
-0.008166
21
0.101486
31
0.0
0
LINE
8
0
6
CONTINUOUS
10
-0.008166
20
0.101486
30
0.0
11
-0.010845
21
0.103297
31
0.0
0
LINE
8
0
6
CONTINUOUS
10
-0.000007
20
0.100183
30
0.0
11
-0.003847
21
0.100470
31
0.0
0
LINE
8
0
6
CONTINUOUS
10
0.010857
20
0.103297
30
0.0
11
0.008178
21
0.101486
31
0.0
0
LINE
8
0
6
CONTINUOUS
10
0.008178
20
0.101486
30
0.0
11
0.003859
21
0.100470
31
0.0
0
LINE
8
0
6
CONTINUOUS
10
0.003859
20
0.100470
30
0.0
11
-0.000007
21
0.100183
31
0.0
0
LINE
8
0
6
CONTINUOUS
10
0.013003
20
0.112190
30
0.0
11
0.010857
21
0.103297
31
0.0
0
LINE
8
0
6
CONTINUOUS
10
0.016568
20
0.120935
30
0.0
11
0.013003
21
0.112190
31
0.0
0
LINE
8
0
6
CONTINUOUS
10
0.006914
20
0.127105
30
0.0
11
0.013648
21
0.126753
31
0.0
0
LINE
8
0
6
CONTINUOUS
10
0.000006
20
0.127147
30
0.0
11
0.006914
21
0.127105
31
0.0
0
LINE
8
0
6
CONTINUOUS
10
0.013648
20
0.126753
30
0.0
11
0.019319
21
0.124692
31
0.0
0
LINE
8
0
6
CONTINUOUS
10
-0.013636
20
0.126753
30
0.0
11
-0.006903
21
0.127105
31
0.0
0
LINE
8
0
6
CONTINUOUS
10
-0.006974
20
0.127502
30
0.0
11
-0.013771
21
0.127150
31
0.0
0
LINE
8
0
6
CONTINUOUS
10
-0.013771
20
0.127150
30
0.0
11
-0.019966
21
0.124896
31
0.0
0
LINE
8
0
6
CONTINUOUS
10
0.003859
20
0.100470
30
0.0
11
0.008178
21
0.101486
31
0.0
0
LINE
8
0
6
CONTINUOUS
10
-0.003847
20
0.100470
30
0.0
11
-0.000007
21
0.100183
31
0.0
0
LINE
8
0
6
CONTINUOUS
10
0.013648
20
0.126753
30
0.0
11
0.006914
21
0.127105
31
0.0
0
LINE
8
0
6
CONTINUOUS
10
0.006914
20
0.127105
30
0.0
11
0.000006
21
0.127147
31
0.0
0
LINE
8
0
6
CONTINUOUS
10
0.013003
20
0.112190
30
0.0
11
0.016568
21
0.120935
31
0.0
0
LINE
8
0
6
CONTINUOUS
10
0.016568
20
0.120935
30
0.0
11
0.019319
21
0.124692
31
0.0
0
LINE
8
0
6
CONTINUOUS
10
0.019319
20
0.124692
30
0.0
11
0.013648
21
0.126753
31
0.0
0
LINE
8
0
6
CONTINUOUS
10
-0.008166
20
0.101486
30
0.0
11
-0.003847
21
0.100470
31
0.0
0
LINE
8
0
6
CONTINUOUS
10
-0.016556
20
0.120935
30
0.0
11
-0.012991
21
0.112190
31
0.0
0
LINE
8
0
6
CONTINUOUS
10
0.010857
20
0.103297
30
0.0
11
0.013003
21
0.112190
31
0.0
0
LINE
8
0
6
CONTINUOUS
10
0.008178
20
0.101486
30
0.0
11
0.010857
21
0.103297
31
0.0
0
LINE
8
0
6
CONTINUOUS
10
-0.013636
20
0.126753
30
0.0
11
-0.019307
21
0.124692
31
0.0
0
LINE
8
0
6
CONTINUOUS
10
-0.019307
20
0.124692
30
0.0
11
-0.016556
21
0.120935
31
0.0
0
LINE
8
0
6
CONTINUOUS
10
-0.000007
20
0.100183
30
0.0
11
0.003859
21
0.100470
31
0.0
0
LINE
8
0
6
CONTINUOUS
10
-0.010845
20
0.103297
30
0.0
11
-0.008166
21
0.101486
31
0.0
0
LINE
8
0
6
CONTINUOUS
10
-0.012991
20
0.112190
30
0.0
11
-0.010845
21
0.103297
31
0.0
0
LINE
8
0
6
CONTINUOUS
10
-0.006903
20
0.127105
30
0.0
11
-0.013636
21
0.126753
31
0.0
0
LINE
8
0
6
CONTINUOUS
10
0.000006
20
0.127147
30
0.0
11
-0.006903
21
0.127105
31
0.0
0
LINE
8
0
6
CONTINUOUS
10
-0.000773
20
0.144975
30
0.0
11
-0.003549
21
0.145120
31
0.0
0
LINE
8
0
6
CONTINUOUS
10
-0.006376
20
0.145470
30
0.0
11
-0.003632
21
0.145035
31
0.0
0
LINE
8
0
6
CONTINUOUS
10
-0.003549
20
0.145120
30
0.0
11
-0.006213
21
0.145542
31
0.0
0
LINE
8
0
6
CONTINUOUS
10
-0.008978
20
0.146172
30
0.0
11
-0.006376
21
0.145470
31
0.0
0
LINE
8
0
6
CONTINUOUS
10
-0.011413
20
0.147120
30
0.0
11
-0.009005
21
0.146183
31
0.0
0
LINE
8
0
6
CONTINUOUS
10
-0.008739
20
0.146223
30
0.0
11
-0.011102
21
0.147144
31
0.0
0
LINE
8
0
6
CONTINUOUS
10
-0.013655
20
0.148295
30
0.0
11
-0.011413
21
0.147120
31
0.0
0
LINE
8
0
6
CONTINUOUS
10
-0.011102
20
0.147144
30
0.0
11
-0.013279
21
0.148284
31
0.0
0
LINE
8
0
6
CONTINUOUS
10
-0.015680
20
0.149678
30
0.0
11
-0.013655
21
0.148295
31
0.0
0
LINE
8
0
6
CONTINUOUS
10
-0.013279
20
0.148284
30
0.0
11
-0.015245
21
0.149627
31
0.0
0
LINE
8
0
6
CONTINUOUS
10
-0.017462
20
0.151248
30
0.0
11
-0.015680
21
0.149678
31
0.0
0
LINE
8
0
6
CONTINUOUS
10
-0.015245
20
0.149627
30
0.0
11
-0.016976
21
0.151152
31
0.0
0
LINE
8
0
6
CONTINUOUS
10
-0.018977
20
0.152988
30
0.0
11
-0.017462
21
0.151248
31
0.0
0
LINE
8
0
6
CONTINUOUS
10
-0.016976
20
0.151152
30
0.0
11
-0.018447
21
0.152841
31
0.0
0
LINE
8
0
6
CONTINUOUS
10
-0.020199
20
0.154877
30
0.0
11
-0.018977
21
0.152988
31
0.0
0
LINE
8
0
6
CONTINUOUS
10
-0.018447
20
0.152841
30
0.0
11
-0.019633
21
0.154675
31
0.0
0
LINE
8
0
6
CONTINUOUS
10
-0.021103
20
0.156895
30
0.0
11
-0.020199
21
0.154877
31
0.0
0
LINE
8
0
6
CONTINUOUS
10
-0.019633
20
0.154675
30
0.0
11
-0.020511
21
0.156634
31
0.0
0
LINE
8
0
6
CONTINUOUS
10
-0.021664
20
0.159024
30
0.0
11
-0.021103
21
0.156895
31
0.0
0
LINE
8
0
6
CONTINUOUS
10
-0.020511
20
0.156634
30
0.0
11
-0.021055
21
0.158700
31
0.0
0
LINE
8
0
6
CONTINUOUS
10
-0.021856
20
0.161242
30
0.0
11
-0.021664
21
0.159024
31
0.0
0
LINE
8
0
6
CONTINUOUS
10
-0.021055
20
0.158700
30
0.0
11
-0.021242
21
0.160855
31
0.0
0
LINE
8
0
6
CONTINUOUS
10
-0.021664
20
0.163460
30
0.0
11
-0.021856
21
0.161242
31
0.0
0
LINE
8
0
6
CONTINUOUS
10
-0.021242
20
0.160855
30
0.0
11
-0.021055
21
0.163009
31
0.0
0
LINE
8
0
6
CONTINUOUS
10
-0.021103
20
0.165589
30
0.0
11
-0.021664
21
0.163460
31
0.0
0
LINE
8
0
6
CONTINUOUS
10
-0.021055
20
0.163009
30
0.0
11
-0.020511
21
0.165075
31
0.0
0
LINE
8
0
6
CONTINUOUS
10
-0.020199
20
0.167608
30
0.0
11
-0.021103
21
0.165589
31
0.0
0
LINE
8
0
6
CONTINUOUS
10
-0.020511
20
0.165075
30
0.0
11
-0.019633
21
0.167035
31
0.0
0
LINE
8
0
6
CONTINUOUS
10
-0.018977
20
0.169496
30
0.0
11
-0.020199
21
0.167608
31
0.0
0
LINE
8
0
6
CONTINUOUS
10
-0.019633
20
0.167035
30
0.0
11
-0.018447
21
0.168868
31
0.0
0
LINE
8
0
6
CONTINUOUS
10
-0.017462
20
0.171236
30
0.0
11
-0.018977
21
0.169496
31
0.0
0
LINE
8
0
6
CONTINUOUS
10
-0.018447
20
0.168868
30
0.0
11
-0.016976
21
0.170557
31
0.0
0
LINE
8
0
6
CONTINUOUS
10
-0.015680
20
0.172807
30
0.0
11
-0.017462
21
0.171236
31
0.0
0
LINE
8
0
6
CONTINUOUS
10
-0.016976
20
0.170557
30
0.0
11
-0.015246
21
0.172082
31
0.0
0
LINE
8
0
6
CONTINUOUS
10
-0.013655
20
0.174189
30
0.0
11
-0.015680
21
0.172807
31
0.0
0
LINE
8
0
6
CONTINUOUS
10
-0.015246
20
0.172082
30
0.0
11
-0.013280
21
0.173425
31
0.0
0
LINE
8
0
6
CONTINUOUS
10
-0.011413
20
0.175364
30
0.0
11
-0.013655
21
0.174189
31
0.0
0
LINE
8
0
6
CONTINUOUS
10
-0.013280
20
0.173425
30
0.0
11
-0.011103
21
0.174566
31
0.0
0
LINE
8
0
6
CONTINUOUS
10
-0.008978
20
0.176312
30
0.0
11
-0.011413
21
0.175364
31
0.0
0
LINE
8
0
6
CONTINUOUS
10
-0.011103
20
0.174566
30
0.0
11
-0.008739
21
0.175486
31
0.0
0
LINE
8
0
6
CONTINUOUS
10
-0.006376
20
0.177014
30
0.0
11
-0.008978
21
0.176312
31
0.0
0
LINE
8
0
6
CONTINUOUS
10
-0.008739
20
0.175486
30
0.0
11
-0.006213
21
0.176167
31
0.0
0
LINE
8
0
6
CONTINUOUS
10
-0.003632
20
0.177449
30
0.0
11
-0.006376
21
0.177014
31
0.0
0
LINE
8
0
6
CONTINUOUS
10
-0.006213
20
0.176167
30
0.0
11
-0.003550
21
0.176589
31
0.0
0
LINE
8
0
6
CONTINUOUS
10
-0.000773
20
0.177598
30
0.0
11
-0.003632
21
0.177449
31
0.0
0
LINE
8
0
6
CONTINUOUS
10
-0.003550
20
0.176589
30
0.0
11
-0.000773
21
0.176734
31
0.0
0
LINE
8
0
6
CONTINUOUS
10
0.002086
20
0.177449
30
0.0
11
-0.000773
21
0.177598
31
0.0
0
LINE
8
0
6
CONTINUOUS
10
-0.000773
20
0.176734
30
0.0
11
0.002004
21
0.176589
31
0.0
0
LINE
8
0
6
CONTINUOUS
10
0.004830
20
0.177014
30
0.0
11
0.002086
21
0.177449
31
0.0
0
LINE
8
0
6
CONTINUOUS
10
0.002004
20
0.176589
30
0.0
11
0.004668
21
0.176167
31
0.0
0
LINE
8
0
6
CONTINUOUS
10
0.007432
20
0.176312
30
0.0
11
0.004830
21
0.177014
31
0.0
0
LINE
8
0
6
CONTINUOUS
10
0.004668
20
0.176167
30
0.0
11
0.007193
21
0.175486
31
0.0
0
LINE
8
0
6
CONTINUOUS
10
0.009867
20
0.175364
30
0.0
11
0.007432
21
0.176312
31
0.0
0
LINE
8
0
6
CONTINUOUS
10
0.007193
20
0.175486
30
0.0
11
0.009557
21
0.174565
31
0.0
0
LINE
8
0
6
CONTINUOUS
10
0.012110
20
0.174189
30
0.0
11
0.009867
21
0.175364
31
0.0
0
LINE
8
0
6
CONTINUOUS
10
0.009557
20
0.174565
30
0.0
11
0.011734
21
0.173425
31
0.0
0
LINE
8
0
6
CONTINUOUS
10
0.014134
20
0.172806
30
0.0
11
0.012110
21
0.174189
31
0.0
0
LINE
8
0
6
CONTINUOUS
10
0.011734
20
0.173425
30
0.0
11
0.013700
21
0.172082
31
0.0
0
LINE
8
0
6
CONTINUOUS
10
0.015916
20
0.171236
30
0.0
11
0.014134
21
0.172806
31
0.0
0
LINE
8
0
6
CONTINUOUS
10
0.013700
20
0.172082
30
0.0
11
0.015431
21
0.170557
31
0.0
0
LINE
8
0
6
CONTINUOUS
10
0.017431
20
0.169496
30
0.0
11
0.015916
21
0.171236
31
0.0
0
LINE
8
0
6
CONTINUOUS
10
0.015431
20
0.170557
30
0.0
11
0.016901
21
0.168868
31
0.0
0
LINE
8
0
6
CONTINUOUS
10
0.018653
20
0.167607
30
0.0
11
0.017431
21
0.169496
31
0.0
0
LINE
8
0
6
CONTINUOUS
10
0.016901
20
0.168868
30
0.0
11
0.018088
21
0.167034
31
0.0
0
LINE
8
0
6
CONTINUOUS
10
0.019557
20
0.165589
30
0.0
11
0.018653
21
0.167607
31
0.0
0
LINE
8
0
6
CONTINUOUS
10
0.018088
20
0.167034
30
0.0
11
0.018965
21
0.165075
31
0.0
0
LINE
8
0
6
CONTINUOUS
10
0.020118
20
0.163460
30
0.0
11
0.019557
21
0.165589
31
0.0
0
LINE
8
0
6
CONTINUOUS
10
0.018965
20
0.165075
30
0.0
11
0.019510
21
0.163009
31
0.0
0
LINE
8
0
6
CONTINUOUS
10
0.020311
20
0.161242
30
0.0
11
0.020118
21
0.163460
31
0.0
0
LINE
8
0
6
CONTINUOUS
10
0.019510
20
0.163009
30
0.0
11
0.019697
21
0.160854
31
0.0
0
LINE
8
0
6
CONTINUOUS
10
0.020118
20
0.159024
30
0.0
11
0.020311
21
0.161242
31
0.0
0
LINE
8
0
6
CONTINUOUS
10
0.019697
20
0.160854
30
0.0
11
0.019510
21
0.158700
31
0.0
0
LINE
8
0
6
CONTINUOUS
10
0.019558
20
0.156895
30
0.0
11
0.020118
21
0.159024
31
0.0
0
LINE
8
0
6
CONTINUOUS
10
0.019510
20
0.158700
30
0.0
11
0.018965
21
0.156634
31
0.0
0
LINE
8
0
6
CONTINUOUS
10
0.018653
20
0.154876
30
0.0
11
0.019558
21
0.156895
31
0.0
0
LINE
8
0
6
CONTINUOUS
10
0.018965
20
0.156634
30
0.0
11
0.018088
21
0.154674
31
0.0
0
LINE
8
0
6
CONTINUOUS
10
0.017431
20
0.152988
30
0.0
11
0.018653
21
0.154876
31
0.0
0
LINE
8
0
6
CONTINUOUS
10
0.018088
20
0.154674
30
0.0
11
0.016901
21
0.152841
31
0.0
0
LINE
8
0
6
CONTINUOUS
10
0.015917
20
0.151248
30
0.0
11
0.017431
21
0.152988
31
0.0
0
LINE
8
0
6
CONTINUOUS
10
0.016901
20
0.152841
30
0.0
11
0.015431
21
0.151152
31
0.0
0
LINE
8
0
6
CONTINUOUS
10
0.014134
20
0.149677
30
0.0
11
0.015917
21
0.151248
31
0.0
0
LINE
8
0
6
CONTINUOUS
10
0.015431
20
0.151152
30
0.0
11
0.013700
21
0.149627
31
0.0
0
LINE
8
0
6
CONTINUOUS
10
0.012110
20
0.148295
30
0.0
11
0.014134
21
0.149677
31
0.0
0
LINE
8
0
6
CONTINUOUS
10
0.013700
20
0.149627
30
0.0
11
0.011734
21
0.148284
31
0.0
0
LINE
8
0
6
CONTINUOUS
10
0.009868
20
0.147120
30
0.0
11
0.012110
21
0.148295
31
0.0
0
LINE
8
0
6
CONTINUOUS
10
0.011734
20
0.148284
30
0.0
11
0.009557
21
0.147143
31
0.0
0
LINE
8
0
6
CONTINUOUS
10
0.007433
20
0.146172
30
0.0
11
0.009868
21
0.147120
31
0.0
0
LINE
8
0
6
CONTINUOUS
10
0.009557
20
0.147143
30
0.0
11
0.007194
21
0.146223
31
0.0
0
LINE
8
0
6
CONTINUOUS
10
0.004831
20
0.145470
30
0.0
11
0.007433
21
0.146172
31
0.0
0
LINE
8
0
6
CONTINUOUS
10
0.004668
20
0.145542
30
0.0
11
0.002004
21
0.145120
31
0.0
0
LINE
8
0
6
CONTINUOUS
10
0.002004
20
0.145120
30
0.0
11
-0.000773
21
0.144975
31
0.0
0
LINE
8
0
6
CONTINUOUS
10
0.041123
20
0.156382
30
0.0
11
0.042746
21
0.157445
31
0.0
0
LINE
8
0
6
CONTINUOUS
10
0.041123
20
0.156644
30
0.0
11
0.041123
21
0.156382
31
0.0
0
LINE
8
0
6
CONTINUOUS
10
0.042873
20
0.175490
30
0.0
11
0.042874
21
0.176319
31
0.0
0
LINE
8
0
6
CONTINUOUS
10
0.042755
20
0.177135
30
0.0
11
0.042873
21
0.175490
31
0.0
0
LINE
8
0
6
CONTINUOUS
10
0.036717
20
0.171820
30
0.0
11
0.036717
21
0.172925
31
0.0
0
LINE
8
0
6
CONTINUOUS
10
0.036598
20
0.173465
30
0.0
11
0.036717
21
0.171820
31
0.0
0
LINE
8
0
6
CONTINUOUS
10
0.027849
20
0.182938
30
0.0
11
0.029904
21
0.182522
31
0.0
0
LINE
8
0
6
CONTINUOUS
10
0.000369
20
0.175325
30
0.0
11
0.001350
21
0.173864
31
0.0
0
LINE
8
0
6
CONTINUOUS
10
-0.002894
20
0.174006
30
0.0
11
-0.001753
21
0.175397
31
0.0
0
LINE
8
0
6
CONTINUOUS
10
-0.002894
20
0.174898
30
0.0
11
-0.002894
21
0.174006
31
0.0
0
LINE
8
0
6
CONTINUOUS
10
-0.001753
20
0.175397
30
0.0
11
0.000369
21
0.175325
31
0.0
0
LINE
8
0
6
CONTINUOUS
10
0.007696
20
0.178101
30
0.0
11
0.007696
21
0.178967
31
0.0
0
LINE
8
0
6
CONTINUOUS
10
0.006714
20
0.179563
30
0.0
11
0.007696
21
0.178101
31
0.0
0
LINE
8
0
6
CONTINUOUS
10
0.004592
20
0.179634
30
0.0
11
0.006714
21
0.179563
31
0.0
0
LINE
8
0
6
CONTINUOUS
10
0.014041
20
0.182540
30
0.0
11
0.014041
21
0.183450
31
0.0
0
LINE
8
0
6
CONTINUOUS
10
0.013059
20
0.184001
30
0.0
11
0.014041
21
0.182540
31
0.0
0
LINE
8
0
6
CONTINUOUS
10
0.010937
20
0.184072
30
0.0
11
0.013059
21
0.184001
31
0.0
0
LINE
8
0
6
CONTINUOUS
10
0.016142
20
0.187435
30
0.0
11
0.017282
21
0.188825
31
0.0
0
LINE
8
0
6
CONTINUOUS
10
0.016142
20
0.188114
30
0.0
11
0.016142
21
0.187435
31
0.0
0
LINE
8
0
6
CONTINUOUS
10
0.017282
20
0.188825
30
0.0
11
0.019405
21
0.188753
31
0.0
0
LINE
8
0
6
CONTINUOUS
10
0.007712
20
0.191196
30
0.0
11
0.007712
21
0.192150
31
0.0
0
LINE
8
0
6
CONTINUOUS
10
0.006356
20
0.192464
30
0.0
11
0.007712
21
0.191196
31
0.0
0
LINE
8
0
6
CONTINUOUS
10
0.003525
20
0.190642
30
0.0
11
0.004262
21
0.192187
31
0.0
0
LINE
8
0
6
CONTINUOUS
10
0.003525
20
0.191413
30
0.0
11
0.003525
21
0.190642
31
0.0
0
LINE
8
0
6
CONTINUOUS
10
0.004262
20
0.192187
30
0.0
11
0.006356
21
0.192464
31
0.0
0
LINE
8
0
6
CONTINUOUS
10
0.023801
20
0.156606
30
0.0
11
0.023801
21
0.157576
31
0.0
0
LINE
8
0
6
CONTINUOUS
10
0.022179
20
0.157669
30
0.0
11
0.023801
21
0.156606
31
0.0
0
LINE
8
0
6
CONTINUOUS
10
0.031189
20
0.159708
30
0.0
11
0.031189
21
0.160750
31
0.0
0
LINE
8
0
6
CONTINUOUS
10
0.029566
20
0.160771
30
0.0
11
0.031189
21
0.159708
31
0.0
0
LINE
8
0
6
CONTINUOUS
10
0.016003
20
0.136080
30
0.0
11
0.016379
21
0.137702
31
0.0
0
LINE
8
0
6
CONTINUOUS
10
0.016003
20
0.136740
30
0.0
11
0.016003
21
0.136080
31
0.0
0
LINE
8
0
6
CONTINUOUS
10
0.016379
20
0.137702
30
0.0
11
0.018377
21
0.138260
31
0.0
0
LINE
8
0
6
CONTINUOUS
10
0.020000
20
0.137197
30
0.0
11
0.020000
21
0.138050
31
0.0
0
LINE
8
0
6
CONTINUOUS
10
0.018377
20
0.138260
30
0.0
11
0.020000
21
0.137197
31
0.0
0
LINE
8
0
6
CONTINUOUS
10
0.013988
20
0.148530
30
0.0
11
0.015987
21
0.149089
31
0.0
0
LINE
8
0
6
CONTINUOUS
10
0.017609
20
0.148025
30
0.0
11
0.017609
21
0.148949
31
0.0
0
LINE
8
0
6
CONTINUOUS
10
0.015987
20
0.149089
30
0.0
11
0.017609
21
0.148025
31
0.0
0
LINE
8
0
6
CONTINUOUS
10
0.024811
20
0.149984
30
0.0
11
0.026434
21
0.151047
31
0.0
0
LINE
8
0
6
CONTINUOUS
10
0.024811
20
0.150536
30
0.0
11
0.024811
21
0.149984
31
0.0
0
LINE
8
0
6
CONTINUOUS
10
0.030401
20
0.144523
30
0.0
11
0.030777
21
0.142901
31
0.0
0
LINE
8
0
6
CONTINUOUS
10
0.027624
20
0.138507
30
0.0
11
0.029246
21
0.139570
31
0.0
0
LINE
8
0
6
CONTINUOUS
10
0.027624
20
0.138934
30
0.0
11
0.027624
21
0.138507
31
0.0
0
LINE
8
0
6
CONTINUOUS
10
0.029246
20
0.139570
30
0.0
11
0.031245
21
0.139012
31
0.0
0
LINE
8
0
6
CONTINUOUS
10
0.002808
20
0.151507
30
0.0
11
0.003184
21
0.153129
31
0.0
0
LINE
8
0
6
CONTINUOUS
10
0.002808
20
0.152277
30
0.0
11
0.002808
21
0.151507
31
0.0
0
LINE
8
0
6
CONTINUOUS
10
-0.005713
20
0.138201
30
0.0
11
-0.005337
21
0.136579
31
0.0
0
LINE
8
0
6
CONTINUOUS
10
-0.007711
20
0.138759
30
0.0
11
-0.005713
21
0.138201
31
0.0
0
LINE
8
0
6
CONTINUOUS
10
-0.006042
20
0.133513
30
0.0
11
-0.005666
21
0.131891
31
0.0
0
LINE
8
0
6
CONTINUOUS
10
-0.008040
20
0.134072
30
0.0
11
-0.006042
21
0.133513
31
0.0
0
LINE
8
0
6
CONTINUOUS
10
-0.038025
20
0.146932
30
0.0
11
-0.038025
21
0.147211
31
0.0
0
LINE
8
0
6
CONTINUOUS
10
-0.039648
20
0.147996
30
0.0
11
-0.038025
21
0.146932
31
0.0
0
LINE
8
0
6
CONTINUOUS
10
-0.026354
20
0.150040
30
0.0
11
-0.026354
21
0.150692
31
0.0
0
LINE
8
0
6
CONTINUOUS
10
-0.027977
20
0.151104
30
0.0
11
-0.026354
21
0.150040
31
0.0
0
LINE
8
0
6
CONTINUOUS
10
-0.016726
20
0.143076
30
0.0
11
-0.016351
21
0.141454
31
0.0
0
LINE
8
0
6
CONTINUOUS
10
-0.019117
20
0.132738
30
0.0
11
-0.018741
21
0.131116
31
0.0
0
LINE
8
0
6
CONTINUOUS
10
-0.021723
20
0.157163
30
0.0
11
-0.021348
21
0.155541
31
0.0
0
LINE
8
0
6
CONTINUOUS
10
-0.016334
20
0.154699
30
0.0
11
-0.014336
21
0.154141
31
0.0
0
LINE
8
0
6
CONTINUOUS
10
-0.009256
20
0.191211
30
0.0
11
-0.007900
21
0.192479
31
0.0
0
LINE
8
0
6
CONTINUOUS
10
-0.009256
20
0.192183
30
0.0
11
-0.009256
21
0.191211
31
0.0
0
LINE
8
0
6
CONTINUOUS
10
-0.005806
20
0.192202
30
0.0
11
-0.005068
21
0.190657
31
0.0
0
LINE
8
0
6
CONTINUOUS
10
-0.007900
20
0.192479
30
0.0
11
-0.005806
21
0.192202
31
0.0
0
LINE
8
0
6
CONTINUOUS
10
-0.009239
20
0.178116
30
0.0
11
-0.008258
21
0.179577
31
0.0
0
LINE
8
0
6
CONTINUOUS
10
-0.009239
20
0.179004
30
0.0
11
-0.009239
21
0.178116
31
0.0
0
LINE
8
0
6
CONTINUOUS
10
-0.006136
20
0.179649
30
0.0
11
-0.004995
21
0.178259
31
0.0
0
LINE
8
0
6
CONTINUOUS
10
-0.008258
20
0.179577
30
0.0
11
-0.006136
21
0.179649
31
0.0
0
LINE
8
0
6
CONTINUOUS
10
-0.014131
20
0.170126
30
0.0
11
-0.013568
21
0.171715
31
0.0
0
LINE
8
0
6
CONTINUOUS
10
-0.014131
20
0.170990
30
0.0
11
-0.014131
21
0.170126
31
0.0
0
LINE
8
0
6
CONTINUOUS
10
-0.013568
20
0.171715
30
0.0
11
-0.011513
21
0.172131
31
0.0
0
LINE
8
0
6
CONTINUOUS
10
-0.005553
20
0.168826
30
0.0
11
-0.004060
21
0.167653
31
0.0
0
LINE
8
0
6
CONTINUOUS
10
-0.023934
20
0.167659
30
0.0
11
-0.022156
21
0.166756
31
0.0
0
LINE
8
0
6
CONTINUOUS
10
-0.017777
20
0.164539
30
0.0
11
-0.016000
21
0.163636
31
0.0
0
LINE
8
0
6
CONTINUOUS
10
-0.045884
20
0.167872
30
0.0
11
-0.043886
21
0.167313
31
0.0
0
LINE
8
0
6
CONTINUOUS
10
-0.028275
20
0.192062
30
0.0
11
-0.027293
21
0.193523
31
0.0
0
LINE
8
0
6
CONTINUOUS
10
-0.028275
20
0.193014
30
0.0
11
-0.028275
21
0.192062
31
0.0
0
LINE
8
0
6
CONTINUOUS
10
-0.002294
20
0.199532
30
0.0
11
-0.000221
21
0.199892
31
0.0
0
LINE
8
0
6
CONTINUOUS
10
-0.035353
20
0.186769
30
0.0
11
-0.033860
21
0.185596
31
0.0
0
LINE
8
0
6
CONTINUOUS
10
-0.046287
20
0.156993
30
0.0
11
-0.044289
21
0.157551
31
0.0
0
LINE
8
0
6
CONTINUOUS
10
0.003513
20
0.148141
30
0.0
11
0.003137
21
0.146519
31
0.0
0
LINE
8
0
6
CONTINUOUS
10
0.005511
20
0.148700
30
0.0
11
0.003513
21
0.148141
31
0.0
0
LINE
8
0
6
CONTINUOUS
10
0.007134
20
0.147636
30
0.0
11
0.005511
21
0.148700
31
0.0
0
LINE
8
0
6
CONTINUOUS
10
0.006758
20
0.146014
30
0.0
11
0.007134
21
0.147636
31
0.0
0
LINE
8
0
6
CONTINUOUS
10
0.004760
20
0.145456
30
0.0
11
0.006758
21
0.146014
31
0.0
0
LINE
8
0
6
CONTINUOUS
10
0.003137
20
0.146519
30
0.0
11
0.004760
21
0.145456
31
0.0
0
LINE
8
0
6
CONTINUOUS
10
0.042746
20
0.157445
30
0.0
11
0.044744
21
0.156886
31
0.0
0
LINE
8
0
6
CONTINUOUS
10
0.044744
20
0.156886
30
0.0
11
0.045120
21
0.155265
31
0.0
0
LINE
8
0
6
CONTINUOUS
10
0.039081
20
0.176976
30
0.0
11
0.040859
21
0.177878
31
0.0
0
LINE
8
0
6
CONTINUOUS
10
0.039081
20
0.177452
30
0.0
11
0.039081
21
0.176976
31
0.0
0
LINE
8
0
6
CONTINUOUS
10
0.040859
20
0.177878
30
0.0
11
0.042755
21
0.177135
31
0.0
0
LINE
8
0
6
CONTINUOUS
10
0.036427
20
0.184688
30
0.0
11
0.036427
21
0.185720
31
0.0
0
LINE
8
0
6
CONTINUOUS
10
0.035864
20
0.186277
30
0.0
11
0.036427
21
0.184688
31
0.0
0
LINE
8
0
6
CONTINUOUS
10
0.032317
20
0.185521
30
0.0
11
0.033809
21
0.186693
31
0.0
0
LINE
8
0
6
CONTINUOUS
10
0.032317
20
0.186313
30
0.0
11
0.032317
21
0.185521
31
0.0
0
LINE
8
0
6
CONTINUOUS
10
0.033809
20
0.186693
30
0.0
11
0.035864
21
0.186277
31
0.0
0
LINE
8
0
6
CONTINUOUS
10
0.026731
20
0.192004
30
0.0
11
0.026731
21
0.192895
31
0.0
0
LINE
8
0
6
CONTINUOUS
10
0.025750
20
0.193465
30
0.0
11
0.026731
21
0.192004
31
0.0
0
LINE
8
0
6
CONTINUOUS
10
0.022487
20
0.192147
30
0.0
11
0.023628
21
0.193537
31
0.0
0
LINE
8
0
6
CONTINUOUS
10
0.022487
20
0.192814
30
0.0
11
0.022487
21
0.192147
31
0.0
0
LINE
8
0
6
CONTINUOUS
10
0.023628
20
0.193537
30
0.0
11
0.025750
21
0.193465
31
0.0
0
LINE
8
0
6
CONTINUOUS
10
0.014103
20
0.196535
30
0.0
11
0.014103
21
0.197466
31
0.0
0
LINE
8
0
6
CONTINUOUS
10
0.012747
20
0.197803
30
0.0
11
0.014103
21
0.196535
31
0.0
0
LINE
8
0
6
CONTINUOUS
10
0.009915
20
0.195981
30
0.0
11
0.010653
21
0.197526
31
0.0
0
LINE
8
0
6
CONTINUOUS
10
0.009915
20
0.196679
30
0.0
11
0.009915
21
0.195981
31
0.0
0
LINE
8
0
6
CONTINUOUS
10
0.010653
20
0.197526
30
0.0
11
0.012747
21
0.197803
31
0.0
0
LINE
8
0
6
CONTINUOUS
10
0.041967
20
0.165581
30
0.0
11
0.042342
21
0.167202
31
0.0
0
LINE
8
0
6
CONTINUOUS
10
0.041967
20
0.165873
30
0.0
11
0.041967
21
0.165581
31
0.0
0
LINE
8
0
6
CONTINUOUS
10
0.042342
20
0.167202
30
0.0
11
0.044341
21
0.167761
31
0.0
0
LINE
8
0
6
CONTINUOUS
10
0.045963
20
0.166698
30
0.0
11
0.045963
21
0.167645
31
0.0
0
LINE
8
0
6
CONTINUOUS
10
0.044341
20
0.167761
30
0.0
11
0.045963
21
0.166698
31
0.0
0
LINE
8
0
6
CONTINUOUS
10
0.012093
20
0.159280
30
0.0
11
0.012093
21
0.160133
31
0.0
0
LINE
8
0
6
CONTINUOUS
10
0.011974
20
0.160925
30
0.0
11
0.012093
21
0.159280
31
0.0
0
LINE
8
0
6
CONTINUOUS
10
0.008301
20
0.160766
30
0.0
11
0.010078
21
0.161668
31
0.0
0
LINE
8
0
6
CONTINUOUS
10
0.008301
20
0.161522
30
0.0
11
0.008301
21
0.160766
31
0.0
0
LINE
8
0
6
CONTINUOUS
10
0.010078
20
0.161668
30
0.0
11
0.011974
21
0.160925
31
0.0
0
LINE
8
0
6
CONTINUOUS
10
0.018249
20
0.162108
30
0.0
11
0.018249
21
0.163094
31
0.0
0
LINE
8
0
6
CONTINUOUS
10
0.018130
20
0.163753
30
0.0
11
0.018249
21
0.162108
31
0.0
0
LINE
8
0
6
CONTINUOUS
10
0.014457
20
0.163593
30
0.0
11
0.016234
21
0.164496
31
0.0
0
LINE
8
0
6
CONTINUOUS
10
0.014457
20
0.164259
30
0.0
11
0.014457
21
0.163593
31
0.0
0
LINE
8
0
6
CONTINUOUS
10
0.016234
20
0.164496
30
0.0
11
0.018130
21
0.163753
31
0.0
0
LINE
8
0
6
CONTINUOUS
10
0.024405
20
0.165216
30
0.0
11
0.024405
21
0.166127
31
0.0
0
LINE
8
0
6
CONTINUOUS
10
0.024286
20
0.166861
30
0.0
11
0.024405
21
0.165216
31
0.0
0
LINE
8
0
6
CONTINUOUS
10
0.020613
20
0.166701
30
0.0
11
0.022390
21
0.167604
31
0.0
0
LINE
8
0
6
CONTINUOUS
10
0.020613
20
0.167384
30
0.0
11
0.020613
21
0.166701
31
0.0
0
LINE
8
0
6
CONTINUOUS
10
0.022390
20
0.167604
30
0.0
11
0.024286
21
0.166861
31
0.0
0
LINE
8
0
6
CONTINUOUS
10
0.030561
20
0.168485
30
0.0
11
0.030561
21
0.169533
31
0.0
0
LINE
8
0
6
CONTINUOUS
10
0.030442
20
0.170130
30
0.0
11
0.030561
21
0.168485
31
0.0
0
LINE
8
0
6
CONTINUOUS
10
0.026769
20
0.169970
30
0.0
11
0.028546
21
0.170873
31
0.0
0
LINE
8
0
6
CONTINUOUS
10
0.026769
20
0.170590
30
0.0
11
0.026769
21
0.169970
31
0.0
0
LINE
8
0
6
CONTINUOUS
10
0.028546
20
0.170873
30
0.0
11
0.030442
21
0.170130
31
0.0
0
LINE
8
0
6
CONTINUOUS
10
0.032925
20
0.173305
30
0.0
11
0.034702
21
0.174208
31
0.0
0
LINE
8
0
6
CONTINUOUS
10
0.032925
20
0.174053
30
0.0
11
0.032925
21
0.173305
31
0.0
0
LINE
8
0
6
CONTINUOUS
10
0.034702
20
0.174208
30
0.0
11
0.036598
21
0.173465
31
0.0
0
LINE
8
0
6
CONTINUOUS
10
0.006627
20
0.166807
30
0.0
11
0.006627
21
0.167615
31
0.0
0
LINE
8
0
6
CONTINUOUS
10
0.006064
20
0.168396
30
0.0
11
0.006627
21
0.166807
31
0.0
0
LINE
8
0
6
CONTINUOUS
10
0.002517
20
0.167640
30
0.0
11
0.004009
21
0.168812
31
0.0
0
LINE
8
0
6
CONTINUOUS
10
0.002517
20
0.168404
30
0.0
11
0.002517
21
0.167640
31
0.0
0
LINE
8
0
6
CONTINUOUS
10
0.004009
20
0.168812
30
0.0
11
0.006064
21
0.168396
31
0.0
0
LINE
8
0
6
CONTINUOUS
10
0.012587
20
0.170102
30
0.0
11
0.012587
21
0.170920
31
0.0
0
LINE
8
0
6
CONTINUOUS
10
0.012024
20
0.171691
30
0.0
11
0.012587
21
0.170102
31
0.0
0
LINE
8
0
6
CONTINUOUS
10
0.008477
20
0.170935
30
0.0
11
0.009969
21
0.172108
31
0.0
0
LINE
8
0
6
CONTINUOUS
10
0.008477
20
0.171714
30
0.0
11
0.008477
21
0.170935
31
0.0
0
LINE
8
0
6
CONTINUOUS
10
0.009969
20
0.172108
30
0.0
11
0.012024
21
0.171691
31
0.0
0
LINE
8
0
6
CONTINUOUS
10
0.018547
20
0.173563
30
0.0
11
0.018547
21
0.174498
31
0.0
0
LINE
8
0
6
CONTINUOUS
10
0.017984
20
0.175152
30
0.0
11
0.018547
21
0.173563
31
0.0
0
LINE
8
0
6
CONTINUOUS
10
0.014437
20
0.174395
30
0.0
11
0.015929
21
0.175568
31
0.0
0
LINE
8
0
6
CONTINUOUS
10
0.014437
20
0.175052
30
0.0
11
0.014437
21
0.174395
31
0.0
0
LINE
8
0
6
CONTINUOUS
10
0.015929
20
0.175568
30
0.0
11
0.017984
21
0.175152
31
0.0
0
LINE
8
0
6
CONTINUOUS
10
0.024507
20
0.177056
30
0.0
11
0.024507
21
0.178069
31
0.0
0
LINE
8
0
6
CONTINUOUS
10
0.023944
20
0.178645
30
0.0
11
0.024507
21
0.177056
31
0.0
0
LINE
8
0
6
CONTINUOUS
10
0.020397
20
0.177889
30
0.0
11
0.021889
21
0.179061
31
0.0
0
LINE
8
0
6
CONTINUOUS
10
0.020397
20
0.178647
30
0.0
11
0.020397
21
0.177889
31
0.0
0
LINE
8
0
6
CONTINUOUS
10
0.021889
20
0.179061
30
0.0
11
0.023944
21
0.178645
31
0.0
0
LINE
8
0
6
CONTINUOUS
10
0.030467
20
0.180933
30
0.0
11
0.030467
21
0.181986
31
0.0
0
LINE
8
0
6
CONTINUOUS
10
0.029904
20
0.182522
30
0.0
11
0.030467
21
0.180933
31
0.0
0
LINE
8
0
6
CONTINUOUS
10
0.026357
20
0.181766
30
0.0
11
0.027849
21
0.182938
31
0.0
0
LINE
8
0
6
CONTINUOUS
10
0.026357
20
0.182398
30
0.0
11
0.026357
21
0.181766
31
0.0
0
LINE
8
0
6
CONTINUOUS
10
0.003451
20
0.178244
30
0.0
11
0.004592
21
0.179634
31
0.0
0
LINE
8
0
6
CONTINUOUS
10
0.003451
20
0.179020
30
0.0
11
0.003451
21
0.178244
31
0.0
0
LINE
8
0
6
CONTINUOUS
10
0.009797
20
0.182682
30
0.0
11
0.010937
21
0.184072
31
0.0
0
LINE
8
0
6
CONTINUOUS
10
0.009797
20
0.183478
30
0.0
11
0.009797
21
0.182682
31
0.0
0
LINE
8
0
6
CONTINUOUS
10
0.020386
20
0.187292
30
0.0
11
0.020386
21
0.188278
31
0.0
0
LINE
8
0
6
CONTINUOUS
10
0.019405
20
0.188753
30
0.0
11
0.020386
21
0.187292
31
0.0
0
LINE
8
0
6
CONTINUOUS
10
0.012417
20
0.152480
30
0.0
11
0.012793
21
0.154102
31
0.0
0
LINE
8
0
6
CONTINUOUS
10
0.012417
20
0.153141
30
0.0
11
0.012417
21
0.152480
31
0.0
0
LINE
8
0
6
CONTINUOUS
10
0.012793
20
0.154102
30
0.0
11
0.014791
21
0.154660
31
0.0
0
LINE
8
0
6
CONTINUOUS
10
0.016414
20
0.153597
30
0.0
11
0.016414
21
0.154561
31
0.0
0
LINE
8
0
6
CONTINUOUS
10
0.014791
20
0.154660
30
0.0
11
0.016414
21
0.153597
31
0.0
0
LINE
8
0
6
CONTINUOUS
10
0.019805
20
0.155489
30
0.0
11
0.020180
21
0.157111
31
0.0
0
LINE
8
0
6
CONTINUOUS
10
0.019805
20
0.156151
30
0.0
11
0.019805
21
0.155489
31
0.0
0
LINE
8
0
6
CONTINUOUS
10
0.020180
20
0.157111
30
0.0
11
0.022179
21
0.157669
31
0.0
0
LINE
8
0
6
CONTINUOUS
10
0.027192
20
0.158591
30
0.0
11
0.027568
21
0.160213
31
0.0
0
LINE
8
0
6
CONTINUOUS
10
0.027192
20
0.159158
30
0.0
11
0.027192
21
0.158591
31
0.0
0
LINE
8
0
6
CONTINUOUS
10
0.027568
20
0.160213
30
0.0
11
0.029566
21
0.160771
31
0.0
0
LINE
8
0
6
CONTINUOUS
10
0.034579
20
0.161809
30
0.0
11
0.034955
21
0.163431
31
0.0
0
LINE
8
0
6
CONTINUOUS
10
0.034579
20
0.161896
30
0.0
11
0.034579
21
0.161809
31
0.0
0
LINE
8
0
6
CONTINUOUS
10
0.034955
20
0.163431
30
0.0
11
0.036953
21
0.163989
31
0.0
0
LINE
8
0
6
CONTINUOUS
10
0.038576
20
0.162926
30
0.0
11
0.038576
21
0.164044
31
0.0
0
LINE
8
0
6
CONTINUOUS
10
0.036953
20
0.163989
30
0.0
11
0.038576
21
0.162926
31
0.0
0
LINE
8
0
6
CONTINUOUS
10
0.017199
20
0.130779
30
0.0
11
0.017574
21
0.132401
31
0.0
0
LINE
8
0
6
CONTINUOUS
10
0.017199
20
0.131392
30
0.0
11
0.017199
21
0.130779
31
0.0
0
LINE
8
0
6
CONTINUOUS
10
0.017574
20
0.132401
30
0.0
11
0.019573
21
0.132959
31
0.0
0
LINE
8
0
6
CONTINUOUS
10
0.021195
20
0.131896
30
0.0
11
0.021195
21
0.132780
31
0.0
0
LINE
8
0
6
CONTINUOUS
10
0.019573
20
0.132959
30
0.0
11
0.021195
21
0.131896
31
0.0
0
LINE
8
0
6
CONTINUOUS
10
0.014808
20
0.141462
30
0.0
11
0.015184
21
0.143084
31
0.0
0
LINE
8
0
6
CONTINUOUS
10
0.014808
20
0.142135
30
0.0
11
0.014808
21
0.141462
31
0.0
0
LINE
8
0
6
CONTINUOUS
10
0.015184
20
0.143084
30
0.0
11
0.017182
21
0.143642
31
0.0
0
LINE
8
0
6
CONTINUOUS
10
0.018805
20
0.142579
30
0.0
11
0.018805
21
0.143461
31
0.0
0
LINE
8
0
6
CONTINUOUS
10
0.017182
20
0.143642
30
0.0
11
0.018805
21
0.142579
31
0.0
0
LINE
8
0
6
CONTINUOUS
10
0.013612
20
0.146908
30
0.0
11
0.013988
21
0.148530
31
0.0
0
LINE
8
0
6
CONTINUOUS
10
0.013613
20
0.147599
30
0.0
11
0.013612
21
0.146908
31
0.0
0
LINE
8
0
6
CONTINUOUS
10
0.032686
20
0.152754
30
0.0
11
0.034308
21
0.153817
31
0.0
0
LINE
8
0
6
CONTINUOUS
10
0.032686
20
0.153301
30
0.0
11
0.032686
21
0.152754
31
0.0
0
LINE
8
0
6
CONTINUOUS
10
0.034308
20
0.153817
30
0.0
11
0.036307
21
0.153259
31
0.0
0
LINE
8
0
6
CONTINUOUS
10
0.036307
20
0.153259
30
0.0
11
0.036683
21
0.151637
31
0.0
0
LINE
8
0
6
CONTINUOUS
10
0.026434
20
0.151047
30
0.0
11
0.028432
21
0.150489
31
0.0
0
LINE
8
0
6
CONTINUOUS
10
0.028432
20
0.150489
30
0.0
11
0.028808
21
0.148867
31
0.0
0
LINE
8
0
6
CONTINUOUS
10
0.026780
20
0.144018
30
0.0
11
0.028402
21
0.145081
31
0.0
0
LINE
8
0
6
CONTINUOUS
10
0.026780
20
0.144506
30
0.0
11
0.026780
21
0.144018
31
0.0
0
LINE
8
0
6
CONTINUOUS
10
0.028402
20
0.145081
30
0.0
11
0.030401
21
0.144523
31
0.0
0
LINE
8
0
6
CONTINUOUS
10
0.031245
20
0.139012
30
0.0
11
0.031620
21
0.137390
31
0.0
0
LINE
8
0
6
CONTINUOUS
10
0.036483
20
0.146836
30
0.0
11
0.038105
21
0.147899
31
0.0
0
LINE
8
0
6
CONTINUOUS
10
0.036483
20
0.147020
30
0.0
11
0.036483
21
0.146836
31
0.0
0
LINE
8
0
6
CONTINUOUS
10
0.038105
20
0.147899
30
0.0
11
0.040104
21
0.147340
31
0.0
0
LINE
8
0
6
CONTINUOUS
10
0.040104
20
0.147340
30
0.0
11
0.040479
21
0.145719
31
0.0
0
LINE
8
0
6
CONTINUOUS
10
0.003184
20
0.153129
30
0.0
11
0.005182
21
0.153687
31
0.0
0
LINE
8
0
6
CONTINUOUS
10
0.006805
20
0.152624
30
0.0
11
0.006805
21
0.153434
31
0.0
0
LINE
8
0
6
CONTINUOUS
10
0.005182
20
0.153687
30
0.0
11
0.006805
21
0.152624
31
0.0
0
LINE
8
0
6
CONTINUOUS
10
0.004123
20
0.131803
30
0.0
11
0.004499
21
0.133425
31
0.0
0
LINE
8
0
6
CONTINUOUS
10
0.004123
20
0.132549
30
0.0
11
0.004123
21
0.131803
31
0.0
0
LINE
8
0
6
CONTINUOUS
10
0.004499
20
0.133425
30
0.0
11
0.006497
21
0.133984
31
0.0
0
LINE
8
0
6
CONTINUOUS
10
0.008120
20
0.132920
30
0.0
11
0.008120
21
0.133607
31
0.0
0
LINE
8
0
6
CONTINUOUS
10
0.006497
20
0.133984
30
0.0
11
0.008120
21
0.132920
31
0.0
0
LINE
8
0
6
CONTINUOUS
10
0.003795
20
0.136593
30
0.0
11
0.004170
21
0.138215
31
0.0
0
LINE
8
0
6
CONTINUOUS
10
0.003795
20
0.137351
30
0.0
11
0.003795
21
0.136593
31
0.0
0
LINE
8
0
6
CONTINUOUS
10
0.004170
20
0.138215
30
0.0
11
0.006169
21
0.138773
31
0.0
0
LINE
8
0
6
CONTINUOUS
10
0.007791
20
0.137710
30
0.0
11
0.007791
21
0.138476
31
0.0
0
LINE
8
0
6
CONTINUOUS
10
0.006169
20
0.138773
30
0.0
11
0.007791
21
0.137710
31
0.0
0
LINE
8
0
6
CONTINUOUS
10
0.003466
20
0.141527
30
0.0
11
0.003841
21
0.143149
31
0.0
0
LINE
8
0
6
CONTINUOUS
10
0.003466
20
0.142280
30
0.0
11
0.003466
21
0.141527
31
0.0
0
LINE
8
0
6
CONTINUOUS
10
0.003841
20
0.143149
30
0.0
11
0.005840
21
0.143707
31
0.0
0
LINE
8
0
6
CONTINUOUS
10
0.007462
20
0.142644
30
0.0
11
0.007462
21
0.143426
31
0.0
0
LINE
8
0
6
CONTINUOUS
10
0.005840
20
0.143707
30
0.0
11
0.007462
21
0.142644
31
0.0
0
LINE
8
0
6
CONTINUOUS
10
0.003137
20
0.146519
30
0.0
11
0.003513
21
0.148141
31
0.0
0
LINE
8
0
6
CONTINUOUS
10
0.003137
20
0.147272
30
0.0
11
0.003137
21
0.146519
31
0.0
0
LINE
8
0
6
CONTINUOUS
10
0.003513
20
0.148141
30
0.0
11
0.005511
21
0.148700
31
0.0
0
LINE
8
0
6
CONTINUOUS
10
0.007134
20
0.147636
30
0.0
11
0.007134
21
0.148424
31
0.0
0
LINE
8
0
6
CONTINUOUS
10
0.005511
20
0.148700
30
0.0
11
0.007134
21
0.147636
31
0.0
0
LINE
8
0
6
CONTINUOUS
10
-0.005056
20
0.148156
30
0.0
11
-0.004680
21
0.146534
31
0.0
0
LINE
8
0
6
CONTINUOUS
10
-0.007054
20
0.148714
30
0.0
11
-0.005056
21
0.148156
31
0.0
0
LINE
8
0
6
CONTINUOUS
10
-0.008677
20
0.147651
30
0.0
11
-0.007054
21
0.148714
31
0.0
0
LINE
8
0
6
CONTINUOUS
10
-0.008677
20
0.148468
30
0.0
11
-0.008677
21
0.147651
31
0.0
0
LINE
8
0
6
CONTINUOUS
10
-0.005384
20
0.143155
30
0.0
11
-0.005009
21
0.141534
31
0.0
0
LINE
8
0
6
CONTINUOUS
10
-0.007383
20
0.143714
30
0.0
11
-0.005384
21
0.143155
31
0.0
0
LINE
8
0
6
CONTINUOUS
10
-0.009005
20
0.142650
30
0.0
11
-0.007383
21
0.143714
31
0.0
0
LINE
8
0
6
CONTINUOUS
10
-0.009005
20
0.143470
30
0.0
11
-0.009005
21
0.142650
31
0.0
0
LINE
8
0
6
CONTINUOUS
10
-0.009334
20
0.137696
30
0.0
11
-0.007711
21
0.138759
31
0.0
0
LINE
8
0
6
CONTINUOUS
10
-0.009334
20
0.138517
30
0.0
11
-0.009334
21
0.137696
31
0.0
0
LINE
8
0
6
CONTINUOUS
10
-0.009663
20
0.133008
30
0.0
11
-0.008040
21
0.134072
31
0.0
0
LINE
8
0
6
CONTINUOUS
10
-0.009663
20
0.133697
30
0.0
11
-0.009663
21
0.133008
31
0.0
0
LINE
8
0
6
CONTINUOUS
10
-0.004727
20
0.153143
30
0.0
11
-0.004351
21
0.151521
31
0.0
0
LINE
8
0
6
CONTINUOUS
10
-0.006725
20
0.153701
30
0.0
11
-0.004727
21
0.153143
31
0.0
0
LINE
8
0
6
CONTINUOUS
10
-0.008348
20
0.152638
30
0.0
11
-0.006725
21
0.153701
31
0.0
0
LINE
8
0
6
CONTINUOUS
10
-0.008348
20
0.153482
30
0.0
11
-0.008348
21
0.152638
31
0.0
0
LINE
8
0
6
CONTINUOUS
10
-0.041646
20
0.147437
30
0.0
11
-0.039648
21
0.147996
31
0.0
0
LINE
8
0
6
CONTINUOUS
10
-0.042022
20
0.145815
30
0.0
11
-0.041646
21
0.147437
31
0.0
0
LINE
8
0
6
CONTINUOUS
10
-0.042022
20
0.146671
30
0.0
11
-0.042022
21
0.145815
31
0.0
0
LINE
8
0
6
CONTINUOUS
10
-0.029166
20
0.138640
30
0.0
11
-0.029166
21
0.139096
31
0.0
0
LINE
8
0
6
CONTINUOUS
10
-0.030789
20
0.139703
30
0.0
11
-0.029166
21
0.138640
31
0.0
0
LINE
8
0
6
CONTINUOUS
10
-0.032787
20
0.139145
30
0.0
11
-0.030789
21
0.139703
31
0.0
0
LINE
8
0
6
CONTINUOUS
10
-0.033163
20
0.137523
30
0.0
11
-0.032787
21
0.139145
31
0.0
0
LINE
8
0
6
CONTINUOUS
10
-0.033163
20
0.138522
30
0.0
11
-0.033163
21
0.137523
31
0.0
0
LINE
8
0
6
CONTINUOUS
10
-0.028323
20
0.144055
30
0.0
11
-0.028323
21
0.144678
31
0.0
0
LINE
8
0
6
CONTINUOUS
10
-0.029945
20
0.145119
30
0.0
11
-0.028323
21
0.144055
31
0.0
0
LINE
8
0
6
CONTINUOUS
10
-0.031944
20
0.144560
30
0.0
11
-0.029945
21
0.145119
31
0.0
0
LINE
8
0
6
CONTINUOUS
10
-0.032319
20
0.142939
30
0.0
11
-0.031944
21
0.144560
31
0.0
0
LINE
8
0
6
CONTINUOUS
10
-0.032319
20
0.144089
30
0.0
11
-0.032319
21
0.142939
31
0.0
0
LINE
8
0
6
CONTINUOUS
10
-0.029975
20
0.150545
30
0.0
11
-0.027977
21
0.151104
31
0.0
0
LINE
8
0
6
CONTINUOUS
10
-0.030351
20
0.148923
30
0.0
11
-0.029975
21
0.150545
31
0.0
0
LINE
8
0
6
CONTINUOUS
10
-0.030351
20
0.150117
30
0.0
11
-0.030351
21
0.148923
31
0.0
0
LINE
8
0
6
CONTINUOUS
10
-0.034229
20
0.152835
30
0.0
11
-0.034229
21
0.153500
31
0.0
0
LINE
8
0
6
CONTINUOUS
10
-0.035851
20
0.153899
30
0.0
11
-0.034229
21
0.152835
31
0.0
0
LINE
8
0
6
CONTINUOUS
10
-0.037850
20
0.153340
30
0.0
11
-0.035851
21
0.153899
31
0.0
0
LINE
8
0
6
CONTINUOUS
10
-0.038226
20
0.151718
30
0.0
11
-0.037850
21
0.153340
31
0.0
0
LINE
8
0
6
CONTINUOUS
10
-0.038225
20
0.152911
30
0.0
11
-0.038226
21
0.151718
31
0.0
0
LINE
8
0
6
CONTINUOUS
10
-0.015531
20
0.148569
30
0.0
11
-0.015156
21
0.146947
31
0.0
0
LINE
8
0
6
CONTINUOUS
10
-0.017530
20
0.149128
30
0.0
11
-0.015531
21
0.148569
31
0.0
0
LINE
8
0
6
CONTINUOUS
10
-0.019152
20
0.148064
30
0.0
11
-0.017530
21
0.149128
31
0.0
0
LINE
8
0
6
CONTINUOUS
10
-0.019152
20
0.149072
30
0.0
11
-0.019152
21
0.148064
31
0.0
0
LINE
8
0
6
CONTINUOUS
10
-0.018725
20
0.143635
30
0.0
11
-0.016726
21
0.143076
31
0.0
0
LINE
8
0
6
CONTINUOUS
10
-0.020347
20
0.142571
30
0.0
11
-0.018725
21
0.143635
31
0.0
0
LINE
8
0
6
CONTINUOUS
10
-0.020347
20
0.143582
30
0.0
11
-0.020347
21
0.142571
31
0.0
0
LINE
8
0
6
CONTINUOUS
10
-0.017922
20
0.137690
30
0.0
11
-0.017546
21
0.136068
31
0.0
0
LINE
8
0
6
CONTINUOUS
10
-0.019920
20
0.138248
30
0.0
11
-0.017922
21
0.137690
31
0.0
0
LINE
8
0
6
CONTINUOUS
10
-0.021543
20
0.137185
30
0.0
11
-0.019920
21
0.138248
31
0.0
0
LINE
8
0
6
CONTINUOUS
10
-0.021543
20
0.138210
30
0.0
11
-0.021543
21
0.137185
31
0.0
0
LINE
8
0
6
CONTINUOUS
10
-0.021115
20
0.133296
30
0.0
11
-0.019117
21
0.132738
31
0.0
0
LINE
8
0
6
CONTINUOUS
10
-0.022738
20
0.132233
30
0.0
11
-0.021115
21
0.133296
31
0.0
0
LINE
8
0
6
CONTINUOUS
10
-0.022738
20
0.132923
30
0.0
11
-0.022738
21
0.132233
31
0.0
0
LINE
8
0
6
CONTINUOUS
10
-0.036498
20
0.163519
30
0.0
11
-0.036122
21
0.161897
31
0.0
0
LINE
8
0
6
CONTINUOUS
10
-0.038497
20
0.164077
30
0.0
11
-0.036498
21
0.163519
31
0.0
0
LINE
8
0
6
CONTINUOUS
10
-0.040119
20
0.163014
30
0.0
11
-0.038497
21
0.164077
31
0.0
0
LINE
8
0
6
CONTINUOUS
10
-0.040119
20
0.164256
30
0.0
11
-0.040119
21
0.163014
31
0.0
0
LINE
8
0
6
CONTINUOUS
10
-0.029111
20
0.160287
30
0.0
11
-0.028735
21
0.158665
31
0.0
0
LINE
8
0
6
CONTINUOUS
10
-0.031109
20
0.160845
30
0.0
11
-0.029111
21
0.160287
31
0.0
0
LINE
8
0
6
CONTINUOUS
10
-0.032732
20
0.159782
30
0.0
11
-0.031109
21
0.160845
31
0.0
0
LINE
8
0
6
CONTINUOUS
10
-0.032732
20
0.160942
30
0.0
11
-0.032732
21
0.159782
31
0.0
0
LINE
8
0
6
CONTINUOUS
10
-0.023722
20
0.157721
30
0.0
11
-0.021723
21
0.157163
31
0.0
0
LINE
8
0
6
CONTINUOUS
10
-0.025344
20
0.156658
30
0.0
11
-0.023722
21
0.157721
31
0.0
0
LINE
8
0
6
CONTINUOUS
10
-0.025344
20
0.157702
30
0.0
11
-0.025344
21
0.156658
31
0.0
0
LINE
8
0
6
CONTINUOUS
10
-0.014336
20
0.154141
30
0.0
11
-0.013960
21
0.152519
31
0.0
0
LINE
8
0
6
CONTINUOUS
10
-0.017957
20
0.153636
30
0.0
11
-0.016334
21
0.154699
31
0.0
0
LINE
8
0
6
CONTINUOUS
10
-0.017957
20
0.154699
30
0.0
11
-0.017957
21
0.153636
31
0.0
0
LINE
8
0
6
CONTINUOUS
10
-0.002866
20
0.186034
30
0.0
11
-0.001509
21
0.187302
31
0.0
0
LINE
8
0
6
CONTINUOUS
10
-0.002866
20
0.186980
30
0.0
11
-0.002866
21
0.186034
31
0.0
0
LINE
8
0
6
CONTINUOUS
10
0.000584
20
0.187025
30
0.0
11
0.001322
21
0.185479
31
0.0
0
LINE
8
0
6
CONTINUOUS
10
-0.001509
20
0.187302
30
0.0
11
0.000584
21
0.187025
31
0.0
0
LINE
8
0
6
CONTINUOUS
10
-0.021930
20
0.187335
30
0.0
11
-0.020948
21
0.188796
31
0.0
0
LINE
8
0
6
CONTINUOUS
10
-0.021930
20
0.188380
30
0.0
11
-0.021930
21
0.187335
31
0.0
0
LINE
8
0
6
CONTINUOUS
10
-0.018826
20
0.188867
30
0.0
11
-0.017686
21
0.187477
31
0.0
0
LINE
8
0
6
CONTINUOUS
10
-0.020948
20
0.188796
30
0.0
11
-0.018826
21
0.188867
31
0.0
0
LINE
8
0
6
CONTINUOUS
10
-0.015584
20
0.182565
30
0.0
11
-0.014603
21
0.184026
31
0.0
0
LINE
8
0
6
CONTINUOUS
10
-0.015584
20
0.183592
30
0.0
11
-0.015584
21
0.182565
31
0.0
0
LINE
8
0
6
CONTINUOUS
10
-0.012481
20
0.184097
30
0.0
11
-0.011340
21
0.182707
31
0.0
0
LINE
8
0
6
CONTINUOUS
10
-0.014603
20
0.184026
30
0.0
11
-0.012481
21
0.184097
31
0.0
0
LINE
8
0
6
CONTINUOUS
10
-0.002894
20
0.173864
30
0.0
11
-0.001912
21
0.175325
31
0.0
0
LINE
8
0
6
CONTINUOUS
10
0.000210
20
0.175397
30
0.0
11
0.001350
21
0.174006
31
0.0
0
LINE
8
0
6
CONTINUOUS
10
-0.001912
20
0.175325
30
0.0
11
0.000210
21
0.175397
31
0.0
0
LINE
8
0
6
CONTINUOUS
10
-0.032011
20
0.181009
30
0.0
11
-0.031448
21
0.182598
31
0.0
0
LINE
8
0
6
CONTINUOUS
10
-0.032011
20
0.182140
30
0.0
11
-0.032011
21
0.181009
31
0.0
0
LINE
8
0
6
CONTINUOUS
10
-0.029393
20
0.183015
30
0.0
11
-0.027900
21
0.181842
31
0.0
0
LINE
8
0
6
CONTINUOUS
10
-0.031448
20
0.182598
30
0.0
11
-0.029393
21
0.183015
31
0.0
0
LINE
8
0
6
CONTINUOUS
10
-0.026051
20
0.177110
30
0.0
11
-0.025488
21
0.178699
31
0.0
0
LINE
8
0
6
CONTINUOUS
10
-0.026051
20
0.178204
30
0.0
11
-0.026051
21
0.177110
31
0.0
0
LINE
8
0
6
CONTINUOUS
10
-0.023433
20
0.179115
30
0.0
11
-0.021940
21
0.177943
31
0.0
0
LINE
8
0
6
CONTINUOUS
10
-0.025488
20
0.178699
30
0.0
11
-0.023433
21
0.179115
31
0.0
0
LINE
8
0
6
CONTINUOUS
10
-0.020091
20
0.173609
30
0.0
11
-0.019528
21
0.175198
31
0.0
0
LINE
8
0
6
CONTINUOUS
10
-0.020091
20
0.174628
30
0.0
11
-0.020091
21
0.173609
31
0.0
0
LINE
8
0
6
CONTINUOUS
10
-0.017473
20
0.175614
30
0.0
11
-0.015980
21
0.174441
31
0.0
0
LINE
8
0
6
CONTINUOUS
10
-0.019528
20
0.175198
30
0.0
11
-0.017473
21
0.175614
31
0.0
0
LINE
8
0
6
CONTINUOUS
10
-0.011513
20
0.172131
30
0.0
11
-0.010020
21
0.170958
31
0.0
0
LINE
8
0
6
CONTINUOUS
10
-0.008170
20
0.166821
30
0.0
11
-0.007608
21
0.168410
31
0.0
0
LINE
8
0
6
CONTINUOUS
10
-0.008170
20
0.167658
30
0.0
11
-0.008170
21
0.166821
31
0.0
0
LINE
8
0
6
CONTINUOUS
10
-0.007608
20
0.168410
30
0.0
11
-0.005553
21
0.168826
31
0.0
0
LINE
8
0
6
CONTINUOUS
10
-0.038261
20
0.171901
30
0.0
11
-0.038142
21
0.173547
31
0.0
0
LINE
8
0
6
CONTINUOUS
10
-0.038261
20
0.173089
30
0.0
11
-0.038261
21
0.171901
31
0.0
0
LINE
8
0
6
CONTINUOUS
10
-0.036246
20
0.174289
30
0.0
11
-0.034469
21
0.173387
31
0.0
0
LINE
8
0
6
CONTINUOUS
10
-0.038142
20
0.173547
30
0.0
11
-0.036246
21
0.174289
31
0.0
0
LINE
8
0
6
CONTINUOUS
10
-0.032105
20
0.168560
30
0.0
11
-0.031986
21
0.170205
31
0.0
0
LINE
8
0
6
CONTINUOUS
10
-0.032105
20
0.169720
30
0.0
11
-0.032105
21
0.168560
31
0.0
0
LINE
8
0
6
CONTINUOUS
10
-0.030090
20
0.170948
30
0.0
11
-0.028312
21
0.170046
31
0.0
0
LINE
8
0
6
CONTINUOUS
10
-0.031986
20
0.170205
30
0.0
11
-0.030090
21
0.170948
31
0.0
0
LINE
8
0
6
CONTINUOUS
10
-0.025948
20
0.165271
30
0.0
11
-0.025830
21
0.166916
31
0.0
0
LINE
8
0
6
CONTINUOUS
10
-0.025948
20
0.166259
30
0.0
11
-0.025948
21
0.165271
31
0.0
0
LINE
8
0
6
CONTINUOUS
10
-0.025830
20
0.166916
30
0.0
11
-0.023934
21
0.167659
31
0.0
0
LINE
8
0
6
CONTINUOUS
10
-0.019792
20
0.162151
30
0.0
11
-0.019673
21
0.163796
31
0.0
0
LINE
8
0
6
CONTINUOUS
10
-0.019792
20
0.163218
30
0.0
11
-0.019792
21
0.162151
31
0.0
0
LINE
8
0
6
CONTINUOUS
10
-0.019673
20
0.163796
30
0.0
11
-0.017777
21
0.164539
31
0.0
0
LINE
8
0
6
CONTINUOUS
10
-0.013636
20
0.159304
30
0.0
11
-0.013517
21
0.160949
31
0.0
0
LINE
8
0
6
CONTINUOUS
10
-0.013636
20
0.160188
30
0.0
11
-0.013636
21
0.159304
31
0.0
0
LINE
8
0
6
CONTINUOUS
10
-0.011621
20
0.161692
30
0.0
11
-0.009844
21
0.160789
31
0.0
0
LINE
8
0
6
CONTINUOUS
10
-0.013517
20
0.160949
30
0.0
11
-0.011621
21
0.161692
31
0.0
0
LINE
8
0
6
CONTINUOUS
10
-0.043886
20
0.167313
30
0.0
11
-0.043510
21
0.165692
31
0.0
0
LINE
8
0
6
CONTINUOUS
10
-0.047507
20
0.166809
30
0.0
11
-0.045884
21
0.167872
31
0.0
0
LINE
8
0
6
CONTINUOUS
10
-0.047507
20
0.167885
30
0.0
11
-0.047507
21
0.166809
31
0.0
0
LINE
8
0
6
CONTINUOUS
10
-0.015647
20
0.196561
30
0.0
11
-0.014290
21
0.197829
31
0.0
0
LINE
8
0
6
CONTINUOUS
10
-0.015647
20
0.197517
30
0.0
11
-0.015647
21
0.196561
31
0.0
0
LINE
8
0
6
CONTINUOUS
10
-0.012197
20
0.197552
30
0.0
11
-0.011459
21
0.196006
31
0.0
0
LINE
8
0
6
CONTINUOUS
10
-0.014290
20
0.197829
30
0.0
11
-0.012197
21
0.197552
31
0.0
0
LINE
8
0
6
CONTINUOUS
10
-0.025171
20
0.193594
30
0.0
11
-0.024031
21
0.192204
31
0.0
0
LINE
8
0
6
CONTINUOUS
10
-0.027293
20
0.193523
30
0.0
11
-0.025171
21
0.193594
31
0.0
0
LINE
8
0
6
CONTINUOUS
10
-0.002929
20
0.197959
30
0.0
11
-0.002294
21
0.199532
31
0.0
0
LINE
8
0
6
CONTINUOUS
10
-0.002929
20
0.198733
30
0.0
11
-0.002929
21
0.197959
31
0.0
0
LINE
8
0
6
CONTINUOUS
10
-0.000221
20
0.199892
30
0.0
11
0.001217
21
0.198679
31
0.0
0
LINE
8
0
6
CONTINUOUS
10
-0.037971
20
0.184764
30
0.0
11
-0.037408
21
0.186353
31
0.0
0
LINE
8
0
6
CONTINUOUS
10
-0.037971
20
0.185861
30
0.0
11
-0.037971
21
0.184764
31
0.0
0
LINE
8
0
6
CONTINUOUS
10
-0.037408
20
0.186353
30
0.0
11
-0.035353
21
0.186769
31
0.0
0
LINE
8
0
6
CONTINUOUS
10
-0.044417
20
0.175596
30
0.0
11
-0.044298
21
0.177241
31
0.0
0
LINE
8
0
6
CONTINUOUS
10
-0.044417
20
0.176542
30
0.0
11
-0.044417
21
0.175596
31
0.0
0
LINE
8
0
6
CONTINUOUS
10
-0.042402
20
0.177984
30
0.0
11
-0.040625
21
0.177081
31
0.0
0
LINE
8
0
6
CONTINUOUS
10
-0.044298
20
0.177241
30
0.0
11
-0.042402
21
0.177984
31
0.0
0
LINE
8
0
6
CONTINUOUS
10
-0.042666
20
0.156488
30
0.0
11
-0.042666
21
0.156885
31
0.0
0
LINE
8
0
6
CONTINUOUS
10
-0.044289
20
0.157551
30
0.0
11
-0.042666
21
0.156488
31
0.0
0
LINE
8
0
6
CONTINUOUS
10
-0.046663
20
0.155371
30
0.0
11
-0.046287
21
0.156993
31
0.0
0
LINE
8
0
6
CONTINUOUS
10
-0.046663
20
0.156418
30
0.0
11
-0.046663
21
0.155371
31
0.0
0
LINE
8
0
6
CONTINUOUS
10
0.042746
20
0.157445
30
0.0
11
0.041123
21
0.156382
31
0.0
0
LINE
8
0
6
CONTINUOUS
10
0.044744
20
0.156886
30
0.0
11
0.042746
21
0.157445
31
0.0
0
LINE
8
0
6
CONTINUOUS
10
0.045120
20
0.155265
30
0.0
11
0.044744
21
0.156886
31
0.0
0
LINE
8
0
6
CONTINUOUS
10
0.043497
20
0.154201
30
0.0
11
0.045120
21
0.155265
31
0.0
0
LINE
8
0
6
CONTINUOUS
10
0.041499
20
0.154760
30
0.0
11
0.043497
21
0.154201
31
0.0
0
LINE
8
0
6
CONTINUOUS
10
0.041123
20
0.156382
30
0.0
11
0.041499
21
0.154760
31
0.0
0
LINE
8
0
6
CONTINUOUS
10
0.039081
20
0.176976
30
0.0
11
0.039200
21
0.175331
31
0.0
0
LINE
8
0
6
CONTINUOUS
10
0.040859
20
0.177878
30
0.0
11
0.039081
21
0.176976
31
0.0
0
LINE
8
0
6
CONTINUOUS
10
0.042755
20
0.177135
30
0.0
11
0.040859
21
0.177878
31
0.0
0
LINE
8
0
6
CONTINUOUS
10
0.042873
20
0.175490
30
0.0
11
0.042755
21
0.177135
31
0.0
0
LINE
8
0
6
CONTINUOUS
10
0.041096
20
0.174588
30
0.0
11
0.042873
21
0.175490
31
0.0
0
LINE
8
0
6
CONTINUOUS
10
0.039200
20
0.175331
30
0.0
11
0.041096
21
0.174588
31
0.0
0
LINE
8
0
6
CONTINUOUS
10
0.032317
20
0.185521
30
0.0
11
0.032880
21
0.183932
31
0.0
0
LINE
8
0
6
CONTINUOUS
10
0.033809
20
0.186693
30
0.0
11
0.032317
21
0.185521
31
0.0
0
LINE
8
0
6
CONTINUOUS
10
0.035864
20
0.186277
30
0.0
11
0.033809
21
0.186693
31
0.0
0
LINE
8
0
6
CONTINUOUS
10
0.036427
20
0.184688
30
0.0
11
0.035864
21
0.186277
31
0.0
0
LINE
8
0
6
CONTINUOUS
10
0.034935
20
0.183515
30
0.0
11
0.036427
21
0.184688
31
0.0
0
LINE
8
0
6
CONTINUOUS
10
0.032880
20
0.183932
30
0.0
11
0.034935
21
0.183515
31
0.0
0
LINE
8
0
6
CONTINUOUS
10
0.022487
20
0.192147
30
0.0
11
0.023469
21
0.190685
31
0.0
0
LINE
8
0
6
CONTINUOUS
10
0.023628
20
0.193537
30
0.0
11
0.022487
21
0.192147
31
0.0
0
LINE
8
0
6
CONTINUOUS
10
0.025750
20
0.193465
30
0.0
11
0.023628
21
0.193537
31
0.0
0
LINE
8
0
6
CONTINUOUS
10
0.026731
20
0.192004
30
0.0
11
0.025750
21
0.193465
31
0.0
0
LINE
8
0
6
CONTINUOUS
10
0.025591
20
0.190614
30
0.0
11
0.026731
21
0.192004
31
0.0
0
LINE
8
0
6
CONTINUOUS
10
0.023469
20
0.190685
30
0.0
11
0.025591
21
0.190614
31
0.0
0
LINE
8
0
6
CONTINUOUS
10
0.009915
20
0.195981
30
0.0
11
0.011271
21
0.194712
31
0.0
0
LINE
8
0
6
CONTINUOUS
10
0.010653
20
0.197526
30
0.0
11
0.009915
21
0.195981
31
0.0
0
LINE
8
0
6
CONTINUOUS
10
0.012747
20
0.197803
30
0.0
11
0.010653
21
0.197526
31
0.0
0
LINE
8
0
6
CONTINUOUS
10
0.014103
20
0.196535
30
0.0
11
0.012747
21
0.197803
31
0.0
0
LINE
8
0
6
CONTINUOUS
10
0.013365
20
0.194989
30
0.0
11
0.014103
21
0.196535
31
0.0
0
LINE
8
0
6
CONTINUOUS
10
0.011271
20
0.194712
30
0.0
11
0.013365
21
0.194989
31
0.0
0
LINE
8
0
6
CONTINUOUS
10
0.042342
20
0.167202
30
0.0
11
0.041967
21
0.165581
31
0.0
0
LINE
8
0
6
CONTINUOUS
10
0.044341
20
0.167761
30
0.0
11
0.042342
21
0.167202
31
0.0
0
LINE
8
0
6
CONTINUOUS
10
0.045963
20
0.166698
30
0.0
11
0.044341
21
0.167761
31
0.0
0
LINE
8
0
6
CONTINUOUS
10
0.045588
20
0.165076
30
0.0
11
0.045963
21
0.166698
31
0.0
0
LINE
8
0
6
CONTINUOUS
10
0.043589
20
0.164517
30
0.0
11
0.045588
21
0.165076
31
0.0
0
LINE
8
0
6
CONTINUOUS
10
0.041967
20
0.165581
30
0.0
11
0.043589
21
0.164517
31
0.0
0
LINE
8
0
6
CONTINUOUS
10
0.008301
20
0.160766
30
0.0
11
0.008420
21
0.159120
31
0.0
0
LINE
8
0
6
CONTINUOUS
10
0.010078
20
0.161668
30
0.0
11
0.008301
21
0.160766
31
0.0
0
LINE
8
0
6
CONTINUOUS
10
0.011974
20
0.160925
30
0.0
11
0.010078
21
0.161668
31
0.0
0
LINE
8
0
6
CONTINUOUS
10
0.012093
20
0.159280
30
0.0
11
0.011974
21
0.160925
31
0.0
0
LINE
8
0
6
CONTINUOUS
10
0.010316
20
0.158378
30
0.0
11
0.012093
21
0.159280
31
0.0
0
LINE
8
0
6
CONTINUOUS
10
0.008420
20
0.159120
30
0.0
11
0.010316
21
0.158378
31
0.0
0
LINE
8
0
6
CONTINUOUS
10
0.014457
20
0.163593
30
0.0
11
0.014576
21
0.161948
31
0.0
0
LINE
8
0
6
CONTINUOUS
10
0.016234
20
0.164496
30
0.0
11
0.014457
21
0.163593
31
0.0
0
LINE
8
0
6
CONTINUOUS
10
0.018130
20
0.163753
30
0.0
11
0.016234
21
0.164496
31
0.0
0
LINE
8
0
6
CONTINUOUS
10
0.018249
20
0.162108
30
0.0
11
0.018130
21
0.163753
31
0.0
0
LINE
8
0
6
CONTINUOUS
10
0.016472
20
0.161205
30
0.0
11
0.018249
21
0.162108
31
0.0
0
LINE
8
0
6
CONTINUOUS
10
0.014576
20
0.161948
30
0.0
11
0.016472
21
0.161205
31
0.0
0
LINE
8
0
6
CONTINUOUS
10
0.020613
20
0.166701
30
0.0
11
0.020732
21
0.165056
31
0.0
0
LINE
8
0
6
CONTINUOUS
10
0.022390
20
0.167604
30
0.0
11
0.020613
21
0.166701
31
0.0
0
LINE
8
0
6
CONTINUOUS
10
0.024286
20
0.166861
30
0.0
11
0.022390
21
0.167604
31
0.0
0
LINE
8
0
6
CONTINUOUS
10
0.024405
20
0.165216
30
0.0
11
0.024286
21
0.166861
31
0.0
0
LINE
8
0
6
CONTINUOUS
10
0.022628
20
0.164313
30
0.0
11
0.024405
21
0.165216
31
0.0
0
LINE
8
0
6
CONTINUOUS
10
0.020732
20
0.165056
30
0.0
11
0.022628
21
0.164313
31
0.0
0
LINE
8
0
6
CONTINUOUS
10
0.026769
20
0.169970
30
0.0
11
0.026888
21
0.168325
31
0.0
0
LINE
8
0
6
CONTINUOUS
10
0.028546
20
0.170873
30
0.0
11
0.026769
21
0.169970
31
0.0
0
LINE
8
0
6
CONTINUOUS
10
0.030442
20
0.170130
30
0.0
11
0.028546
21
0.170873
31
0.0
0
LINE
8
0
6
CONTINUOUS
10
0.030561
20
0.168485
30
0.0
11
0.030442
21
0.170130
31
0.0
0
LINE
8
0
6
CONTINUOUS
10
0.028784
20
0.167582
30
0.0
11
0.030561
21
0.168485
31
0.0
0
LINE
8
0
6
CONTINUOUS
10
0.026888
20
0.168325
30
0.0
11
0.028784
21
0.167582
31
0.0
0
LINE
8
0
6
CONTINUOUS
10
0.032925
20
0.173305
30
0.0
11
0.033044
21
0.171660
31
0.0
0
LINE
8
0
6
CONTINUOUS
10
0.034702
20
0.174208
30
0.0
11
0.032925
21
0.173305
31
0.0
0
LINE
8
0
6
CONTINUOUS
10
0.036598
20
0.173465
30
0.0
11
0.034702
21
0.174208
31
0.0
0
LINE
8
0
6
CONTINUOUS
10
0.036717
20
0.171820
30
0.0
11
0.036598
21
0.173465
31
0.0
0
LINE
8
0
6
CONTINUOUS
10
0.034940
20
0.170917
30
0.0
11
0.036717
21
0.171820
31
0.0
0
LINE
8
0
6
CONTINUOUS
10
0.033044
20
0.171660
30
0.0
11
0.034940
21
0.170917
31
0.0
0
LINE
8
0
6
CONTINUOUS
10
0.002517
20
0.167640
30
0.0
11
0.003080
21
0.166051
31
0.0
0
LINE
8
0
6
CONTINUOUS
10
0.004009
20
0.168812
30
0.0
11
0.002517
21
0.167640
31
0.0
0
LINE
8
0
6
CONTINUOUS
10
0.006064
20
0.168396
30
0.0
11
0.004009
21
0.168812
31
0.0
0
LINE
8
0
6
CONTINUOUS
10
0.006627
20
0.166807
30
0.0
11
0.006064
21
0.168396
31
0.0
0
LINE
8
0
6
CONTINUOUS
10
0.005135
20
0.165635
30
0.0
11
0.006627
21
0.166807
31
0.0
0
LINE
8
0
6
CONTINUOUS
10
0.003080
20
0.166051
30
0.0
11
0.005135
21
0.165635
31
0.0
0
LINE
8
0
6
CONTINUOUS
10
0.008477
20
0.170935
30
0.0
11
0.009040
21
0.169346
31
0.0
0
LINE
8
0
6
CONTINUOUS
10
0.009969
20
0.172108
30
0.0
11
0.008477
21
0.170935
31
0.0
0
LINE
8
0
6
CONTINUOUS
10
0.012024
20
0.171691
30
0.0
11
0.009969
21
0.172108
31
0.0
0
LINE
8
0
6
CONTINUOUS
10
0.012587
20
0.170102
30
0.0
11
0.012024
21
0.171691
31
0.0
0
LINE
8
0
6
CONTINUOUS
10
0.011095
20
0.168930
30
0.0
11
0.012587
21
0.170102
31
0.0
0
LINE
8
0
6
CONTINUOUS
10
0.009040
20
0.169346
30
0.0
11
0.011095
21
0.168930
31
0.0
0
LINE
8
0
6
CONTINUOUS
10
0.014437
20
0.174395
30
0.0
11
0.015000
21
0.172807
31
0.0
0
LINE
8
0
6
CONTINUOUS
10
0.015929
20
0.175568
30
0.0
11
0.014437
21
0.174395
31
0.0
0
LINE
8
0
6
CONTINUOUS
10
0.017984
20
0.175152
30
0.0
11
0.015929
21
0.175568
31
0.0
0
LINE
8
0
6
CONTINUOUS
10
0.018547
20
0.173563
30
0.0
11
0.017984
21
0.175152
31
0.0
0
LINE
8
0
6
CONTINUOUS
10
0.017055
20
0.172390
30
0.0
11
0.018547
21
0.173563
31
0.0
0
LINE
8
0
6
CONTINUOUS
10
0.015000
20
0.172807
30
0.0
11
0.017055
21
0.172390
31
0.0
0
LINE
8
0
6
CONTINUOUS
10
0.020397
20
0.177889
30
0.0
11
0.020960
21
0.176300
31
0.0
0
LINE
8
0
6
CONTINUOUS
10
0.021889
20
0.179061
30
0.0
11
0.020397
21
0.177889
31
0.0
0
LINE
8
0
6
CONTINUOUS
10
0.023944
20
0.178645
30
0.0
11
0.021889
21
0.179061
31
0.0
0
LINE
8
0
6
CONTINUOUS
10
0.024507
20
0.177056
30
0.0
11
0.023944
21
0.178645
31
0.0
0
LINE
8
0
6
CONTINUOUS
10
0.023015
20
0.175884
30
0.0
11
0.024507
21
0.177056
31
0.0
0
LINE
8
0
6
CONTINUOUS
10
0.020960
20
0.176300
30
0.0
11
0.023015
21
0.175884
31
0.0
0
LINE
8
0
6
CONTINUOUS
10
0.026357
20
0.181766
30
0.0
11
0.026920
21
0.180177
31
0.0
0
LINE
8
0
6
CONTINUOUS
10
0.027849
20
0.182938
30
0.0
11
0.026357
21
0.181766
31
0.0
0
LINE
8
0
6
CONTINUOUS
10
0.029904
20
0.182522
30
0.0
11
0.027849
21
0.182938
31
0.0
0
LINE
8
0
6
CONTINUOUS
10
0.030467
20
0.180933
30
0.0
11
0.029904
21
0.182522
31
0.0
0
LINE
8
0
6
CONTINUOUS
10
0.028975
20
0.179760
30
0.0
11
0.030467
21
0.180933
31
0.0
0
LINE
8
0
6
CONTINUOUS
10
0.026920
20
0.180177
30
0.0
11
0.028975
21
0.179760
31
0.0
0
LINE
8
0
6
CONTINUOUS
10
-0.002894
20
0.174006
30
0.0
11
-0.001912
21
0.172545
31
0.0
0
LINE
8
0
6
CONTINUOUS
10
-0.001753
20
0.175397
30
0.0
11
-0.002894
21
0.174006
31
0.0
0
LINE
8
0
6
CONTINUOUS
10
0.000369
20
0.175325
30
0.0
11
-0.001753
21
0.175397
31
0.0
0
LINE
8
0
6
CONTINUOUS
10
0.001350
20
0.173864
30
0.0
11
0.000369
21
0.175325
31
0.0
0
LINE
8
0
6
CONTINUOUS
10
0.000210
20
0.172474
30
0.0
11
0.001350
21
0.173864
31
0.0
0
LINE
8
0
6
CONTINUOUS
10
-0.001912
20
0.172545
30
0.0
11
0.000210
21
0.172474
31
0.0
0
LINE
8
0
6
CONTINUOUS
10
0.003451
20
0.178244
30
0.0
11
0.004433
21
0.176782
31
0.0
0
LINE
8
0
6
CONTINUOUS
10
0.004592
20
0.179634
30
0.0
11
0.003451
21
0.178244
31
0.0
0
LINE
8
0
6
CONTINUOUS
10
0.006714
20
0.179563
30
0.0
11
0.004592
21
0.179634
31
0.0
0
LINE
8
0
6
CONTINUOUS
10
0.007696
20
0.178101
30
0.0
11
0.006714
21
0.179563
31
0.0
0
LINE
8
0
6
CONTINUOUS
10
0.006555
20
0.176711
30
0.0
11
0.007696
21
0.178101
31
0.0
0
LINE
8
0
6
CONTINUOUS
10
0.004433
20
0.176782
30
0.0
11
0.006555
21
0.176711
31
0.0
0
LINE
8
0
6
CONTINUOUS
10
0.009797
20
0.182682
30
0.0
11
0.010778
21
0.181221
31
0.0
0
LINE
8
0
6
CONTINUOUS
10
0.010937
20
0.184072
30
0.0
11
0.009797
21
0.182682
31
0.0
0
LINE
8
0
6
CONTINUOUS
10
0.013059
20
0.184001
30
0.0
11
0.010937
21
0.184072
31
0.0
0
LINE
8
0
6
CONTINUOUS
10
0.014041
20
0.182540
30
0.0
11
0.013059
21
0.184001
31
0.0
0
LINE
8
0
6
CONTINUOUS
10
0.012900
20
0.181150
30
0.0
11
0.014041
21
0.182540
31
0.0
0
LINE
8
0
6
CONTINUOUS
10
0.010778
20
0.181221
30
0.0
11
0.012900
21
0.181150
31
0.0
0
LINE
8
0
6
CONTINUOUS
10
0.016142
20
0.187435
30
0.0
11
0.017123
21
0.185973
31
0.0
0
LINE
8
0
6
CONTINUOUS
10
0.017282
20
0.188825
30
0.0
11
0.016142
21
0.187435
31
0.0
0
LINE
8
0
6
CONTINUOUS
10
0.019405
20
0.188753
30
0.0
11
0.017282
21
0.188825
31
0.0
0
LINE
8
0
6
CONTINUOUS
10
0.020386
20
0.187292
30
0.0
11
0.019405
21
0.188753
31
0.0
0
LINE
8
0
6
CONTINUOUS
10
0.019246
20
0.185902
30
0.0
11
0.020386
21
0.187292
31
0.0
0
LINE
8
0
6
CONTINUOUS
10
0.017123
20
0.185973
30
0.0
11
0.019246
21
0.185902
31
0.0
0
LINE
8
0
6
CONTINUOUS
10
0.003525
20
0.190642
30
0.0
11
0.004881
21
0.189374
31
0.0
0
LINE
8
0
6
CONTINUOUS
10
0.004262
20
0.192187
30
0.0
11
0.003525
21
0.190642
31
0.0
0
LINE
8
0
6
CONTINUOUS
10
0.006356
20
0.192464
30
0.0
11
0.004262
21
0.192187
31
0.0
0
LINE
8
0
6
CONTINUOUS
10
0.007712
20
0.191196
30
0.0
11
0.006356
21
0.192464
31
0.0
0
LINE
8
0
6
CONTINUOUS
10
0.006975
20
0.189651
30
0.0
11
0.007712
21
0.191196
31
0.0
0
LINE
8
0
6
CONTINUOUS
10
0.004881
20
0.189374
30
0.0
11
0.006975
21
0.189651
31
0.0
0
LINE
8
0
6
CONTINUOUS
10
0.012793
20
0.154102
30
0.0
11
0.012417
21
0.152480
31
0.0
0
LINE
8
0
6
CONTINUOUS
10
0.014791
20
0.154660
30
0.0
11
0.012793
21
0.154102
31
0.0
0
LINE
8
0
6
CONTINUOUS
10
0.016414
20
0.153597
30
0.0
11
0.014791
21
0.154660
31
0.0
0
LINE
8
0
6
CONTINUOUS
10
0.016038
20
0.151975
30
0.0
11
0.016414
21
0.153597
31
0.0
0
LINE
8
0
6
CONTINUOUS
10
0.014040
20
0.151417
30
0.0
11
0.016038
21
0.151975
31
0.0
0
LINE
8
0
6
CONTINUOUS
10
0.012417
20
0.152480
30
0.0
11
0.014040
21
0.151417
31
0.0
0
LINE
8
0
6
CONTINUOUS
10
0.020180
20
0.157111
30
0.0
11
0.019805
21
0.155489
31
0.0
0
LINE
8
0
6
CONTINUOUS
10
0.022179
20
0.157669
30
0.0
11
0.020180
21
0.157111
31
0.0
0
LINE
8
0
6
CONTINUOUS
10
0.023801
20
0.156606
30
0.0
11
0.022179
21
0.157669
31
0.0
0
LINE
8
0
6
CONTINUOUS
10
0.023426
20
0.154984
30
0.0
11
0.023801
21
0.156606
31
0.0
0
LINE
8
0
6
CONTINUOUS
10
0.021427
20
0.154425
30
0.0
11
0.023426
21
0.154984
31
0.0
0
LINE
8
0
6
CONTINUOUS
10
0.019805
20
0.155489
30
0.0
11
0.021427
21
0.154425
31
0.0
0
LINE
8
0
6
CONTINUOUS
10
0.027568
20
0.160213
30
0.0
11
0.027192
21
0.158591
31
0.0
0
LINE
8
0
6
CONTINUOUS
10
0.029566
20
0.160771
30
0.0
11
0.027568
21
0.160213
31
0.0
0
LINE
8
0
6
CONTINUOUS
10
0.031189
20
0.159708
30
0.0
11
0.029566
21
0.160771
31
0.0
0
LINE
8
0
6
CONTINUOUS
10
0.030813
20
0.158086
30
0.0
11
0.031189
21
0.159708
31
0.0
0
LINE
8
0
6
CONTINUOUS
10
0.028815
20
0.157527
30
0.0
11
0.030813
21
0.158086
31
0.0
0
LINE
8
0
6
CONTINUOUS
10
0.027192
20
0.158591
30
0.0
11
0.028815
21
0.157527
31
0.0
0
LINE
8
0
6
CONTINUOUS
10
0.034955
20
0.163431
30
0.0
11
0.034579
21
0.161809
31
0.0
0
LINE
8
0
6
CONTINUOUS
10
0.036953
20
0.163989
30
0.0
11
0.034955
21
0.163431
31
0.0
0
LINE
8
0
6
CONTINUOUS
10
0.038576
20
0.162926
30
0.0
11
0.036953
21
0.163989
31
0.0
0
LINE
8
0
6
CONTINUOUS
10
0.038200
20
0.161304
30
0.0
11
0.038576
21
0.162926
31
0.0
0
LINE
8
0
6
CONTINUOUS
10
0.036202
20
0.160746
30
0.0
11
0.038200
21
0.161304
31
0.0
0
LINE
8
0
6
CONTINUOUS
10
0.034579
20
0.161809
30
0.0
11
0.036202
21
0.160746
31
0.0
0
LINE
8
0
6
CONTINUOUS
10
0.017574
20
0.132401
30
0.0
11
0.017199
21
0.130779
31
0.0
0
LINE
8
0
6
CONTINUOUS
10
0.019573
20
0.132959
30
0.0
11
0.017574
21
0.132401
31
0.0
0
LINE
8
0
6
CONTINUOUS
10
0.021195
20
0.131896
30
0.0
11
0.019573
21
0.132959
31
0.0
0
LINE
8
0
6
CONTINUOUS
10
0.020820
20
0.130274
30
0.0
11
0.021195
21
0.131896
31
0.0
0
LINE
8
0
6
CONTINUOUS
10
0.018821
20
0.129716
30
0.0
11
0.020820
21
0.130274
31
0.0
0
LINE
8
0
6
CONTINUOUS
10
0.017199
20
0.130779
30
0.0
11
0.018821
21
0.129716
31
0.0
0
LINE
8
0
6
CONTINUOUS
10
0.016379
20
0.137702
30
0.0
11
0.016003
21
0.136080
31
0.0
0
LINE
8
0
6
CONTINUOUS
10
0.018377
20
0.138260
30
0.0
11
0.016379
21
0.137702
31
0.0
0
LINE
8
0
6
CONTINUOUS
10
0.020000
20
0.137197
30
0.0
11
0.018377
21
0.138260
31
0.0
0
LINE
8
0
6
CONTINUOUS
10
0.019624
20
0.135575
30
0.0
11
0.020000
21
0.137197
31
0.0
0
LINE
8
0
6
CONTINUOUS
10
0.017626
20
0.135017
30
0.0
11
0.019624
21
0.135575
31
0.0
0
LINE
8
0
6
CONTINUOUS
10
0.016003
20
0.136080
30
0.0
11
0.017626
21
0.135017
31
0.0
0
LINE
8
0
6
CONTINUOUS
10
0.015184
20
0.143084
30
0.0
11
0.014808
21
0.141462
31
0.0
0
LINE
8
0
6
CONTINUOUS
10
0.017182
20
0.143642
30
0.0
11
0.015184
21
0.143084
31
0.0
0
LINE
8
0
6
CONTINUOUS
10
0.018805
20
0.142579
30
0.0
11
0.017182
21
0.143642
31
0.0
0
LINE
8
0
6
CONTINUOUS
10
0.018429
20
0.140957
30
0.0
11
0.018805
21
0.142579
31
0.0
0
LINE
8
0
6
CONTINUOUS
10
0.016430
20
0.140399
30
0.0
11
0.018429
21
0.140957
31
0.0
0
LINE
8
0
6
CONTINUOUS
10
0.014808
20
0.141462
30
0.0
11
0.016430
21
0.140399
31
0.0
0
LINE
8
0
6
CONTINUOUS
10
0.013988
20
0.148530
30
0.0
11
0.013612
21
0.146908
31
0.0
0
LINE
8
0
6
CONTINUOUS
10
0.015987
20
0.149089
30
0.0
11
0.013988
21
0.148530
31
0.0
0
LINE
8
0
6
CONTINUOUS
10
0.017609
20
0.148025
30
0.0
11
0.015987
21
0.149089
31
0.0
0
LINE
8
0
6
CONTINUOUS
10
0.017233
20
0.146403
30
0.0
11
0.017609
21
0.148025
31
0.0
0
LINE
8
0
6
CONTINUOUS
10
0.015235
20
0.145845
30
0.0
11
0.017233
21
0.146403
31
0.0
0
LINE
8
0
6
CONTINUOUS
10
0.013612
20
0.146908
30
0.0
11
0.015235
21
0.145845
31
0.0
0
LINE
8
0
6
CONTINUOUS
10
0.034308
20
0.153817
30
0.0
11
0.032686
21
0.152754
31
0.0
0
LINE
8
0
6
CONTINUOUS
10
0.036307
20
0.153259
30
0.0
11
0.034308
21
0.153817
31
0.0
0
LINE
8
0
6
CONTINUOUS
10
0.036683
20
0.151637
30
0.0
11
0.036307
21
0.153259
31
0.0
0
LINE
8
0
6
CONTINUOUS
10
0.035060
20
0.150574
30
0.0
11
0.036683
21
0.151637
31
0.0
0
LINE
8
0
6
CONTINUOUS
10
0.033062
20
0.151132
30
0.0
11
0.035060
21
0.150574
31
0.0
0
LINE
8
0
6
CONTINUOUS
10
0.032686
20
0.152754
30
0.0
11
0.033062
21
0.151132
31
0.0
0
LINE
8
0
6
CONTINUOUS
10
0.026434
20
0.151047
30
0.0
11
0.024811
21
0.149984
31
0.0
0
LINE
8
0
6
CONTINUOUS
10
0.028432
20
0.150489
30
0.0
11
0.026434
21
0.151047
31
0.0
0
LINE
8
0
6
CONTINUOUS
10
0.028808
20
0.148867
30
0.0
11
0.028432
21
0.150489
31
0.0
0
LINE
8
0
6
CONTINUOUS
10
0.027185
20
0.147804
30
0.0
11
0.028808
21
0.148867
31
0.0
0
LINE
8
0
6
CONTINUOUS
10
0.025187
20
0.148362
30
0.0
11
0.027185
21
0.147804
31
0.0
0
LINE
8
0
6
CONTINUOUS
10
0.024811
20
0.149984
30
0.0
11
0.025187
21
0.148362
31
0.0
0
LINE
8
0
6
CONTINUOUS
10
0.028402
20
0.145081
30
0.0
11
0.026780
21
0.144018
31
0.0
0
LINE
8
0
6
CONTINUOUS
10
0.030401
20
0.144523
30
0.0
11
0.028402
21
0.145081
31
0.0
0
LINE
8
0
6
CONTINUOUS
10
0.030777
20
0.142901
30
0.0
11
0.030401
21
0.144523
31
0.0
0
LINE
8
0
6
CONTINUOUS
10
0.029154
20
0.141838
30
0.0
11
0.030777
21
0.142901
31
0.0
0
LINE
8
0
6
CONTINUOUS
10
0.027156
20
0.142396
30
0.0
11
0.029154
21
0.141838
31
0.0
0
LINE
8
0
6
CONTINUOUS
10
0.026780
20
0.144018
30
0.0
11
0.027156
21
0.142396
31
0.0
0
LINE
8
0
6
CONTINUOUS
10
0.029246
20
0.139570
30
0.0
11
0.027624
21
0.138507
31
0.0
0
LINE
8
0
6
CONTINUOUS
10
0.031245
20
0.139012
30
0.0
11
0.029246
21
0.139570
31
0.0
0
LINE
8
0
6
CONTINUOUS
10
0.031620
20
0.137390
30
0.0
11
0.031245
21
0.139012
31
0.0
0
LINE
8
0
6
CONTINUOUS
10
0.029998
20
0.136327
30
0.0
11
0.031620
21
0.137390
31
0.0
0
LINE
8
0
6
CONTINUOUS
10
0.027999
20
0.136885
30
0.0
11
0.029998
21
0.136327
31
0.0
0
LINE
8
0
6
CONTINUOUS
10
0.027624
20
0.138507
30
0.0
11
0.027999
21
0.136885
31
0.0
0
LINE
8
0
6
CONTINUOUS
10
0.038105
20
0.147899
30
0.0
11
0.036483
21
0.146836
31
0.0
0
LINE
8
0
6
CONTINUOUS
10
0.040104
20
0.147340
30
0.0
11
0.038105
21
0.147899
31
0.0
0
LINE
8
0
6
CONTINUOUS
10
0.040479
20
0.145719
30
0.0
11
0.040104
21
0.147340
31
0.0
0
LINE
8
0
6
CONTINUOUS
10
0.038857
20
0.144655
30
0.0
11
0.040479
21
0.145719
31
0.0
0
LINE
8
0
6
CONTINUOUS
10
0.036858
20
0.145214
30
0.0
11
0.038857
21
0.144655
31
0.0
0
LINE
8
0
6
CONTINUOUS
10
0.036483
20
0.146836
30
0.0
11
0.036858
21
0.145214
31
0.0
0
LINE
8
0
6
CONTINUOUS
10
0.003184
20
0.153129
30
0.0
11
0.002808
21
0.151507
31
0.0
0
LINE
8
0
6
CONTINUOUS
10
0.005182
20
0.153687
30
0.0
11
0.003184
21
0.153129
31
0.0
0
LINE
8
0
6
CONTINUOUS
10
0.006805
20
0.152624
30
0.0
11
0.005182
21
0.153687
31
0.0
0
LINE
8
0
6
CONTINUOUS
10
0.006429
20
0.151002
30
0.0
11
0.006805
21
0.152624
31
0.0
0
LINE
8
0
6
CONTINUOUS
10
0.004431
20
0.150443
30
0.0
11
0.006429
21
0.151002
31
0.0
0
LINE
8
0
6
CONTINUOUS
10
0.002808
20
0.151507
30
0.0
11
0.004431
21
0.150443
31
0.0
0
LINE
8
0
6
CONTINUOUS
10
0.004499
20
0.133425
30
0.0
11
0.004123
21
0.131803
31
0.0
0
LINE
8
0
6
CONTINUOUS
10
0.006497
20
0.133984
30
0.0
11
0.004499
21
0.133425
31
0.0
0
LINE
8
0
6
CONTINUOUS
10
0.008120
20
0.132920
30
0.0
11
0.006497
21
0.133984
31
0.0
0
LINE
8
0
6
CONTINUOUS
10
0.007744
20
0.131298
30
0.0
11
0.008120
21
0.132920
31
0.0
0
LINE
8
0
6
CONTINUOUS
10
0.005746
20
0.130740
30
0.0
11
0.007744
21
0.131298
31
0.0
0
LINE
8
0
6
CONTINUOUS
10
0.004123
20
0.131803
30
0.0
11
0.005746
21
0.130740
31
0.0
0
LINE
8
0
6
CONTINUOUS
10
0.004170
20
0.138215
30
0.0
11
0.003795
21
0.136593
31
0.0
0
LINE
8
0
6
CONTINUOUS
10
0.006169
20
0.138773
30
0.0
11
0.004170
21
0.138215
31
0.0
0
LINE
8
0
6
CONTINUOUS
10
0.007791
20
0.137710
30
0.0
11
0.006169
21
0.138773
31
0.0
0
LINE
8
0
6
CONTINUOUS
10
0.007415
20
0.136088
30
0.0
11
0.007791
21
0.137710
31
0.0
0
LINE
8
0
6
CONTINUOUS
10
0.005417
20
0.135530
30
0.0
11
0.007415
21
0.136088
31
0.0
0
LINE
8
0
6
CONTINUOUS
10
0.003795
20
0.136593
30
0.0
11
0.005417
21
0.135530
31
0.0
0
LINE
8
0
6
CONTINUOUS
10
0.003841
20
0.143149
30
0.0
11
0.003466
21
0.141527
31
0.0
0
LINE
8
0
6
CONTINUOUS
10
0.005840
20
0.143707
30
0.0
11
0.003841
21
0.143149
31
0.0
0
LINE
8
0
6
CONTINUOUS
10
0.007462
20
0.142644
30
0.0
11
0.005840
21
0.143707
31
0.0
0
LINE
8
0
6
CONTINUOUS
10
0.007087
20
0.141022
30
0.0
11
0.007462
21
0.142644
31
0.0
0
LINE
8
0
6
CONTINUOUS
10
0.005088
20
0.140464
30
0.0
11
0.007087
21
0.141022
31
0.0
0
LINE
8
0
6
CONTINUOUS
10
0.003466
20
0.141527
30
0.0
11
0.005088
21
0.140464
31
0.0
0
LINE
8
0
6
CONTINUOUS
10
-0.006303
20
0.145471
30
0.0
11
-0.004680
21
0.146534
31
0.0
0
LINE
8
0
6
CONTINUOUS
10
-0.008301
20
0.146029
30
0.0
11
-0.006303
21
0.145471
31
0.0
0
LINE
8
0
6
CONTINUOUS
10
-0.008677
20
0.147651
30
0.0
11
-0.008301
21
0.146029
31
0.0
0
LINE
8
0
6
CONTINUOUS
10
-0.007054
20
0.148714
30
0.0
11
-0.008677
21
0.147651
31
0.0
0
LINE
8
0
6
CONTINUOUS
10
-0.005056
20
0.148156
30
0.0
11
-0.007054
21
0.148714
31
0.0
0
LINE
8
0
6
CONTINUOUS
10
-0.004680
20
0.146534
30
0.0
11
-0.005056
21
0.148156
31
0.0
0
LINE
8
0
6
CONTINUOUS
10
-0.006631
20
0.140470
30
0.0
11
-0.005009
21
0.141534
31
0.0
0
LINE
8
0
6
CONTINUOUS
10
-0.008630
20
0.141029
30
0.0
11
-0.006631
21
0.140470
31
0.0
0
LINE
8
0
6
CONTINUOUS
10
-0.009005
20
0.142650
30
0.0
11
-0.008630
21
0.141029
31
0.0
0
LINE
8
0
6
CONTINUOUS
10
-0.007383
20
0.143714
30
0.0
11
-0.009005
21
0.142650
31
0.0
0
LINE
8
0
6
CONTINUOUS
10
-0.005384
20
0.143155
30
0.0
11
-0.007383
21
0.143714
31
0.0
0
LINE
8
0
6
CONTINUOUS
10
-0.005009
20
0.141534
30
0.0
11
-0.005384
21
0.143155
31
0.0
0
LINE
8
0
6
CONTINUOUS
10
-0.006960
20
0.135516
30
0.0
11
-0.005337
21
0.136579
31
0.0
0
LINE
8
0
6
CONTINUOUS
10
-0.008958
20
0.136074
30
0.0
11
-0.006960
21
0.135516
31
0.0
0
LINE
8
0
6
CONTINUOUS
10
-0.009334
20
0.137696
30
0.0
11
-0.008958
21
0.136074
31
0.0
0
LINE
8
0
6
CONTINUOUS
10
-0.007711
20
0.138759
30
0.0
11
-0.009334
21
0.137696
31
0.0
0
LINE
8
0
6
CONTINUOUS
10
-0.005713
20
0.138201
30
0.0
11
-0.007711
21
0.138759
31
0.0
0
LINE
8
0
6
CONTINUOUS
10
-0.005337
20
0.136579
30
0.0
11
-0.005713
21
0.138201
31
0.0
0
LINE
8
0
6
CONTINUOUS
10
-0.007289
20
0.130828
30
0.0
11
-0.005666
21
0.131891
31
0.0
0
LINE
8
0
6
CONTINUOUS
10
-0.009287
20
0.131386
30
0.0
11
-0.007289
21
0.130828
31
0.0
0
LINE
8
0
6
CONTINUOUS
10
-0.009663
20
0.133008
30
0.0
11
-0.009287
21
0.131386
31
0.0
0
LINE
8
0
6
CONTINUOUS
10
-0.008040
20
0.134072
30
0.0
11
-0.009663
21
0.133008
31
0.0
0
LINE
8
0
6
CONTINUOUS
10
-0.006042
20
0.133513
30
0.0
11
-0.008040
21
0.134072
31
0.0
0
LINE
8
0
6
CONTINUOUS
10
-0.005666
20
0.131891
30
0.0
11
-0.006042
21
0.133513
31
0.0
0
LINE
8
0
6
CONTINUOUS
10
-0.005974
20
0.150457
30
0.0
11
-0.004351
21
0.151521
31
0.0
0
LINE
8
0
6
CONTINUOUS
10
-0.007972
20
0.151016
30
0.0
11
-0.005974
21
0.150457
31
0.0
0
LINE
8
0
6
CONTINUOUS
10
-0.008348
20
0.152638
30
0.0
11
-0.007972
21
0.151016
31
0.0
0
LINE
8
0
6
CONTINUOUS
10
-0.006725
20
0.153701
30
0.0
11
-0.008348
21
0.152638
31
0.0
0
LINE
8
0
6
CONTINUOUS
10
-0.004727
20
0.153143
30
0.0
11
-0.006725
21
0.153701
31
0.0
0
LINE
8
0
6
CONTINUOUS
10
-0.004351
20
0.151521
30
0.0
11
-0.004727
21
0.153143
31
0.0
0
LINE
8
0
6
CONTINUOUS
10
-0.038401
20
0.145311
30
0.0
11
-0.038025
21
0.146932
31
0.0
0
LINE
8
0
6
CONTINUOUS
10
-0.040400
20
0.144752
30
0.0
11
-0.038401
21
0.145311
31
0.0
0
LINE
8
0
6
CONTINUOUS
10
-0.042022
20
0.145815
30
0.0
11
-0.040400
21
0.144752
31
0.0
0
LINE
8
0
6
CONTINUOUS
10
-0.041646
20
0.147437
30
0.0
11
-0.042022
21
0.145815
31
0.0
0
LINE
8
0
6
CONTINUOUS
10
-0.039648
20
0.147996
30
0.0
11
-0.041646
21
0.147437
31
0.0
0
LINE
8
0
6
CONTINUOUS
10
-0.038025
20
0.146932
30
0.0
11
-0.039648
21
0.147996
31
0.0
0
LINE
8
0
6
CONTINUOUS
10
-0.029542
20
0.137018
30
0.0
11
-0.029166
21
0.138640
31
0.0
0
LINE
8
0
6
CONTINUOUS
10
-0.031540
20
0.136459
30
0.0
11
-0.029542
21
0.137018
31
0.0
0
LINE
8
0
6
CONTINUOUS
10
-0.033163
20
0.137523
30
0.0
11
-0.031540
21
0.136459
31
0.0
0
LINE
8
0
6
CONTINUOUS
10
-0.032787
20
0.139145
30
0.0
11
-0.033163
21
0.137523
31
0.0
0
LINE
8
0
6
CONTINUOUS
10
-0.030789
20
0.139703
30
0.0
11
-0.032787
21
0.139145
31
0.0
0
LINE
8
0
6
CONTINUOUS
10
-0.029166
20
0.138640
30
0.0
11
-0.030789
21
0.139703
31
0.0
0
LINE
8
0
6
CONTINUOUS
10
-0.028698
20
0.142434
30
0.0
11
-0.028323
21
0.144055
31
0.0
0
LINE
8
0
6
CONTINUOUS
10
-0.030697
20
0.141875
30
0.0
11
-0.028698
21
0.142434
31
0.0
0
LINE
8
0
6
CONTINUOUS
10
-0.032319
20
0.142939
30
0.0
11
-0.030697
21
0.141875
31
0.0
0
LINE
8
0
6
CONTINUOUS
10
-0.031944
20
0.144560
30
0.0
11
-0.032319
21
0.142939
31
0.0
0
LINE
8
0
6
CONTINUOUS
10
-0.029945
20
0.145119
30
0.0
11
-0.031944
21
0.144560
31
0.0
0
LINE
8
0
6
CONTINUOUS
10
-0.028323
20
0.144055
30
0.0
11
-0.029945
21
0.145119
31
0.0
0
LINE
8
0
6
CONTINUOUS
10
-0.026730
20
0.148419
30
0.0
11
-0.026354
21
0.150040
31
0.0
0
LINE
8
0
6
CONTINUOUS
10
-0.028728
20
0.147860
30
0.0
11
-0.026730
21
0.148419
31
0.0
0
LINE
8
0
6
CONTINUOUS
10
-0.030351
20
0.148923
30
0.0
11
-0.028728
21
0.147860
31
0.0
0
LINE
8
0
6
CONTINUOUS
10
-0.029975
20
0.150545
30
0.0
11
-0.030351
21
0.148923
31
0.0
0
LINE
8
0
6
CONTINUOUS
10
-0.027977
20
0.151104
30
0.0
11
-0.029975
21
0.150545
31
0.0
0
LINE
8
0
6
CONTINUOUS
10
-0.026354
20
0.150040
30
0.0
11
-0.027977
21
0.151104
31
0.0
0
LINE
8
0
6
CONTINUOUS
10
-0.034605
20
0.151213
30
0.0
11
-0.034229
21
0.152835
31
0.0
0
LINE
8
0
6
CONTINUOUS
10
-0.036603
20
0.150655
30
0.0
11
-0.034605
21
0.151213
31
0.0
0
LINE
8
0
6
CONTINUOUS
10
-0.038226
20
0.151718
30
0.0
11
-0.036603
21
0.150655
31
0.0
0
LINE
8
0
6
CONTINUOUS
10
-0.037850
20
0.153340
30
0.0
11
-0.038226
21
0.151718
31
0.0
0
LINE
8
0
6
CONTINUOUS
10
-0.035851
20
0.153899
30
0.0
11
-0.037850
21
0.153340
31
0.0
0
LINE
8
0
6
CONTINUOUS
10
-0.034229
20
0.152835
30
0.0
11
-0.035851
21
0.153899
31
0.0
0
LINE
8
0
6
CONTINUOUS
10
-0.016778
20
0.145884
30
0.0
11
-0.015156
21
0.146947
31
0.0
0
LINE
8
0
6
CONTINUOUS
10
-0.018776
20
0.146443
30
0.0
11
-0.016778
21
0.145884
31
0.0
0
LINE
8
0
6
CONTINUOUS
10
-0.019152
20
0.148064
30
0.0
11
-0.018776
21
0.146443
31
0.0
0
LINE
8
0
6
CONTINUOUS
10
-0.017530
20
0.149128
30
0.0
11
-0.019152
21
0.148064
31
0.0
0
LINE
8
0
6
CONTINUOUS
10
-0.015531
20
0.148569
30
0.0
11
-0.017530
21
0.149128
31
0.0
0
LINE
8
0
6
CONTINUOUS
10
-0.015156
20
0.146947
30
0.0
11
-0.015531
21
0.148569
31
0.0
0
LINE
8
0
6
CONTINUOUS
10
-0.017973
20
0.140391
30
0.0
11
-0.016351
21
0.141454
31
0.0
0
LINE
8
0
6
CONTINUOUS
10
-0.019972
20
0.140950
30
0.0
11
-0.017973
21
0.140391
31
0.0
0
LINE
8
0
6
CONTINUOUS
10
-0.020347
20
0.142571
30
0.0
11
-0.019972
21
0.140950
31
0.0
0
LINE
8
0
6
CONTINUOUS
10
-0.018725
20
0.143635
30
0.0
11
-0.020347
21
0.142571
31
0.0
0
LINE
8
0
6
CONTINUOUS
10
-0.016726
20
0.143076
30
0.0
11
-0.018725
21
0.143635
31
0.0
0
LINE
8
0
6
CONTINUOUS
10
-0.016351
20
0.141454
30
0.0
11
-0.016726
21
0.143076
31
0.0
0
LINE
8
0
6
CONTINUOUS
10
-0.019169
20
0.135005
30
0.0
11
-0.017546
21
0.136068
31
0.0
0
LINE
8
0
6
CONTINUOUS
10
-0.021167
20
0.135563
30
0.0
11
-0.019169
21
0.135005
31
0.0
0
LINE
8
0
6
CONTINUOUS
10
-0.021543
20
0.137185
30
0.0
11
-0.021167
21
0.135563
31
0.0
0
LINE
8
0
6
CONTINUOUS
10
-0.019920
20
0.138248
30
0.0
11
-0.021543
21
0.137185
31
0.0
0
LINE
8
0
6
CONTINUOUS
10
-0.017922
20
0.137690
30
0.0
11
-0.019920
21
0.138248
31
0.0
0
LINE
8
0
6
CONTINUOUS
10
-0.017546
20
0.136068
30
0.0
11
-0.017922
21
0.137690
31
0.0
0
LINE
8
0
6
CONTINUOUS
10
-0.020364
20
0.130053
30
0.0
11
-0.018741
21
0.131116
31
0.0
0
LINE
8
0
6
CONTINUOUS
10
-0.022362
20
0.130611
30
0.0
11
-0.020364
21
0.130053
31
0.0
0
LINE
8
0
6
CONTINUOUS
10
-0.022738
20
0.132233
30
0.0
11
-0.022362
21
0.130611
31
0.0
0
LINE
8
0
6
CONTINUOUS
10
-0.021115
20
0.133296
30
0.0
11
-0.022738
21
0.132233
31
0.0
0
LINE
8
0
6
CONTINUOUS
10
-0.019117
20
0.132738
30
0.0
11
-0.021115
21
0.133296
31
0.0
0
LINE
8
0
6
CONTINUOUS
10
-0.018741
20
0.131116
30
0.0
11
-0.019117
21
0.132738
31
0.0
0
LINE
8
0
6
CONTINUOUS
10
-0.037745
20
0.160833
30
0.0
11
-0.036122
21
0.161897
31
0.0
0
LINE
8
0
6
CONTINUOUS
10
-0.039743
20
0.161392
30
0.0
11
-0.037745
21
0.160833
31
0.0
0
LINE
8
0
6
CONTINUOUS
10
-0.040119
20
0.163014
30
0.0
11
-0.039743
21
0.161392
31
0.0
0
LINE
8
0
6
CONTINUOUS
10
-0.038497
20
0.164077
30
0.0
11
-0.040119
21
0.163014
31
0.0
0
LINE
8
0
6
CONTINUOUS
10
-0.036498
20
0.163519
30
0.0
11
-0.038497
21
0.164077
31
0.0
0
LINE
8
0
6
CONTINUOUS
10
-0.036122
20
0.161897
30
0.0
11
-0.036498
21
0.163519
31
0.0
0
LINE
8
0
6
CONTINUOUS
10
-0.030358
20
0.157601
30
0.0
11
-0.028735
21
0.158665
31
0.0
0
LINE
8
0
6
CONTINUOUS
10
-0.032356
20
0.158160
30
0.0
11
-0.030358
21
0.157601
31
0.0
0
LINE
8
0
6
CONTINUOUS
10
-0.032732
20
0.159782
30
0.0
11
-0.032356
21
0.158160
31
0.0
0
LINE
8
0
6
CONTINUOUS
10
-0.031109
20
0.160845
30
0.0
11
-0.032732
21
0.159782
31
0.0
0
LINE
8
0
6
CONTINUOUS
10
-0.029111
20
0.160287
30
0.0
11
-0.031109
21
0.160845
31
0.0
0
LINE
8
0
6
CONTINUOUS
10
-0.028735
20
0.158665
30
0.0
11
-0.029111
21
0.160287
31
0.0
0
LINE
8
0
6
CONTINUOUS
10
-0.022970
20
0.154478
30
0.0
11
-0.021348
21
0.155541
31
0.0
0
LINE
8
0
6
CONTINUOUS
10
-0.024969
20
0.155036
30
0.0
11
-0.022970
21
0.154478
31
0.0
0
LINE
8
0
6
CONTINUOUS
10
-0.025344
20
0.156658
30
0.0
11
-0.024969
21
0.155036
31
0.0
0
LINE
8
0
6
CONTINUOUS
10
-0.023722
20
0.157721
30
0.0
11
-0.025344
21
0.156658
31
0.0
0
LINE
8
0
6
CONTINUOUS
10
-0.021723
20
0.157163
30
0.0
11
-0.023722
21
0.157721
31
0.0
0
LINE
8
0
6
CONTINUOUS
10
-0.021348
20
0.155541
30
0.0
11
-0.021723
21
0.157163
31
0.0
0
LINE
8
0
6
CONTINUOUS
10
-0.015583
20
0.151456
30
0.0
11
-0.013960
21
0.152519
31
0.0
0
LINE
8
0
6
CONTINUOUS
10
-0.017581
20
0.152014
30
0.0
11
-0.015583
21
0.151456
31
0.0
0
LINE
8
0
6
CONTINUOUS
10
-0.017957
20
0.153636
30
0.0
11
-0.017581
21
0.152014
31
0.0
0
LINE
8
0
6
CONTINUOUS
10
-0.016334
20
0.154699
30
0.0
11
-0.017957
21
0.153636
31
0.0
0
LINE
8
0
6
CONTINUOUS
10
-0.014336
20
0.154141
30
0.0
11
-0.016334
21
0.154699
31
0.0
0
LINE
8
0
6
CONTINUOUS
10
-0.013960
20
0.152519
30
0.0
11
-0.014336
21
0.154141
31
0.0
0
LINE
8
0
6
CONTINUOUS
10
-0.008518
20
0.189666
30
0.0
11
-0.006425
21
0.189389
31
0.0
0
LINE
8
0
6
CONTINUOUS
10
-0.009256
20
0.191211
30
0.0
11
-0.008518
21
0.189666
31
0.0
0
LINE
8
0
6
CONTINUOUS
10
-0.007900
20
0.192479
30
0.0
11
-0.009256
21
0.191211
31
0.0
0
LINE
8
0
6
CONTINUOUS
10
-0.005806
20
0.192202
30
0.0
11
-0.007900
21
0.192479
31
0.0
0
LINE
8
0
6
CONTINUOUS
10
-0.005068
20
0.190657
30
0.0
11
-0.005806
21
0.192202
31
0.0
0
LINE
8
0
6
CONTINUOUS
10
-0.006425
20
0.189389
30
0.0
11
-0.005068
21
0.190657
31
0.0
0
LINE
8
0
6
CONTINUOUS
10
-0.002128
20
0.184488
30
0.0
11
-0.000034
21
0.184211
31
0.0
0
LINE
8
0
6
CONTINUOUS
10
-0.002866
20
0.186034
30
0.0
11
-0.002128
21
0.184488
31
0.0
0
LINE
8
0
6
CONTINUOUS
10
-0.001509
20
0.187302
30
0.0
11
-0.002866
21
0.186034
31
0.0
0
LINE
8
0
6
CONTINUOUS
10
0.000584
20
0.187025
30
0.0
11
-0.001509
21
0.187302
31
0.0
0
LINE
8
0
6
CONTINUOUS
10
0.001322
20
0.185479
30
0.0
11
0.000584
21
0.187025
31
0.0
0
LINE
8
0
6
CONTINUOUS
10
-0.000034
20
0.184211
30
0.0
11
0.001322
21
0.185479
31
0.0
0
LINE
8
0
6
CONTINUOUS
10
-0.020789
20
0.185945
30
0.0
11
-0.018667
21
0.186016
31
0.0
0
LINE
8
0
6
CONTINUOUS
10
-0.021930
20
0.187335
30
0.0
11
-0.020789
21
0.185945
31
0.0
0
LINE
8
0
6
CONTINUOUS
10
-0.020948
20
0.188796
30
0.0
11
-0.021930
21
0.187335
31
0.0
0
LINE
8
0
6
CONTINUOUS
10
-0.018826
20
0.188867
30
0.0
11
-0.020948
21
0.188796
31
0.0
0
LINE
8
0
6
CONTINUOUS
10
-0.017686
20
0.187477
30
0.0
11
-0.018826
21
0.188867
31
0.0
0
LINE
8
0
6
CONTINUOUS
10
-0.018667
20
0.186016
30
0.0
11
-0.017686
21
0.187477
31
0.0
0
LINE
8
0
6
CONTINUOUS
10
-0.014444
20
0.181175
30
0.0
11
-0.012322
21
0.181246
31
0.0
0
LINE
8
0
6
CONTINUOUS
10
-0.015584
20
0.182565
30
0.0
11
-0.014444
21
0.181175
31
0.0
0
LINE
8
0
6
CONTINUOUS
10
-0.014603
20
0.184026
30
0.0
11
-0.015584
21
0.182565
31
0.0
0
LINE
8
0
6
CONTINUOUS
10
-0.012481
20
0.184097
30
0.0
11
-0.014603
21
0.184026
31
0.0
0
LINE
8
0
6
CONTINUOUS
10
-0.011340
20
0.182707
30
0.0
11
-0.012481
21
0.184097
31
0.0
0
LINE
8
0
6
CONTINUOUS
10
-0.012322
20
0.181246
30
0.0
11
-0.011340
21
0.182707
31
0.0
0
LINE
8
0
6
CONTINUOUS
10
-0.008099
20
0.176726
30
0.0
11
-0.005976
21
0.176797
31
0.0
0
LINE
8
0
6
CONTINUOUS
10
-0.009239
20
0.178116
30
0.0
11
-0.008099
21
0.176726
31
0.0
0
LINE
8
0
6
CONTINUOUS
10
-0.008258
20
0.179577
30
0.0
11
-0.009239
21
0.178116
31
0.0
0
LINE
8
0
6
CONTINUOUS
10
-0.006136
20
0.179649
30
0.0
11
-0.008258
21
0.179577
31
0.0
0
LINE
8
0
6
CONTINUOUS
10
-0.004995
20
0.178259
30
0.0
11
-0.006136
21
0.179649
31
0.0
0
LINE
8
0
6
CONTINUOUS
10
-0.005976
20
0.176797
30
0.0
11
-0.004995
21
0.178259
31
0.0
0
LINE
8
0
6
CONTINUOUS
10
-0.001753
20
0.172474
30
0.0
11
0.000369
21
0.172545
31
0.0
0
LINE
8
0
6
CONTINUOUS
10
-0.002894
20
0.173864
30
0.0
11
-0.001753
21
0.172474
31
0.0
0
LINE
8
0
6
CONTINUOUS
10
-0.001912
20
0.175325
30
0.0
11
-0.002894
21
0.173864
31
0.0
0
LINE
8
0
6
CONTINUOUS
10
0.000210
20
0.175397
30
0.0
11
-0.001912
21
0.175325
31
0.0
0
LINE
8
0
6
CONTINUOUS
10
0.001350
20
0.174006
30
0.0
11
0.000210
21
0.175397
31
0.0
0
LINE
8
0
6
CONTINUOUS
10
0.000369
20
0.172545
30
0.0
11
0.001350
21
0.174006
31
0.0
0
LINE
8
0
6
CONTINUOUS
10
-0.030518
20
0.179837
30
0.0
11
-0.028463
21
0.180253
31
0.0
0
LINE
8
0
6
CONTINUOUS
10
-0.032011
20
0.181009
30
0.0
11
-0.030518
21
0.179837
31
0.0
0
LINE
8
0
6
CONTINUOUS
10
-0.031448
20
0.182598
30
0.0
11
-0.032011
21
0.181009
31
0.0
0
LINE
8
0
6
CONTINUOUS
10
-0.029393
20
0.183015
30
0.0
11
-0.031448
21
0.182598
31
0.0
0
LINE
8
0
6
CONTINUOUS
10
-0.027900
20
0.181842
30
0.0
11
-0.029393
21
0.183015
31
0.0
0
LINE
8
0
6
CONTINUOUS
10
-0.028463
20
0.180253
30
0.0
11
-0.027900
21
0.181842
31
0.0
0
LINE
8
0
6
CONTINUOUS
10
-0.024558
20
0.175937
30
0.0
11
-0.022503
21
0.176354
31
0.0
0
LINE
8
0
6
CONTINUOUS
10
-0.026051
20
0.177110
30
0.0
11
-0.024558
21
0.175937
31
0.0
0
LINE
8
0
6
CONTINUOUS
10
-0.025488
20
0.178699
30
0.0
11
-0.026051
21
0.177110
31
0.0
0
LINE
8
0
6
CONTINUOUS
10
-0.023433
20
0.179115
30
0.0
11
-0.025488
21
0.178699
31
0.0
0
LINE
8
0
6
CONTINUOUS
10
-0.021940
20
0.177943
30
0.0
11
-0.023433
21
0.179115
31
0.0
0
LINE
8
0
6
CONTINUOUS
10
-0.022503
20
0.176354
30
0.0
11
-0.021940
21
0.177943
31
0.0
0
LINE
8
0
6
CONTINUOUS
10
-0.018598
20
0.172436
30
0.0
11
-0.016543
21
0.172852
31
0.0
0
LINE
8
0
6
CONTINUOUS
10
-0.020091
20
0.173609
30
0.0
11
-0.018598
21
0.172436
31
0.0
0
LINE
8
0
6
CONTINUOUS
10
-0.019528
20
0.175198
30
0.0
11
-0.020091
21
0.173609
31
0.0
0
LINE
8
0
6
CONTINUOUS
10
-0.017473
20
0.175614
30
0.0
11
-0.019528
21
0.175198
31
0.0
0
LINE
8
0
6
CONTINUOUS
10
-0.015980
20
0.174441
30
0.0
11
-0.017473
21
0.175614
31
0.0
0
LINE
8
0
6
CONTINUOUS
10
-0.016543
20
0.172852
30
0.0
11
-0.015980
21
0.174441
31
0.0
0
LINE
8
0
6
CONTINUOUS
10
-0.012638
20
0.168953
30
0.0
11
-0.010583
21
0.169369
31
0.0
0
LINE
8
0
6
CONTINUOUS
10
-0.014131
20
0.170126
30
0.0
11
-0.012638
21
0.168953
31
0.0
0
LINE
8
0
6
CONTINUOUS
10
-0.013568
20
0.171715
30
0.0
11
-0.014131
21
0.170126
31
0.0
0
LINE
8
0
6
CONTINUOUS
10
-0.011513
20
0.172131
30
0.0
11
-0.013568
21
0.171715
31
0.0
0
LINE
8
0
6
CONTINUOUS
10
-0.010020
20
0.170958
30
0.0
11
-0.011513
21
0.172131
31
0.0
0
LINE
8
0
6
CONTINUOUS
10
-0.010583
20
0.169369
30
0.0
11
-0.010020
21
0.170958
31
0.0
0
LINE
8
0
6
CONTINUOUS
10
-0.006678
20
0.165648
30
0.0
11
-0.004623
21
0.166065
31
0.0
0
LINE
8
0
6
CONTINUOUS
10
-0.008170
20
0.166821
30
0.0
11
-0.006678
21
0.165648
31
0.0
0
LINE
8
0
6
CONTINUOUS
10
-0.007608
20
0.168410
30
0.0
11
-0.008170
21
0.166821
31
0.0
0
LINE
8
0
6
CONTINUOUS
10
-0.005553
20
0.168826
30
0.0
11
-0.007608
21
0.168410
31
0.0
0
LINE
8
0
6
CONTINUOUS
10
-0.004060
20
0.167653
30
0.0
11
-0.005553
21
0.168826
31
0.0
0
LINE
8
0
6
CONTINUOUS
10
-0.004623
20
0.166065
30
0.0
11
-0.004060
21
0.167653
31
0.0
0
LINE
8
0
6
CONTINUOUS
10
-0.036483
20
0.170999
30
0.0
11
-0.034587
21
0.171742
31
0.0
0
LINE
8
0
6
CONTINUOUS
10
-0.038261
20
0.171901
30
0.0
11
-0.036483
21
0.170999
31
0.0
0
LINE
8
0
6
CONTINUOUS
10
-0.038142
20
0.173547
30
0.0
11
-0.038261
21
0.171901
31
0.0
0
LINE
8
0
6
CONTINUOUS
10
-0.036246
20
0.174289
30
0.0
11
-0.038142
21
0.173547
31
0.0
0
LINE
8
0
6
CONTINUOUS
10
-0.034469
20
0.173387
30
0.0
11
-0.036246
21
0.174289
31
0.0
0
LINE
8
0
6
CONTINUOUS
10
-0.034587
20
0.171742
30
0.0
11
-0.034469
21
0.173387
31
0.0
0
LINE
8
0
6
CONTINUOUS
10
-0.030327
20
0.167658
30
0.0
11
-0.028431
21
0.168400
31
0.0
0
LINE
8
0
6
CONTINUOUS
10
-0.032105
20
0.168560
30
0.0
11
-0.030327
21
0.167658
31
0.0
0
LINE
8
0
6
CONTINUOUS
10
-0.031986
20
0.170205
30
0.0
11
-0.032105
21
0.168560
31
0.0
0
LINE
8
0
6
CONTINUOUS
10
-0.030090
20
0.170948
30
0.0
11
-0.031986
21
0.170205
31
0.0
0
LINE
8
0
6
CONTINUOUS
10
-0.028312
20
0.170046
30
0.0
11
-0.030090
21
0.170948
31
0.0
0
LINE
8
0
6
CONTINUOUS
10
-0.028431
20
0.168400
30
0.0
11
-0.028312
21
0.170046
31
0.0
0
LINE
8
0
6
CONTINUOUS
10
-0.024171
20
0.164368
30
0.0
11
-0.022275
21
0.165111
31
0.0
0
LINE
8
0
6
CONTINUOUS
10
-0.025948
20
0.165271
30
0.0
11
-0.024171
21
0.164368
31
0.0
0
LINE
8
0
6
CONTINUOUS
10
-0.025830
20
0.166916
30
0.0
11
-0.025948
21
0.165271
31
0.0
0
LINE
8
0
6
CONTINUOUS
10
-0.023934
20
0.167659
30
0.0
11
-0.025830
21
0.166916
31
0.0
0
LINE
8
0
6
CONTINUOUS
10
-0.022156
20
0.166756
30
0.0
11
-0.023934
21
0.167659
31
0.0
0
LINE
8
0
6
CONTINUOUS
10
-0.022275
20
0.165111
30
0.0
11
-0.022156
21
0.166756
31
0.0
0
LINE
8
0
6
CONTINUOUS
10
-0.018015
20
0.161248
30
0.0
11
-0.016119
21
0.161991
31
0.0
0
LINE
8
0
6
CONTINUOUS
10
-0.019792
20
0.162151
30
0.0
11
-0.018015
21
0.161248
31
0.0
0
LINE
8
0
6
CONTINUOUS
10
-0.019673
20
0.163796
30
0.0
11
-0.019792
21
0.162151
31
0.0
0
LINE
8
0
6
CONTINUOUS
10
-0.017777
20
0.164539
30
0.0
11
-0.019673
21
0.163796
31
0.0
0
LINE
8
0
6
CONTINUOUS
10
-0.016000
20
0.163636
30
0.0
11
-0.017777
21
0.164539
31
0.0
0
LINE
8
0
6
CONTINUOUS
10
-0.016119
20
0.161991
30
0.0
11
-0.016000
21
0.163636
31
0.0
0
LINE
8
0
6
CONTINUOUS
10
-0.011859
20
0.158401
30
0.0
11
-0.009963
21
0.159144
31
0.0
0
LINE
8
0
6
CONTINUOUS
10
-0.013636
20
0.159304
30
0.0
11
-0.011859
21
0.158401
31
0.0
0
LINE
8
0
6
CONTINUOUS
10
-0.013517
20
0.160949
30
0.0
11
-0.013636
21
0.159304
31
0.0
0
LINE
8
0
6
CONTINUOUS
10
-0.011621
20
0.161692
30
0.0
11
-0.013517
21
0.160949
31
0.0
0
LINE
8
0
6
CONTINUOUS
10
-0.009844
20
0.160789
30
0.0
11
-0.011621
21
0.161692
31
0.0
0
LINE
8
0
6
CONTINUOUS
10
-0.009963
20
0.159144
30
0.0
11
-0.009844
21
0.160789
31
0.0
0
LINE
8
0
6
CONTINUOUS
10
-0.045132
20
0.164628
30
0.0
11
-0.043510
21
0.165692
31
0.0
0
LINE
8
0
6
CONTINUOUS
10
-0.047131
20
0.165187
30
0.0
11
-0.045132
21
0.164628
31
0.0
0
LINE
8
0
6
CONTINUOUS
10
-0.047507
20
0.166809
30
0.0
11
-0.047131
21
0.165187
31
0.0
0
LINE
8
0
6
CONTINUOUS
10
-0.045884
20
0.167872
30
0.0
11
-0.047507
21
0.166809
31
0.0
0
LINE
8
0
6
CONTINUOUS
10
-0.043886
20
0.167313
30
0.0
11
-0.045884
21
0.167872
31
0.0
0
LINE
8
0
6
CONTINUOUS
10
-0.043510
20
0.165692
30
0.0
11
-0.043886
21
0.167313
31
0.0
0
LINE
8
0
6
CONTINUOUS
10
-0.014909
20
0.195015
30
0.0
11
-0.012815
21
0.194738
31
0.0
0
LINE
8
0
6
CONTINUOUS
10
-0.015647
20
0.196561
30
0.0
11
-0.014909
21
0.195015
31
0.0
0
LINE
8
0
6
CONTINUOUS
10
-0.014290
20
0.197829
30
0.0
11
-0.015647
21
0.196561
31
0.0
0
LINE
8
0
6
CONTINUOUS
10
-0.012197
20
0.197552
30
0.0
11
-0.014290
21
0.197829
31
0.0
0
LINE
8
0
6
CONTINUOUS
10
-0.011459
20
0.196006
30
0.0
11
-0.012197
21
0.197552
31
0.0
0
LINE
8
0
6
CONTINUOUS
10
-0.012815
20
0.194738
30
0.0
11
-0.011459
21
0.196006
31
0.0
0
LINE
8
0
6
CONTINUOUS
10
-0.027134
20
0.190671
30
0.0
11
-0.025012
21
0.190743
31
0.0
0
LINE
8
0
6
CONTINUOUS
10
-0.028275
20
0.192062
30
0.0
11
-0.027134
21
0.190671
31
0.0
0
LINE
8
0
6
CONTINUOUS
10
-0.027293
20
0.193523
30
0.0
11
-0.028275
21
0.192062
31
0.0
0
LINE
8
0
6
CONTINUOUS
10
-0.025171
20
0.193594
30
0.0
11
-0.027293
21
0.193523
31
0.0
0
LINE
8
0
6
CONTINUOUS
10
-0.024031
20
0.192204
30
0.0
11
-0.025171
21
0.193594
31
0.0
0
LINE
8
0
6
CONTINUOUS
10
-0.025012
20
0.190743
30
0.0
11
-0.024031
21
0.192204
31
0.0
0
LINE
8
0
6
CONTINUOUS
10
-0.002929
20
0.197959
30
0.0
11
-0.001491
21
0.196747
31
0.0
0
LINE
8
0
6
CONTINUOUS
10
-0.002294
20
0.199532
30
0.0
11
-0.002929
21
0.197959
31
0.0
0
LINE
8
0
6
CONTINUOUS
10
-0.000221
20
0.199892
30
0.0
11
-0.002294
21
0.199532
31
0.0
0
LINE
8
0
6
CONTINUOUS
10
0.001217
20
0.198679
30
0.0
11
-0.000221
21
0.199892
31
0.0
0
LINE
8
0
6
CONTINUOUS
10
0.000582
20
0.197106
30
0.0
11
0.001217
21
0.198679
31
0.0
0
LINE
8
0
6
CONTINUOUS
10
-0.001491
20
0.196747
30
0.0
11
0.000582
21
0.197106
31
0.0
0
LINE
8
0
6
CONTINUOUS
10
-0.036478
20
0.183591
30
0.0
11
-0.034423
21
0.184007
31
0.0
0
LINE
8
0
6
CONTINUOUS
10
-0.037971
20
0.184764
30
0.0
11
-0.036478
21
0.183591
31
0.0
0
LINE
8
0
6
CONTINUOUS
10
-0.037408
20
0.186353
30
0.0
11
-0.037971
21
0.184764
31
0.0
0
LINE
8
0
6
CONTINUOUS
10
-0.035353
20
0.186769
30
0.0
11
-0.037408
21
0.186353
31
0.0
0
LINE
8
0
6
CONTINUOUS
10
-0.033860
20
0.185596
30
0.0
11
-0.035353
21
0.186769
31
0.0
0
LINE
8
0
6
CONTINUOUS
10
-0.034423
20
0.184007
30
0.0
11
-0.033860
21
0.185596
31
0.0
0
LINE
8
0
6
CONTINUOUS
10
-0.042640
20
0.174693
30
0.0
11
-0.040744
21
0.175436
31
0.0
0
LINE
8
0
6
CONTINUOUS
10
-0.044417
20
0.175596
30
0.0
11
-0.042640
21
0.174693
31
0.0
0
LINE
8
0
6
CONTINUOUS
10
-0.044298
20
0.177241
30
0.0
11
-0.044417
21
0.175596
31
0.0
0
LINE
8
0
6
CONTINUOUS
10
-0.042402
20
0.177984
30
0.0
11
-0.044298
21
0.177241
31
0.0
0
LINE
8
0
6
CONTINUOUS
10
-0.040625
20
0.177081
30
0.0
11
-0.042402
21
0.177984
31
0.0
0
LINE
8
0
6
CONTINUOUS
10
-0.040744
20
0.175436
30
0.0
11
-0.040625
21
0.177081
31
0.0
0
LINE
8
0
6
CONTINUOUS
10
-0.043042
20
0.154866
30
0.0
11
-0.042666
21
0.156488
31
0.0
0
LINE
8
0
6
CONTINUOUS
10
-0.045040
20
0.154308
30
0.0
11
-0.043042
21
0.154866
31
0.0
0
LINE
8
0
6
CONTINUOUS
10
-0.046663
20
0.155371
30
0.0
11
-0.045040
21
0.154308
31
0.0
0
LINE
8
0
6
CONTINUOUS
10
-0.046287
20
0.156993
30
0.0
11
-0.046663
21
0.155371
31
0.0
0
LINE
8
0
6
CONTINUOUS
10
-0.044289
20
0.157551
30
0.0
11
-0.046287
21
0.156993
31
0.0
0
LINE
8
0
6
CONTINUOUS
10
-0.042666
20
0.156488
30
0.0
11
-0.044289
21
0.157551
31
0.0
0
LINE
8
0
6
CONTINUOUS
10
-0.000772
20
0.135114
30
0.0
11
-0.005440
21
0.135358
31
0.0
0
LINE
8
0
6
CONTINUOUS
10
-0.005440
20
0.135358
30
0.0
11
-0.005666
21
0.135394
31
0.0
0
LINE
8
0
6
CONTINUOUS
10
-0.009663
20
0.136028
30
0.0
11
-0.009916
21
0.136068
31
0.0
0
LINE
8
0
6
CONTINUOUS
10
-0.009916
20
0.136068
30
0.0
11
-0.014161
21
0.137212
31
0.0
0
LINE
8
0
6
CONTINUOUS
10
-0.018655
20
0.138719
30
0.0
11
-0.014563
21
0.137126
31
0.0
0
LINE
8
0
6
CONTINUOUS
10
-0.014161
20
0.137212
30
0.0
11
-0.018134
21
0.138759
31
0.0
0
LINE
8
0
6
CONTINUOUS
10
-0.022424
20
0.140694
30
0.0
11
-0.018655
21
0.138719
31
0.0
0
LINE
8
0
6
CONTINUOUS
10
-0.018134
20
0.138759
30
0.0
11
-0.021793
21
0.140677
31
0.0
0
LINE
8
0
6
CONTINUOUS
10
-0.025827
20
0.143018
30
0.0
11
-0.022424
21
0.140694
31
0.0
0
LINE
8
0
6
CONTINUOUS
10
-0.021793
20
0.140677
30
0.0
11
-0.025097
21
0.142933
31
0.0
0
LINE
8
0
6
CONTINUOUS
10
-0.028822
20
0.145658
30
0.0
11
-0.025827
21
0.143018
31
0.0
0
LINE
8
0
6
CONTINUOUS
10
-0.025097
20
0.142933
30
0.0
11
-0.028006
21
0.145496
31
0.0
0
LINE
8
0
6
CONTINUOUS
10
-0.031368
20
0.148582
30
0.0
11
-0.028822
21
0.145658
31
0.0
0
LINE
8
0
6
CONTINUOUS
10
-0.028006
20
0.145496
30
0.0
11
-0.030478
21
0.148335
31
0.0
0
LINE
8
0
6
CONTINUOUS
10
-0.033422
20
0.151756
30
0.0
11
-0.031368
21
0.148582
31
0.0
0
LINE
8
0
6
CONTINUOUS
10
-0.030478
20
0.148335
30
0.0
11
-0.032472
21
0.151417
31
0.0
0
LINE
8
0
6
CONTINUOUS
10
-0.034942
20
0.155149
30
0.0
11
-0.033422
21
0.151756
31
0.0
0
LINE
8
0
6
CONTINUOUS
10
-0.032472
20
0.151417
30
0.0
11
-0.033947
21
0.154710
31
0.0
0
LINE
8
0
6
CONTINUOUS
10
-0.035885
20
0.158727
30
0.0
11
-0.034942
21
0.155149
31
0.0
0
LINE
8
0
6
CONTINUOUS
10
-0.033947
20
0.154710
30
0.0
11
-0.034862
21
0.158183
31
0.0
0
LINE
8
0
6
CONTINUOUS
10
-0.036208
20
0.162455
30
0.0
11
-0.035885
21
0.158727
31
0.0
0
LINE
8
0
6
CONTINUOUS
10
-0.034862
20
0.158183
30
0.0
11
-0.035176
21
0.161804
31
0.0
0
LINE
8
0
6
CONTINUOUS
10
-0.035885
20
0.166183
30
0.0
11
-0.036208
21
0.162455
31
0.0
0
LINE
8
0
6
CONTINUOUS
10
-0.035176
20
0.161804
30
0.0
11
-0.034862
21
0.165424
31
0.0
0
LINE
8
0
6
CONTINUOUS
10
-0.034942
20
0.169760
30
0.0
11
-0.035885
21
0.166183
31
0.0
0
LINE
8
0
6
CONTINUOUS
10
-0.034862
20
0.165424
30
0.0
11
-0.033947
21
0.168897
31
0.0
0
LINE
8
0
6
CONTINUOUS
10
-0.033422
20
0.173153
30
0.0
11
-0.034942
21
0.169760
31
0.0
0
LINE
8
0
6
CONTINUOUS
10
-0.033947
20
0.168897
30
0.0
11
-0.032472
21
0.172190
31
0.0
0
LINE
8
0
6
CONTINUOUS
10
-0.031369
20
0.176328
30
0.0
11
-0.033422
21
0.173153
31
0.0
0
LINE
8
0
6
CONTINUOUS
10
-0.032472
20
0.172190
30
0.0
11
-0.030478
21
0.175272
31
0.0
0
LINE
8
0
6
CONTINUOUS
10
-0.028823
20
0.179252
30
0.0
11
-0.031369
21
0.176328
31
0.0
0
LINE
8
0
6
CONTINUOUS
10
-0.030478
20
0.175272
30
0.0
11
-0.028006
21
0.178111
31
0.0
0
LINE
8
0
6
CONTINUOUS
10
-0.025827
20
0.181892
30
0.0
11
-0.028823
21
0.179252
31
0.0
0
LINE
8
0
6
CONTINUOUS
10
-0.028006
20
0.178111
30
0.0
11
-0.025098
21
0.180674
31
0.0
0
LINE
8
0
6
CONTINUOUS
10
-0.022424
20
0.184215
30
0.0
11
-0.025827
21
0.181892
31
0.0
0
LINE
8
0
6
CONTINUOUS
10
-0.025098
20
0.180674
30
0.0
11
-0.021793
21
0.182930
31
0.0
0
LINE
8
0
6
CONTINUOUS
10
-0.018656
20
0.186190
30
0.0
11
-0.022424
21
0.184215
31
0.0
0
LINE
8
0
6
CONTINUOUS
10
-0.021793
20
0.182930
30
0.0
11
-0.018134
21
0.184848
31
0.0
0
LINE
8
0
6
CONTINUOUS
10
-0.014564
20
0.187784
30
0.0
11
-0.018656
21
0.186190
31
0.0
0
LINE
8
0
6
CONTINUOUS
10
-0.018134
20
0.184848
30
0.0
11
-0.014162
21
0.186395
31
0.0
0
LINE
8
0
6
CONTINUOUS
10
-0.010190
20
0.188962
30
0.0
11
-0.014564
21
0.187784
31
0.0
0
LINE
8
0
6
CONTINUOUS
10
-0.014162
20
0.186395
30
0.0
11
-0.009917
21
0.187539
31
0.0
0
LINE
8
0
6
CONTINUOUS
10
-0.005578
20
0.189694
30
0.0
11
-0.010190
21
0.188962
31
0.0
0
LINE
8
0
6
CONTINUOUS
10
-0.009917
20
0.187539
30
0.0
11
-0.005440
21
0.188249
31
0.0
0
LINE
8
0
6
CONTINUOUS
10
-0.000773
20
0.189945
30
0.0
11
-0.005578
21
0.189694
31
0.0
0
LINE
8
0
6
CONTINUOUS
10
-0.005440
20
0.188249
30
0.0
11
-0.000773
21
0.188493
31
0.0
0
LINE
8
0
6
CONTINUOUS
10
0.004033
20
0.189694
30
0.0
11
-0.000773
21
0.189945
31
0.0
0
LINE
8
0
6
CONTINUOUS
10
-0.000773
20
0.188493
30
0.0
11
0.003894
21
0.188249
31
0.0
0
LINE
8
0
6
CONTINUOUS
10
0.008644
20
0.188962
30
0.0
11
0.004033
21
0.189694
31
0.0
0
LINE
8
0
6
CONTINUOUS
10
0.003894
20
0.188249
30
0.0
11
0.008371
21
0.187539
31
0.0
0
LINE
8
0
6
CONTINUOUS
10
0.013018
20
0.187783
30
0.0
11
0.008644
21
0.188962
31
0.0
0
LINE
8
0
6
CONTINUOUS
10
0.008371
20
0.187539
30
0.0
11
0.012616
21
0.186395
31
0.0
0
LINE
8
0
6
CONTINUOUS
10
0.017110
20
0.186190
30
0.0
11
0.013018
21
0.187783
31
0.0
0
LINE
8
0
6
CONTINUOUS
10
0.012616
20
0.186395
30
0.0
11
0.016589
21
0.184848
31
0.0
0
LINE
8
0
6
CONTINUOUS
10
0.020879
20
0.184215
30
0.0
11
0.017110
21
0.186190
31
0.0
0
LINE
8
0
6
CONTINUOUS
10
0.016589
20
0.184848
30
0.0
11
0.020248
21
0.182930
31
0.0
0
LINE
8
0
6
CONTINUOUS
10
0.024282
20
0.181891
30
0.0
11
0.020879
21
0.184215
31
0.0
0
LINE
8
0
6
CONTINUOUS
10
0.020248
20
0.182930
30
0.0
11
0.023552
21
0.180674
31
0.0
0
LINE
8
0
6
CONTINUOUS
10
0.027277
20
0.179251
30
0.0
11
0.024282
21
0.181891
31
0.0
0
LINE
8
0
6
CONTINUOUS
10
0.023552
20
0.180674
30
0.0
11
0.026461
21
0.178110
31
0.0
0
LINE
8
0
6
CONTINUOUS
10
0.029823
20
0.176328
30
0.0
11
0.027277
21
0.179251
31
0.0
0
LINE
8
0
6
CONTINUOUS
10
0.026461
20
0.178110
30
0.0
11
0.028932
21
0.175272
31
0.0
0
LINE
8
0
6
CONTINUOUS
10
0.031877
20
0.173153
30
0.0
11
0.029823
21
0.176328
31
0.0
0
LINE
8
0
6
CONTINUOUS
10
0.028932
20
0.175272
30
0.0
11
0.030926
21
0.172190
31
0.0
0
LINE
8
0
6
CONTINUOUS
10
0.033397
20
0.169760
30
0.0
11
0.031877
21
0.173153
31
0.0
0
LINE
8
0
6
CONTINUOUS
10
0.030926
20
0.172190
30
0.0
11
0.032401
21
0.168897
31
0.0
0
LINE
8
0
6
CONTINUOUS
10
0.034339
20
0.166182
30
0.0
11
0.033397
21
0.169760
31
0.0
0
LINE
8
0
6
CONTINUOUS
10
0.032401
20
0.168897
30
0.0
11
0.033317
21
0.165424
31
0.0
0
LINE
8
0
6
CONTINUOUS
10
0.034663
20
0.162454
30
0.0
11
0.034339
21
0.166182
31
0.0
0
LINE
8
0
6
CONTINUOUS
10
0.033317
20
0.165424
30
0.0
11
0.033631
21
0.161803
31
0.0
0
LINE
8
0
6
CONTINUOUS
10
0.034339
20
0.158727
30
0.0
11
0.034663
21
0.162454
31
0.0
0
LINE
8
0
6
CONTINUOUS
10
0.033631
20
0.161803
30
0.0
11
0.033317
21
0.158183
31
0.0
0
LINE
8
0
6
CONTINUOUS
10
0.033397
20
0.155149
30
0.0
11
0.034339
21
0.158727
31
0.0
0
LINE
8
0
6
CONTINUOUS
10
0.033317
20
0.158183
30
0.0
11
0.032401
21
0.154710
31
0.0
0
LINE
8
0
6
CONTINUOUS
10
0.031877
20
0.151756
30
0.0
11
0.033397
21
0.155149
31
0.0
0
LINE
8
0
6
CONTINUOUS
10
0.032401
20
0.154710
30
0.0
11
0.030926
21
0.151416
31
0.0
0
LINE
8
0
6
CONTINUOUS
10
0.029823
20
0.148581
30
0.0
11
0.031877
21
0.151756
31
0.0
0
LINE
8
0
6
CONTINUOUS
10
0.030926
20
0.151416
30
0.0
11
0.028933
21
0.148335
31
0.0
0
LINE
8
0
6
CONTINUOUS
10
0.027277
20
0.145658
30
0.0
11
0.029823
21
0.148581
31
0.0
0
LINE
8
0
6
CONTINUOUS
10
0.028933
20
0.148335
30
0.0
11
0.026461
21
0.145496
31
0.0
0
LINE
8
0
6
CONTINUOUS
10
0.024282
20
0.143018
30
0.0
11
0.027277
21
0.145658
31
0.0
0
LINE
8
0
6
CONTINUOUS
10
0.026461
20
0.145496
30
0.0
11
0.023552
21
0.142933
31
0.0
0
LINE
8
0
6
CONTINUOUS
10
0.020879
20
0.140694
30
0.0
11
0.024282
21
0.143018
31
0.0
0
LINE
8
0
6
CONTINUOUS
10
0.023552
20
0.142933
30
0.0
11
0.020248
21
0.140676
31
0.0
0
LINE
8
0
6
CONTINUOUS
10
0.017111
20
0.138719
30
0.0
11
0.020879
21
0.140694
31
0.0
0
LINE
8
0
6
CONTINUOUS
10
0.020248
20
0.140676
30
0.0
11
0.016589
21
0.138759
31
0.0
0
LINE
8
0
6
CONTINUOUS
10
0.016003
20
0.138288
30
0.0
11
0.017111
21
0.138719
31
0.0
0
LINE
8
0
6
CONTINUOUS
10
0.016589
20
0.138759
30
0.0
11
0.012617
21
0.137212
31
0.0
0
LINE
8
0
6
CONTINUOUS
10
0.012617
20
0.137212
30
0.0
11
0.008371
21
0.136068
31
0.0
0
LINE
8
0
6
CONTINUOUS
10
0.008371
20
0.136068
30
0.0
11
0.003895
21
0.135358
31
0.0
0
LINE
8
0
6
CONTINUOUS
10
0.003895
20
0.135358
30
0.0
11
-0.000772
21
0.135114
31
0.0
0
LINE
8
0
6
CONTINUOUS
10
-0.001190
20
-0.218688
30
0.0
11
0.003476
21
-0.218566
31
0.0
0
LINE
8
0
6
CONTINUOUS
10
0.003476
20
-0.218566
30
0.0
11
0.005410
21
-0.218271
31
0.0
0
LINE
8
0
6
CONTINUOUS
10
0.005412
20
-0.196874
30
0.0
11
0.005410
21
-0.218271
31
0.0
0
LINE
8
0
6
CONTINUOUS
10
-0.007790
20
-0.218271
30
0.0
11
-0.005857
21
-0.218566
31
0.0
0
LINE
8
0
6
CONTINUOUS
10
-0.007788
20
-0.196869
30
0.0
11
-0.007790
21
-0.218271
31
0.0
0
LINE
8
0
6
CONTINUOUS
10
-0.005857
20
-0.218566
30
0.0
11
-0.001190
21
-0.218688
31
0.0
0
LINE
8
0
6
CONTINUOUS
10
0.005427
20
-0.174533
30
0.0
11
0.005412
21
-0.196874
31
0.0
0
LINE
8
0
6
CONTINUOUS
10
-0.007773
20
-0.174516
30
0.0
11
-0.007788
21
-0.196869
31
0.0
0
LINE
8
0
6
CONTINUOUS
10
0.005469
20
-0.151282
30
0.0
11
0.005427
21
-0.174533
31
0.0
0
LINE
8
0
6
CONTINUOUS
10
-0.007731
20
-0.151248
30
0.0
11
-0.007773
21
-0.174516
31
0.0
0
LINE
8
0
6
CONTINUOUS
10
0.005551
20
-0.127160
30
0.0
11
0.005469
21
-0.151282
31
0.0
0
LINE
8
0
6
CONTINUOUS
10
-0.007649
20
-0.127102
30
0.0
11
-0.007731
21
-0.151248
31
0.0
0
LINE
8
0
6
CONTINUOUS
10
0.005685
20
-0.102202
30
0.0
11
0.005551
21
-0.127160
31
0.0
0
LINE
8
0
6
CONTINUOUS
10
-0.007515
20
-0.102116
30
0.0
11
-0.007649
21
-0.127102
31
0.0
0
LINE
8
0
6
CONTINUOUS
10
0.005885
20
-0.076444
30
0.0
11
0.005685
21
-0.102202
31
0.0
0
LINE
8
0
6
CONTINUOUS
10
-0.007314
20
-0.076325
30
0.0
11
-0.007515
21
-0.102116
31
0.0
0
LINE
8
0
6
CONTINUOUS
10
0.006165
20
-0.049923
30
0.0
11
0.005885
21
-0.076444
31
0.0
0
LINE
8
0
6
CONTINUOUS
10
-0.007034
20
-0.049768
30
0.0
11
-0.007314
21
-0.076325
31
0.0
0
LINE
8
0
6
CONTINUOUS
10
0.006493
20
-0.025922
30
0.0
11
0.006165
21
-0.049923
31
0.0
0
LINE
8
0
6
CONTINUOUS
10
-0.006708
20
-0.025882
30
0.0
11
-0.007034
21
-0.049768
31
0.0
0
LINE
8
0
6
CONTINUOUS
10
0.014692
20
-0.002939
30
0.0
11
0.014692
21
0.005741
31
0.0
0
LINE
8
0
6
CONTINUOUS
10
0.014132
20
0.005934
30
0.0
11
0.012192
21
0.005927
31
0.0
0
LINE
8
0
6
CONTINUOUS
10
0.009108
20
-0.051858
30
0.0
11
0.010926
21
-0.052041
31
0.0
0
LINE
8
0
6
CONTINUOUS
10
0.009148
20
-0.005406
30
0.0
11
0.008975
21
-0.005448
31
0.0
0
LINE
8
0
6
CONTINUOUS
10
0.010205
20
-0.005149
30
0.0
11
0.009148
21
-0.005406
31
0.0
0
LINE
8
0
6
CONTINUOUS
10
0.011196
20
-0.052068
30
0.0
11
0.011360
21
-0.052028
31
0.0
0
LINE
8
0
6
CONTINUOUS
10
0.014692
20
-0.003361
30
0.0
11
0.014692
21
-0.002939
31
0.0
0
LINE
8
0
6
CONTINUOUS
10
0.011005
20
-0.004785
30
0.0
11
0.010205
21
-0.005149
31
0.0
0
LINE
8
0
6
CONTINUOUS
10
0.010926
20
-0.052041
30
0.0
11
0.011196
21
-0.052068
31
0.0
0
LINE
8
0
6
CONTINUOUS
10
0.011454
20
-0.004396
30
0.0
11
0.011005
21
-0.004785
31
0.0
0
LINE
8
0
6
CONTINUOUS
10
0.014698
20
-0.003783
30
0.0
11
0.014692
21
-0.003361
31
0.0
0
LINE
8
0
6
CONTINUOUS
10
0.011578
20
-0.003992
30
0.0
11
0.011454
21
-0.004396
31
0.0
0
LINE
8
0
6
CONTINUOUS
10
0.014381
20
-0.050729
30
0.0
11
0.014679
21
-0.050355
31
0.0
0
LINE
8
0
6
CONTINUOUS
10
0.013898
20
-0.051096
30
0.0
11
0.014381
21
-0.050729
31
0.0
0
LINE
8
0
6
CONTINUOUS
10
0.014692
20
-0.049975
30
0.0
11
0.014692
21
-0.048949
31
0.0
0
LINE
8
0
6
CONTINUOUS
10
0.014679
20
-0.050355
30
0.0
11
0.014692
21
-0.049975
31
0.0
0
LINE
8
0
6
CONTINUOUS
10
0.011360
20
-0.052028
30
0.0
11
0.012366
21
-0.051780
31
0.0
0
LINE
8
0
6
CONTINUOUS
10
0.012366
20
-0.051780
30
0.0
11
0.013244
21
-0.051450
31
0.0
0
LINE
8
0
6
CONTINUOUS
10
0.008864
20
-0.051833
30
0.0
11
0.009108
21
-0.051858
31
0.0
0
LINE
8
0
6
CONTINUOUS
10
0.008867
20
-0.050812
30
0.0
11
0.008864
21
-0.051833
31
0.0
0
LINE
8
0
6
CONTINUOUS
10
0.014692
20
-0.048949
30
0.0
11
0.014692
21
-0.004238
31
0.0
0
LINE
8
0
6
CONTINUOUS
10
0.008973
20
-0.006321
30
0.0
11
0.008867
21
-0.050812
31
0.0
0
LINE
8
0
6
CONTINUOUS
10
0.014698
20
-0.004659
30
0.0
11
0.014698
21
-0.003783
31
0.0
0
LINE
8
0
6
CONTINUOUS
10
0.007869
20
-0.048426
30
0.0
11
0.008872
21
-0.048704
31
0.0
0
LINE
8
0
6
CONTINUOUS
10
0.013244
20
-0.051450
30
0.0
11
0.013898
21
-0.051096
31
0.0
0
LINE
8
0
6
CONTINUOUS
10
0.008975
20
-0.005448
30
0.0
11
0.008973
21
-0.006321
31
0.0
0
LINE
8
0
6
CONTINUOUS
10
0.014692
20
0.005937
30
0.0
11
0.014132
21
0.005934
31
0.0
0
LINE
8
0
6
CONTINUOUS
10
0.014692
20
0.005741
30
0.0
11
0.014692
21
0.005937
31
0.0
0
LINE
8
0
6
CONTINUOUS
10
0.006189
20
-0.048158
30
0.0
11
0.007869
21
-0.048426
31
0.0
0
LINE
8
0
6
CONTINUOUS
10
-0.015308
20
0.005741
30
0.0
11
-0.015308
21
-0.002939
31
0.0
0
LINE
8
0
6
CONTINUOUS
10
-0.012808
20
0.005927
30
0.0
11
-0.014749
21
0.005934
31
0.0
0
LINE
8
0
6
CONTINUOUS
10
-0.011543
20
-0.052041
30
0.0
11
-0.009725
21
-0.051858
31
0.0
0
LINE
8
0
6
CONTINUOUS
10
-0.009592
20
-0.005448
30
0.0
11
-0.009765
21
-0.005406
31
0.0
0
LINE
8
0
6
CONTINUOUS
10
-0.009765
20
-0.005406
30
0.0
11
-0.010821
21
-0.005149
31
0.0
0
LINE
8
0
6
CONTINUOUS
10
-0.011977
20
-0.052028
30
0.0
11
-0.011812
21
-0.052068
31
0.0
0
LINE
8
0
6
CONTINUOUS
10
-0.015308
20
-0.002939
30
0.0
11
-0.015308
21
-0.003361
31
0.0
0
LINE
8
0
6
CONTINUOUS
10
-0.010821
20
-0.005149
30
0.0
11
-0.011622
21
-0.004785
31
0.0
0
LINE
8
0
6
CONTINUOUS
10
-0.011812
20
-0.052068
30
0.0
11
-0.011543
21
-0.052041
31
0.0
0
LINE
8
0
6
CONTINUOUS
10
-0.011622
20
-0.004785
30
0.0
11
-0.012071
21
-0.004396
31
0.0
0
LINE
8
0
6
CONTINUOUS
10
-0.015308
20
-0.003361
30
0.0
11
-0.015315
21
-0.003783
31
0.0
0
LINE
8
0
6
CONTINUOUS
10
-0.012071
20
-0.004396
30
0.0
11
-0.012195
21
-0.003992
31
0.0
0
LINE
8
0
6
CONTINUOUS
10
-0.015296
20
-0.050355
30
0.0
11
-0.014998
21
-0.050729
31
0.0
0
LINE
8
0
6
CONTINUOUS
10
-0.014998
20
-0.050729
30
0.0
11
-0.014515
21
-0.051096
31
0.0
0
LINE
8
0
6
CONTINUOUS
10
-0.015308
20
-0.049975
30
0.0
11
-0.015296
21
-0.050355
31
0.0
0
LINE
8
0
6
CONTINUOUS
10
-0.015308
20
-0.048949
30
0.0
11
-0.015308
21
-0.049975
31
0.0
0
LINE
8
0
6
CONTINUOUS
10
-0.012983
20
-0.051780
30
0.0
11
-0.011977
21
-0.052028
31
0.0
0
LINE
8
0
6
CONTINUOUS
10
-0.013861
20
-0.051450
30
0.0
11
-0.012983
21
-0.051780
31
0.0
0
LINE
8
0
6
CONTINUOUS
10
-0.009481
20
-0.051833
30
0.0
11
-0.009484
21
-0.050812
31
0.0
0
LINE
8
0
6
CONTINUOUS
10
-0.009725
20
-0.051858
30
0.0
11
-0.009481
21
-0.051833
31
0.0
0
LINE
8
0
6
CONTINUOUS
10
-0.015308
20
-0.004238
30
0.0
11
-0.015308
21
-0.048949
31
0.0
0
LINE
8
0
6
CONTINUOUS
10
-0.009484
20
-0.050812
30
0.0
11
-0.009590
21
-0.006321
31
0.0
0
LINE
8
0
6
CONTINUOUS
10
-0.015315
20
-0.003783
30
0.0
11
-0.015315
21
-0.004659
31
0.0
0
LINE
8
0
6
CONTINUOUS
10
-0.009489
20
-0.048704
30
0.0
11
-0.008486
21
-0.048426
31
0.0
0
LINE
8
0
6
CONTINUOUS
10
-0.014515
20
-0.051096
30
0.0
11
-0.013861
21
-0.051450
31
0.0
0
LINE
8
0
6
CONTINUOUS
10
-0.009590
20
-0.006321
30
0.0
11
-0.009592
21
-0.005448
31
0.0
0
LINE
8
0
6
CONTINUOUS
10
-0.015308
20
0.005937
30
0.0
11
-0.015308
21
0.005741
31
0.0
0
LINE
8
0
6
CONTINUOUS
10
-0.014749
20
0.005934
30
0.0
11
-0.015308
21
0.005937
31
0.0
0
LINE
8
0
6
CONTINUOUS
10
-0.008486
20
-0.048426
30
0.0
11
-0.007012
21
-0.048191
31
0.0
0
LINE
8
0
6
CONTINUOUS
10
0.015929
20
0.176444
30
0.0
11
0.017984
21
0.176167
31
0.0
0
LINE
8
0
6
CONTINUOUS
10
0.014437
20
0.175052
30
0.0
11
0.015929
21
0.176444
31
0.0
0
LINE
8
0
6
CONTINUOUS
10
0.028546
20
0.171778
30
0.0
11
0.030442
21
0.171238
31
0.0
0
LINE
8
0
6
CONTINUOUS
10
0.017282
20
0.189797
30
0.0
11
0.019311
21
0.189875
31
0.0
0
LINE
8
0
6
CONTINUOUS
10
0.019311
20
0.189875
30
0.0
11
0.019405
21
0.189876
31
0.0
0
LINE
8
0
6
CONTINUOUS
10
0.010078
20
0.162472
30
0.0
11
0.011974
21
0.161776
31
0.0
0
LINE
8
0
6
CONTINUOUS
10
0.009107
20
0.161956
30
0.0
11
0.010078
21
0.162472
31
0.0
0
LINE
8
0
6
CONTINUOUS
10
0.014457
20
0.164259
30
0.0
11
0.015834
21
0.165071
31
0.0
0
LINE
8
0
6
CONTINUOUS
10
0.016234
20
0.165301
30
0.0
11
0.018130
21
0.164712
31
0.0
0
LINE
8
0
6
CONTINUOUS
10
0.027568
20
0.160794
30
0.0
11
0.029566
21
0.161590
31
0.0
0
LINE
8
0
6
CONTINUOUS
10
0.016134
20
0.137256
30
0.0
11
0.016003
21
0.136740
31
0.0
0
LINE
8
0
6
CONTINUOUS
10
0.006029
20
0.144250
30
0.0
11
0.007462
21
0.143426
31
0.0
0
LINE
8
0
6
CONTINUOUS
10
0.003841
20
0.143787
30
0.0
11
0.005418
21
0.144239
31
0.0
0
LINE
8
0
6
CONTINUOUS
10
0.003466
20
0.142280
30
0.0
11
0.003841
21
0.143787
31
0.0
0
LINE
8
0
6
CONTINUOUS
10
0.017182
20
0.144300
30
0.0
11
0.018805
21
0.143461
31
0.0
0
LINE
8
0
6
CONTINUOUS
10
0.015184
20
0.143637
30
0.0
11
0.017182
21
0.144300
31
0.0
0
LINE
8
0
6
CONTINUOUS
10
0.014808
20
0.142135
30
0.0
11
0.015184
21
0.143637
31
0.0
0
LINE
8
0
6
CONTINUOUS
10
0.003795
20
0.137351
30
0.0
11
0.003927
21
0.137877
31
0.0
0
LINE
8
0
6
CONTINUOUS
10
0.006340
20
0.139292
30
0.0
11
0.007463
21
0.138664
31
0.0
0
LINE
8
0
6
CONTINUOUS
10
0.004170
20
0.138828
30
0.0
11
0.003927
21
0.137877
31
0.0
0
LINE
8
0
6
CONTINUOUS
10
0.016379
20
0.138244
30
0.0
11
0.018377
21
0.138904
31
0.0
0
LINE
8
0
6
CONTINUOUS
10
0.016134
20
0.137256
30
0.0
11
0.016379
21
0.138244
31
0.0
0
LINE
8
0
6
CONTINUOUS
10
0.006169
20
0.139392
30
0.0
11
0.006340
21
0.139292
31
0.0
0
LINE
8
0
6
CONTINUOUS
10
0.027624
20
0.138934
30
0.0
11
0.029246
21
0.140055
31
0.0
0
LINE
8
0
6
CONTINUOUS
10
0.003137
20
0.147272
30
0.0
11
0.003513
21
0.148790
31
0.0
0
LINE
8
0
6
CONTINUOUS
10
0.005840
20
0.144362
30
0.0
11
0.006029
21
0.144250
31
0.0
0
LINE
8
0
6
CONTINUOUS
10
0.012417
20
0.153141
30
0.0
11
0.012456
21
0.153294
31
0.0
0
LINE
8
0
6
CONTINUOUS
10
0.002808
20
0.152277
30
0.0
11
0.003083
21
0.153385
31
0.0
0
LINE
8
0
6
CONTINUOUS
10
0.015987
20
0.149804
30
0.0
11
0.017609
21
0.148949
31
0.0
0
LINE
8
0
6
CONTINUOUS
10
0.013988
20
0.149130
30
0.0
11
0.015987
21
0.149804
31
0.0
0
LINE
8
0
6
CONTINUOUS
10
0.025422
20
0.150956
30
0.0
11
0.026434
21
0.151680
31
0.0
0
LINE
8
0
6
CONTINUOUS
10
0.027165
20
0.151573
30
0.0
11
0.028432
21
0.151394
31
0.0
0
LINE
8
0
6
CONTINUOUS
10
0.036540
20
0.147062
30
0.0
11
0.038105
21
0.148206
31
0.0
0
LINE
8
0
6
CONTINUOUS
10
0.012456
20
0.153294
30
0.0
11
0.012517
21
0.153564
31
0.0
0
LINE
8
0
6
CONTINUOUS
10
0.003083
20
0.153385
30
0.0
11
0.003184
21
0.153828
31
0.0
0
LINE
8
0
6
CONTINUOUS
10
0.012793
20
0.154760
30
0.0
11
0.013128
21
0.154863
31
0.0
0
LINE
8
0
6
CONTINUOUS
10
0.012517
20
0.153564
30
0.0
11
0.012793
21
0.154760
31
0.0
0
LINE
8
0
6
CONTINUOUS
10
0.013128
20
0.154863
30
0.0
11
0.014791
21
0.155475
31
0.0
0
LINE
8
0
6
CONTINUOUS
10
0.004009
20
0.169718
30
0.0
11
0.006064
21
0.169323
31
0.0
0
LINE
8
0
6
CONTINUOUS
10
0.026769
20
0.170590
30
0.0
11
0.026872
21
0.170654
31
0.0
0
LINE
8
0
6
CONTINUOUS
10
0.022390
20
0.168510
30
0.0
11
0.024286
21
0.167873
31
0.0
0
LINE
8
0
6
CONTINUOUS
10
0.026872
20
0.170654
30
0.0
11
0.027303
21
0.170950
31
0.0
0
LINE
8
0
6
CONTINUOUS
10
0.036953
20
0.164944
30
0.0
11
0.038576
21
0.164044
31
0.0
0
LINE
8
0
6
CONTINUOUS
10
0.036449
20
0.164737
30
0.0
11
0.036953
21
0.164944
31
0.0
0
LINE
8
0
6
CONTINUOUS
10
0.042342
20
0.167604
30
0.0
11
0.044341
21
0.168490
31
0.0
0
LINE
8
0
6
CONTINUOUS
10
0.010937
20
0.185098
30
0.0
11
0.013059
21
0.185070
31
0.0
0
LINE
8
0
6
CONTINUOUS
10
0.021889
20
0.180130
30
0.0
11
0.023397
21
0.179918
31
0.0
0
LINE
8
0
6
CONTINUOUS
10
0.026357
20
0.182398
30
0.0
11
0.026427
21
0.182464
31
0.0
0
LINE
8
0
6
CONTINUOUS
10
0.023397
20
0.179918
30
0.0
11
0.023944
21
0.179832
31
0.0
0
LINE
8
0
6
CONTINUOUS
10
0.026427
20
0.182464
30
0.0
11
0.027417
21
0.183473
31
0.0
0
LINE
8
0
6
CONTINUOUS
10
0.039081
20
0.177452
30
0.0
11
0.040859
21
0.178635
31
0.0
0
LINE
8
0
6
CONTINUOUS
10
0.017574
20
0.132890
30
0.0
11
0.017486
21
0.132552
31
0.0
0
LINE
8
0
6
CONTINUOUS
10
0.034308
20
0.154549
30
0.0
11
0.036307
21
0.154251
31
0.0
0
LINE
8
0
6
CONTINUOUS
10
0.004378
20
0.133531
30
0.0
11
0.004123
21
0.132549
31
0.0
0
LINE
8
0
6
CONTINUOUS
10
0.006497
20
0.134521
30
0.0
11
0.006856
21
0.134325
31
0.0
0
LINE
8
0
6
CONTINUOUS
10
0.004499
20
0.133990
30
0.0
11
0.004378
21
0.133531
31
0.0
0
LINE
8
0
6
CONTINUOUS
10
-0.001753
20
0.176376
30
0.0
11
-0.000001
21
0.176266
31
0.0
0
LINE
8
0
6
CONTINUOUS
10
-0.019665
20
0.175889
30
0.0
11
-0.019528
21
0.176292
31
0.0
0
LINE
8
0
6
CONTINUOUS
10
-0.032076
20
0.170118
30
0.0
11
-0.031986
21
0.171441
31
0.0
0
LINE
8
0
6
CONTINUOUS
10
-0.021930
20
0.188380
30
0.0
11
-0.020948
21
0.189957
31
0.0
0
LINE
8
0
6
CONTINUOUS
10
-0.031935
20
0.182362
30
0.0
11
-0.031448
21
0.183845
31
0.0
0
LINE
8
0
6
CONTINUOUS
10
-0.019792
20
0.163218
30
0.0
11
-0.019673
21
0.164829
31
0.0
0
LINE
8
0
6
CONTINUOUS
10
-0.005521
20
0.135274
30
0.0
11
-0.000772
21
0.135048
31
0.0
0
LINE
8
0
6
CONTINUOUS
10
-0.033141
20
0.138609
30
0.0
11
-0.033163
21
0.138522
31
0.0
0
LINE
8
0
6
CONTINUOUS
10
-0.032171
20
0.140020
30
0.0
11
-0.030789
21
0.140217
31
0.0
0
LINE
8
0
6
CONTINUOUS
10
-0.032787
20
0.139933
30
0.0
11
-0.032171
21
0.140020
31
0.0
0
LINE
8
0
6
CONTINUOUS
10
-0.029975
20
0.151578
30
0.0
11
-0.030351
21
0.150117
31
0.0
0
LINE
8
0
6
CONTINUOUS
10
-0.027977
20
0.151859
30
0.0
11
-0.027350
21
0.151404
31
0.0
0
LINE
8
0
6
CONTINUOUS
10
-0.031944
20
0.145546
30
0.0
11
-0.032318
21
0.144099
31
0.0
0
LINE
8
0
6
CONTINUOUS
10
-0.029945
20
0.145838
30
0.0
11
-0.028323
21
0.144678
31
0.0
0
LINE
8
0
6
CONTINUOUS
10
-0.041646
20
0.148127
30
0.0
11
-0.042022
21
0.146671
31
0.0
0
LINE
8
0
6
CONTINUOUS
10
-0.046663
20
0.156418
30
0.0
11
-0.046287
21
0.157945
31
0.0
0
LINE
8
0
6
CONTINUOUS
10
-0.044289
20
0.158178
30
0.0
11
-0.042666
21
0.156885
31
0.0
0
LINE
8
0
6
CONTINUOUS
10
-0.008170
20
0.167658
30
0.0
11
-0.007608
21
0.169366
31
0.0
0
LINE
8
0
6
CONTINUOUS
10
-0.025948
20
0.166259
30
0.0
11
-0.025830
21
0.167997
31
0.0
0
LINE
8
0
6
CONTINUOUS
10
-0.008579
20
0.180051
30
0.0
11
-0.008258
21
0.180593
31
0.0
0
LINE
8
0
6
CONTINUOUS
10
-0.026051
20
0.178204
30
0.0
11
-0.025488
21
0.179938
31
0.0
0
LINE
8
0
6
CONTINUOUS
10
-0.027810
20
0.193737
30
0.0
11
-0.027293
21
0.194608
31
0.0
0
LINE
8
0
6
CONTINUOUS
10
-0.044326
20
0.177817
30
0.0
11
-0.044298
21
0.178237
31
0.0
0
LINE
8
0
6
CONTINUOUS
10
-0.034853
20
0.153981
30
0.0
11
-0.034229
21
0.153500
31
0.0
0
LINE
8
0
6
CONTINUOUS
10
-0.015647
20
0.197517
30
0.0
11
-0.014290
21
0.199006
31
0.0
0
ENDSEC
0
EOF
