999
unknown String-ID: 20550
0
SECTION
2
HEADER
9
$ACADVER
1
AC1009
9
$DWGCODEPAGE
3
unknown String-ID: 20561
0
ENDSEC
0
SECTION
2
TABLES
0
TABLE
2
LAYER
70
1
0
LAYER
2
0
70
0
62
7
6
CONTINUOUS
0
ENDTAB
0
ENDSEC
0
SECTION
2
ENTITIES
0
LINE
8
0
6
CONTINUOUS
10
0.014692
20
0.038528
30
0.0
11
0.014692
21
0.075993
31
0.0
0
LINE
8
0
6
CONTINUOUS
10
0.014132
20
0.076839
30
0.0
11
0.012192
21
0.076841
31
0.0
0
LINE
8
0
6
CONTINUOUS
10
0.014692
20
0.036707
30
0.0
11
0.014692
21
0.038528
31
0.0
0
LINE
8
0
6
CONTINUOUS
10
-0.000308
20
0.046332
30
0.0
11
0.002658
21
0.045755
31
0.0
0
LINE
8
0
6
CONTINUOUS
10
0.014667
20
0.033065
30
0.0
11
0.014698
21
0.034886
31
0.0
0
LINE
8
0
6
CONTINUOUS
10
0.005841
20
0.044646
30
0.0
11
0.008494
21
0.042807
31
0.0
0
LINE
8
0
6
CONTINUOUS
10
0.010055
20
0.041183
30
0.0
11
0.011026
21
0.039189
31
0.0
0
LINE
8
0
6
CONTINUOUS
10
0.002658
20
0.045755
30
0.0
11
0.005841
21
0.044646
31
0.0
0
LINE
8
0
6
CONTINUOUS
10
0.014297
20
0.031279
30
0.0
11
0.014667
21
0.033065
31
0.0
0
LINE
8
0
6
CONTINUOUS
10
0.008494
20
0.042807
30
0.0
11
0.010055
21
0.041183
31
0.0
0
LINE
8
0
6
CONTINUOUS
10
0.012192
20
0.076841
30
0.0
11
0.009692
21
0.076843
31
0.0
0
LINE
8
0
6
CONTINUOUS
10
0.009692
20
0.076843
30
0.0
11
0.007192
21
0.076845
31
0.0
0
LINE
8
0
6
CONTINUOUS
10
0.007192
20
0.076845
30
0.0
11
0.004692
21
0.076847
31
0.0
0
LINE
8
0
6
CONTINUOUS
10
0.004692
20
0.076847
30
0.0
11
0.002192
21
0.076849
31
0.0
0
LINE
8
0
6
CONTINUOUS
10
0.002192
20
0.076849
30
0.0
11
-0.000308
21
0.076852
31
0.0
0
LINE
8
0
6
CONTINUOUS
10
0.014692
20
0.076839
30
0.0
11
0.014132
21
0.076839
31
0.0
0
LINE
8
0
6
CONTINUOUS
10
0.014692
20
0.075993
30
0.0
11
0.014692
21
0.076839
31
0.0
0
LINE
8
0
6
CONTINUOUS
10
-0.015308
20
0.075993
30
0.0
11
-0.015308
21
0.038528
31
0.0
0
LINE
8
0
6
CONTINUOUS
10
-0.012808
20
0.076841
30
0.0
11
-0.014749
21
0.076839
31
0.0
0
LINE
8
0
6
CONTINUOUS
10
-0.012086
20
0.037519
30
0.0
11
-0.011643
21
0.039189
31
0.0
0
LINE
8
0
6
CONTINUOUS
10
-0.015308
20
0.038528
30
0.0
11
-0.015308
21
0.036707
31
0.0
0
LINE
8
0
6
CONTINUOUS
10
-0.003274
20
0.045755
30
0.0
11
-0.000308
21
0.046332
31
0.0
0
LINE
8
0
6
CONTINUOUS
10
-0.015315
20
0.034886
30
0.0
11
-0.015283
21
0.033065
31
0.0
0
LINE
8
0
6
CONTINUOUS
10
-0.009111
20
0.042807
30
0.0
11
-0.006458
21
0.044646
31
0.0
0
LINE
8
0
6
CONTINUOUS
10
-0.011643
20
0.039189
30
0.0
11
-0.010671
21
0.041183
31
0.0
0
LINE
8
0
6
CONTINUOUS
10
-0.006458
20
0.044646
30
0.0
11
-0.003274
21
0.045755
31
0.0
0
LINE
8
0
6
CONTINUOUS
10
-0.015283
20
0.033065
30
0.0
11
-0.014914
21
0.031279
31
0.0
0
LINE
8
0
6
CONTINUOUS
10
-0.010671
20
0.041183
30
0.0
11
-0.009111
21
0.042807
31
0.0
0
LINE
8
0
6
CONTINUOUS
10
-0.014914
20
0.031279
30
0.0
11
-0.014216
21
0.029596
31
0.0
0
LINE
8
0
6
CONTINUOUS
10
-0.010308
20
0.076843
30
0.0
11
-0.012808
21
0.076841
31
0.0
0
LINE
8
0
6
CONTINUOUS
10
-0.007808
20
0.076845
30
0.0
11
-0.010308
21
0.076843
31
0.0
0
LINE
8
0
6
CONTINUOUS
10
-0.005309
20
0.076847
30
0.0
11
-0.007808
21
0.076845
31
0.0
0
LINE
8
0
6
CONTINUOUS
10
-0.002809
20
0.076849
30
0.0
11
-0.005309
21
0.076847
31
0.0
0
LINE
8
0
6
CONTINUOUS
10
-0.000308
20
0.076852
30
0.0
11
-0.002809
21
0.076849
31
0.0
0
LINE
8
0
6
CONTINUOUS
10
-0.015308
20
0.076839
30
0.0
11
-0.015308
21
0.075993
31
0.0
0
LINE
8
0
6
CONTINUOUS
10
-0.014749
20
0.076839
30
0.0
11
-0.015308
21
0.076839
31
0.0
0
LINE
8
0
6
CONTINUOUS
10
-0.012753
20
-0.076344
30
0.0
11
-0.000001
21
-0.076852
31
0.0
0
LINE
8
0
6
CONTINUOUS
10
-0.025502
20
-0.074735
30
0.0
11
-0.012753
21
-0.076344
31
0.0
0
LINE
8
0
6
CONTINUOUS
10
-0.034449
20
-0.072639
30
0.0
11
-0.025502
21
-0.074735
31
0.0
0
LINE
8
0
6
CONTINUOUS
10
-0.045616
20
-0.065677
30
0.0
11
-0.040485
21
-0.069727
31
0.0
0
LINE
8
0
6
CONTINUOUS
10
-0.040485
20
-0.069727
30
0.0
11
-0.034449
21
-0.072639
31
0.0
0
LINE
8
0
6
CONTINUOUS
10
-0.050502
20
-0.013579
30
0.0
11
-0.052827
21
-0.019586
31
0.0
0
LINE
8
0
6
CONTINUOUS
10
-0.041401
20
-0.004550
30
0.0
11
-0.045164
21
-0.007023
31
0.0
0
LINE
8
0
6
CONTINUOUS
10
-0.048084
20
-0.009891
30
0.0
11
-0.050502
21
-0.013579
31
0.0
0
LINE
8
0
6
CONTINUOUS
10
-0.013533
20
0.033451
30
0.0
11
-0.014994
21
0.025162
31
0.0
0
LINE
8
0
6
CONTINUOUS
10
-0.006578
20
0.042160
30
0.0
11
-0.009554
21
0.040319
31
0.0
0
LINE
8
0
6
CONTINUOUS
10
-0.011959
20
0.037842
30
0.0
11
-0.012283
21
0.037421
31
0.0
0
LINE
8
0
6
CONTINUOUS
10
-0.014210
20
0.029589
30
0.0
11
-0.015138
21
0.024546
31
0.0
0
LINE
8
0
6
CONTINUOUS
10
-0.015138
20
0.024546
30
0.0
11
-0.016272
21
0.017646
31
0.0
0
LINE
8
0
6
CONTINUOUS
10
-0.016272
20
0.017646
30
0.0
11
-0.017168
21
0.013153
31
0.0
0
LINE
8
0
6
CONTINUOUS
10
-0.017168
20
0.013153
30
0.0
11
-0.018178
21
0.009367
31
0.0
0
LINE
8
0
6
CONTINUOUS
10
-0.020192
20
0.006417
30
0.0
11
-0.023235
21
0.003856
31
0.0
0
LINE
8
0
6
CONTINUOUS
10
-0.023235
20
0.003856
30
0.0
11
-0.027432
21
0.001621
31
0.0
0
LINE
8
0
6
CONTINUOUS
10
-0.054239
20
-0.032413
30
0.0
11
-0.054211
21
-0.032946
31
0.0
0
LINE
8
0
6
CONTINUOUS
10
-0.052827
20
-0.019586
30
0.0
11
-0.054015
21
-0.026346
31
0.0
0
LINE
8
0
6
CONTINUOUS
10
-0.027432
20
0.001621
30
0.0
11
-0.028985
21
0.000773
31
0.0
0
LINE
8
0
6
CONTINUOUS
10
-0.028985
20
0.000773
30
0.0
11
-0.037496
21
-0.002671
31
0.0
0
LINE
8
0
6
CONTINUOUS
10
-0.018178
20
0.009367
30
0.0
11
-0.020192
21
0.006417
31
0.0
0
LINE
8
0
6
CONTINUOUS
10
-0.049007
20
-0.060966
30
0.0
11
-0.045616
21
-0.065677
31
0.0
0
LINE
8
0
6
CONTINUOUS
10
-0.053906
20
-0.039194
30
0.0
11
-0.053321
21
-0.044723
31
0.0
0
LINE
8
0
6
CONTINUOUS
10
-0.054211
20
-0.032946
30
0.0
11
-0.053906
21
-0.039194
31
0.0
0
LINE
8
0
6
CONTINUOUS
10
-0.003139
20
0.043316
30
0.0
11
-0.006578
21
0.042160
31
0.0
0
LINE
8
0
6
CONTINUOUS
10
0.000001
20
0.043709
30
0.0
11
-0.003139
21
0.043316
31
0.0
0
LINE
8
0
6
CONTINUOUS
10
-0.012290
20
0.037387
30
0.0
11
-0.013533
21
0.033451
31
0.0
0
LINE
8
0
6
CONTINUOUS
10
-0.009554
20
0.040319
30
0.0
11
-0.011959
21
0.037842
31
0.0
0
LINE
8
0
6
CONTINUOUS
10
-0.045164
20
-0.007023
30
0.0
11
-0.048084
21
-0.009891
31
0.0
0
LINE
8
0
6
CONTINUOUS
10
-0.037496
20
-0.002671
30
0.0
11
-0.041401
21
-0.004550
31
0.0
0
LINE
8
0
6
CONTINUOUS
10
-0.054015
20
-0.026346
30
0.0
11
-0.054239
21
-0.032413
31
0.0
0
LINE
8
0
6
CONTINUOUS
10
-0.050852
20
-0.056254
30
0.0
11
-0.049007
21
-0.060966
31
0.0
0
LINE
8
0
6
CONTINUOUS
10
-0.051293
20
-0.055067
30
0.0
11
-0.050852
21
-0.056254
31
0.0
0
LINE
8
0
6
CONTINUOUS
10
-0.053321
20
-0.044723
30
0.0
11
-0.052652
21
-0.049793
31
0.0
0
LINE
8
0
6
CONTINUOUS
10
-0.052627
20
-0.049981
30
0.0
11
-0.051293
21
-0.055067
31
0.0
0
LINE
8
0
6
CONTINUOUS
10
-0.052652
20
-0.049793
30
0.0
11
-0.052627
21
-0.049981
31
0.0
0
LINE
8
0
6
CONTINUOUS
10
-0.000001
20
-0.076852
30
0.0
11
0.012751
21
-0.076345
31
0.0
0
LINE
8
0
6
CONTINUOUS
10
0.012751
20
-0.076345
30
0.0
11
0.025501
21
-0.074736
31
0.0
0
LINE
8
0
6
CONTINUOUS
10
0.025501
20
-0.074736
30
0.0
11
0.034448
21
-0.072640
31
0.0
0
LINE
8
0
6
CONTINUOUS
10
0.040484
20
-0.069728
30
0.0
11
0.045615
21
-0.065679
31
0.0
0
LINE
8
0
6
CONTINUOUS
10
0.034448
20
-0.072640
30
0.0
11
0.040484
21
-0.069728
31
0.0
0
LINE
8
0
6
CONTINUOUS
10
0.052827
20
-0.019588
30
0.0
11
0.050502
21
-0.013581
31
0.0
0
LINE
8
0
6
CONTINUOUS
10
0.045165
20
-0.007025
30
0.0
11
0.041402
21
-0.004552
31
0.0
0
LINE
8
0
6
CONTINUOUS
10
0.050502
20
-0.013581
30
0.0
11
0.048084
21
-0.009893
31
0.0
0
LINE
8
0
6
CONTINUOUS
10
0.014995
20
0.025162
30
0.0
11
0.013534
21
0.033451
31
0.0
0
LINE
8
0
6
CONTINUOUS
10
0.009556
20
0.040318
30
0.0
11
0.006580
21
0.042160
31
0.0
0
LINE
8
0
6
CONTINUOUS
10
0.012285
20
0.037421
30
0.0
11
0.011961
21
0.037842
31
0.0
0
LINE
8
0
6
CONTINUOUS
10
0.016273
20
0.017646
30
0.0
11
0.015139
21
0.024546
31
0.0
0
LINE
8
0
6
CONTINUOUS
10
0.017169
20
0.013152
30
0.0
11
0.016273
21
0.017646
31
0.0
0
LINE
8
0
6
CONTINUOUS
10
0.018180
20
0.009366
30
0.0
11
0.017169
21
0.013152
31
0.0
0
LINE
8
0
6
CONTINUOUS
10
0.023236
20
0.003855
30
0.0
11
0.020194
21
0.006416
31
0.0
0
LINE
8
0
6
CONTINUOUS
10
0.027433
20
0.001620
30
0.0
11
0.023236
21
0.003855
31
0.0
0
LINE
8
0
6
CONTINUOUS
10
0.054211
20
-0.032948
30
0.0
11
0.054239
21
-0.032415
31
0.0
0
LINE
8
0
6
CONTINUOUS
10
0.054015
20
-0.026348
30
0.0
11
0.052827
21
-0.019588
31
0.0
0
LINE
8
0
6
CONTINUOUS
10
0.028986
20
0.000772
30
0.0
11
0.027433
21
0.001620
31
0.0
0
LINE
8
0
6
CONTINUOUS
10
0.037496
20
-0.002672
30
0.0
11
0.028986
21
0.000772
31
0.0
0
LINE
8
0
6
CONTINUOUS
10
0.020194
20
0.006416
30
0.0
11
0.018180
21
0.009366
31
0.0
0
LINE
8
0
6
CONTINUOUS
10
0.045615
20
-0.065679
30
0.0
11
0.049006
21
-0.060968
31
0.0
0
LINE
8
0
6
CONTINUOUS
10
0.053906
20
-0.039197
30
0.0
11
0.054211
21
-0.032948
31
0.0
0
LINE
8
0
6
CONTINUOUS
10
0.053321
20
-0.044725
30
0.0
11
0.053906
21
-0.039197
31
0.0
0
LINE
8
0
6
CONTINUOUS
10
0.006580
20
0.042160
30
0.0
11
0.003140
21
0.043316
31
0.0
0
LINE
8
0
6
CONTINUOUS
10
0.003140
20
0.043316
30
0.0
11
0.000001
21
0.043709
31
0.0
0
LINE
8
0
6
CONTINUOUS
10
0.013534
20
0.033451
30
0.0
11
0.012291
21
0.037387
31
0.0
0
LINE
8
0
6
CONTINUOUS
10
0.011961
20
0.037842
30
0.0
11
0.009556
21
0.040318
31
0.0
0
LINE
8
0
6
CONTINUOUS
10
0.048084
20
-0.009893
30
0.0
11
0.045165
21
-0.007025
31
0.0
0
LINE
8
0
6
CONTINUOUS
10
0.041402
20
-0.004552
30
0.0
11
0.037496
21
-0.002672
31
0.0
0
LINE
8
0
6
CONTINUOUS
10
0.054239
20
-0.032415
30
0.0
11
0.054015
21
-0.026348
31
0.0
0
LINE
8
0
6
CONTINUOUS
10
0.050851
20
-0.056256
30
0.0
11
0.051293
21
-0.055070
31
0.0
0
LINE
8
0
6
CONTINUOUS
10
0.049006
20
-0.060968
30
0.0
11
0.050851
21
-0.056256
31
0.0
0
LINE
8
0
6
CONTINUOUS
10
0.052651
20
-0.049796
30
0.0
11
0.053321
21
-0.044725
31
0.0
0
LINE
8
0
6
CONTINUOUS
10
0.052627
20
-0.049983
30
0.0
11
0.052651
21
-0.049796
31
0.0
0
LINE
8
0
6
CONTINUOUS
10
0.051293
20
-0.055070
30
0.0
11
0.052627
21
-0.049983
31
0.0
0
LINE
8
0
6
CONTINUOUS
10
-0.009853
20
0.042031
30
0.0
11
-0.010463
21
0.039384
31
0.0
0
LINE
8
0
6
CONTINUOUS
10
0.010464
20
0.039383
30
0.0
11
0.009854
21
0.042031
31
0.0
0
ENDSEC
0
EOF
