999
unknown String-ID: 20550
0
SECTION
2
HEADER
9
$ACADVER
1
AC1009
9
$DWGCODEPAGE
3
unknown String-ID: 20561
0
ENDSEC
0
SECTION
2
TABLES
0
TABLE
2
LAYER
70
1
0
LAYER
2
0
70
0
62
7
6
CONTINUOUS
0
ENDTAB
0
ENDSEC
0
SECTION
2
ENTITIES
0
LINE
8
0
6
CONTINUOUS
10
-0.001190
20
-0.218688
30
0.0
11
0.003476
21
-0.218566
31
0.0
0
LINE
8
0
6
CONTINUOUS
10
0.003476
20
-0.218566
30
0.0
11
0.005410
21
-0.218271
31
0.0
0
LINE
8
0
6
CONTINUOUS
10
0.005412
20
-0.196874
30
0.0
11
0.005410
21
-0.218271
31
0.0
0
LINE
8
0
6
CONTINUOUS
10
-0.007790
20
-0.218271
30
0.0
11
-0.005857
21
-0.218566
31
0.0
0
LINE
8
0
6
CONTINUOUS
10
-0.007788
20
-0.196869
30
0.0
11
-0.007790
21
-0.218271
31
0.0
0
LINE
8
0
6
CONTINUOUS
10
-0.005857
20
-0.218566
30
0.0
11
-0.001190
21
-0.218688
31
0.0
0
LINE
8
0
6
CONTINUOUS
10
0.005427
20
-0.174533
30
0.0
11
0.005412
21
-0.196874
31
0.0
0
LINE
8
0
6
CONTINUOUS
10
-0.007773
20
-0.174516
30
0.0
11
-0.007788
21
-0.196869
31
0.0
0
LINE
8
0
6
CONTINUOUS
10
0.005469
20
-0.151282
30
0.0
11
0.005427
21
-0.174533
31
0.0
0
LINE
8
0
6
CONTINUOUS
10
-0.007731
20
-0.151248
30
0.0
11
-0.007773
21
-0.174516
31
0.0
0
LINE
8
0
6
CONTINUOUS
10
0.005551
20
-0.127160
30
0.0
11
0.005469
21
-0.151282
31
0.0
0
LINE
8
0
6
CONTINUOUS
10
-0.007649
20
-0.127102
30
0.0
11
-0.007731
21
-0.151248
31
0.0
0
LINE
8
0
6
CONTINUOUS
10
0.005685
20
-0.102202
30
0.0
11
0.005551
21
-0.127160
31
0.0
0
LINE
8
0
6
CONTINUOUS
10
-0.007515
20
-0.102116
30
0.0
11
-0.007649
21
-0.127102
31
0.0
0
LINE
8
0
6
CONTINUOUS
10
0.005885
20
-0.076444
30
0.0
11
0.005685
21
-0.102202
31
0.0
0
LINE
8
0
6
CONTINUOUS
10
-0.007314
20
-0.076325
30
0.0
11
-0.007515
21
-0.102116
31
0.0
0
LINE
8
0
6
CONTINUOUS
10
0.006165
20
-0.049923
30
0.0
11
0.005885
21
-0.076444
31
0.0
0
LINE
8
0
6
CONTINUOUS
10
-0.007034
20
-0.049768
30
0.0
11
-0.007314
21
-0.076325
31
0.0
0
LINE
8
0
6
CONTINUOUS
10
0.006493
20
-0.025922
30
0.0
11
0.006165
21
-0.049923
31
0.0
0
LINE
8
0
6
CONTINUOUS
10
-0.006708
20
-0.025882
30
0.0
11
-0.007034
21
-0.049768
31
0.0
0
LINE
8
0
6
CONTINUOUS
10
0.014692
20
-0.002939
30
0.0
11
0.014692
21
0.005741
31
0.0
0
LINE
8
0
6
CONTINUOUS
10
0.014132
20
0.005934
30
0.0
11
0.012192
21
0.005927
31
0.0
0
LINE
8
0
6
CONTINUOUS
10
0.009108
20
-0.051858
30
0.0
11
0.010926
21
-0.052041
31
0.0
0
LINE
8
0
6
CONTINUOUS
10
0.009148
20
-0.005406
30
0.0
11
0.008975
21
-0.005448
31
0.0
0
LINE
8
0
6
CONTINUOUS
10
0.010205
20
-0.005149
30
0.0
11
0.009148
21
-0.005406
31
0.0
0
LINE
8
0
6
CONTINUOUS
10
0.011196
20
-0.052068
30
0.0
11
0.011360
21
-0.052028
31
0.0
0
LINE
8
0
6
CONTINUOUS
10
0.014692
20
-0.003361
30
0.0
11
0.014692
21
-0.002939
31
0.0
0
LINE
8
0
6
CONTINUOUS
10
0.011005
20
-0.004785
30
0.0
11
0.010205
21
-0.005149
31
0.0
0
LINE
8
0
6
CONTINUOUS
10
0.010926
20
-0.052041
30
0.0
11
0.011196
21
-0.052068
31
0.0
0
LINE
8
0
6
CONTINUOUS
10
0.011454
20
-0.004396
30
0.0
11
0.011005
21
-0.004785
31
0.0
0
LINE
8
0
6
CONTINUOUS
10
0.014698
20
-0.003783
30
0.0
11
0.014692
21
-0.003361
31
0.0
0
LINE
8
0
6
CONTINUOUS
10
0.011578
20
-0.003992
30
0.0
11
0.011454
21
-0.004396
31
0.0
0
LINE
8
0
6
CONTINUOUS
10
0.014381
20
-0.050729
30
0.0
11
0.014679
21
-0.050355
31
0.0
0
LINE
8
0
6
CONTINUOUS
10
0.013898
20
-0.051096
30
0.0
11
0.014381
21
-0.050729
31
0.0
0
LINE
8
0
6
CONTINUOUS
10
0.014692
20
-0.049975
30
0.0
11
0.014692
21
-0.048949
31
0.0
0
LINE
8
0
6
CONTINUOUS
10
0.014679
20
-0.050355
30
0.0
11
0.014692
21
-0.049975
31
0.0
0
LINE
8
0
6
CONTINUOUS
10
0.011360
20
-0.052028
30
0.0
11
0.012366
21
-0.051780
31
0.0
0
LINE
8
0
6
CONTINUOUS
10
0.012366
20
-0.051780
30
0.0
11
0.013244
21
-0.051450
31
0.0
0
LINE
8
0
6
CONTINUOUS
10
0.008864
20
-0.051833
30
0.0
11
0.009108
21
-0.051858
31
0.0
0
LINE
8
0
6
CONTINUOUS
10
0.008867
20
-0.050812
30
0.0
11
0.008864
21
-0.051833
31
0.0
0
LINE
8
0
6
CONTINUOUS
10
0.014692
20
-0.048949
30
0.0
11
0.014692
21
-0.004238
31
0.0
0
LINE
8
0
6
CONTINUOUS
10
0.008973
20
-0.006321
30
0.0
11
0.008867
21
-0.050812
31
0.0
0
LINE
8
0
6
CONTINUOUS
10
0.014698
20
-0.004659
30
0.0
11
0.014698
21
-0.003783
31
0.0
0
LINE
8
0
6
CONTINUOUS
10
0.007869
20
-0.048426
30
0.0
11
0.008872
21
-0.048704
31
0.0
0
LINE
8
0
6
CONTINUOUS
10
0.013244
20
-0.051450
30
0.0
11
0.013898
21
-0.051096
31
0.0
0
LINE
8
0
6
CONTINUOUS
10
0.008975
20
-0.005448
30
0.0
11
0.008973
21
-0.006321
31
0.0
0
LINE
8
0
6
CONTINUOUS
10
0.014692
20
0.005937
30
0.0
11
0.014132
21
0.005934
31
0.0
0
LINE
8
0
6
CONTINUOUS
10
0.014692
20
0.005741
30
0.0
11
0.014692
21
0.005937
31
0.0
0
LINE
8
0
6
CONTINUOUS
10
0.006189
20
-0.048158
30
0.0
11
0.007869
21
-0.048426
31
0.0
0
LINE
8
0
6
CONTINUOUS
10
-0.015308
20
0.005741
30
0.0
11
-0.015308
21
-0.002939
31
0.0
0
LINE
8
0
6
CONTINUOUS
10
-0.012808
20
0.005927
30
0.0
11
-0.014749
21
0.005934
31
0.0
0
LINE
8
0
6
CONTINUOUS
10
-0.011543
20
-0.052041
30
0.0
11
-0.009725
21
-0.051858
31
0.0
0
LINE
8
0
6
CONTINUOUS
10
-0.009592
20
-0.005448
30
0.0
11
-0.009765
21
-0.005406
31
0.0
0
LINE
8
0
6
CONTINUOUS
10
-0.009765
20
-0.005406
30
0.0
11
-0.010821
21
-0.005149
31
0.0
0
LINE
8
0
6
CONTINUOUS
10
-0.011977
20
-0.052028
30
0.0
11
-0.011812
21
-0.052068
31
0.0
0
LINE
8
0
6
CONTINUOUS
10
-0.015308
20
-0.002939
30
0.0
11
-0.015308
21
-0.003361
31
0.0
0
LINE
8
0
6
CONTINUOUS
10
-0.010821
20
-0.005149
30
0.0
11
-0.011622
21
-0.004785
31
0.0
0
LINE
8
0
6
CONTINUOUS
10
-0.011812
20
-0.052068
30
0.0
11
-0.011543
21
-0.052041
31
0.0
0
LINE
8
0
6
CONTINUOUS
10
-0.011622
20
-0.004785
30
0.0
11
-0.012071
21
-0.004396
31
0.0
0
LINE
8
0
6
CONTINUOUS
10
-0.015308
20
-0.003361
30
0.0
11
-0.015315
21
-0.003783
31
0.0
0
LINE
8
0
6
CONTINUOUS
10
-0.012071
20
-0.004396
30
0.0
11
-0.012195
21
-0.003992
31
0.0
0
LINE
8
0
6
CONTINUOUS
10
-0.015296
20
-0.050355
30
0.0
11
-0.014998
21
-0.050729
31
0.0
0
LINE
8
0
6
CONTINUOUS
10
-0.014998
20
-0.050729
30
0.0
11
-0.014515
21
-0.051096
31
0.0
0
LINE
8
0
6
CONTINUOUS
10
-0.015308
20
-0.049975
30
0.0
11
-0.015296
21
-0.050355
31
0.0
0
LINE
8
0
6
CONTINUOUS
10
-0.015308
20
-0.048949
30
0.0
11
-0.015308
21
-0.049975
31
0.0
0
LINE
8
0
6
CONTINUOUS
10
-0.012983
20
-0.051780
30
0.0
11
-0.011977
21
-0.052028
31
0.0
0
LINE
8
0
6
CONTINUOUS
10
-0.013861
20
-0.051450
30
0.0
11
-0.012983
21
-0.051780
31
0.0
0
LINE
8
0
6
CONTINUOUS
10
-0.009481
20
-0.051833
30
0.0
11
-0.009484
21
-0.050812
31
0.0
0
LINE
8
0
6
CONTINUOUS
10
-0.009725
20
-0.051858
30
0.0
11
-0.009481
21
-0.051833
31
0.0
0
LINE
8
0
6
CONTINUOUS
10
-0.015308
20
-0.004238
30
0.0
11
-0.015308
21
-0.048949
31
0.0
0
LINE
8
0
6
CONTINUOUS
10
-0.009484
20
-0.050812
30
0.0
11
-0.009590
21
-0.006321
31
0.0
0
LINE
8
0
6
CONTINUOUS
10
-0.015315
20
-0.003783
30
0.0
11
-0.015315
21
-0.004659
31
0.0
0
LINE
8
0
6
CONTINUOUS
10
-0.009489
20
-0.048704
30
0.0
11
-0.008486
21
-0.048426
31
0.0
0
LINE
8
0
6
CONTINUOUS
10
-0.014515
20
-0.051096
30
0.0
11
-0.013861
21
-0.051450
31
0.0
0
LINE
8
0
6
CONTINUOUS
10
-0.009590
20
-0.006321
30
0.0
11
-0.009592
21
-0.005448
31
0.0
0
LINE
8
0
6
CONTINUOUS
10
-0.015308
20
0.005937
30
0.0
11
-0.015308
21
0.005741
31
0.0
0
LINE
8
0
6
CONTINUOUS
10
-0.014749
20
0.005934
30
0.0
11
-0.015308
21
0.005937
31
0.0
0
LINE
8
0
6
CONTINUOUS
10
-0.008486
20
-0.048426
30
0.0
11
-0.007012
21
-0.048191
31
0.0
0
LINE
8
0
6
CONTINUOUS
10
-0.000000
20
0.137089
30
0.0
11
-0.004274
21
0.137313
31
0.0
0
LINE
8
0
6
CONTINUOUS
10
-0.004274
20
0.137313
30
0.0
11
-0.008373
21
0.137966
31
0.0
0
LINE
8
0
6
CONTINUOUS
10
-0.008373
20
0.137966
30
0.0
11
-0.012261
21
0.139018
31
0.0
0
LINE
8
0
6
CONTINUOUS
10
-0.016481
20
0.140563
30
0.0
11
-0.012710
21
0.139089
31
0.0
0
LINE
8
0
6
CONTINUOUS
10
-0.012261
20
0.139018
30
0.0
11
-0.015899
21
0.140440
31
0.0
0
LINE
8
0
6
CONTINUOUS
10
-0.019954
20
0.142391
30
0.0
11
-0.016481
21
0.140563
31
0.0
0
LINE
8
0
6
CONTINUOUS
10
-0.015899
20
0.140440
30
0.0
11
-0.019249
21
0.142204
31
0.0
0
LINE
8
0
6
CONTINUOUS
10
-0.023091
20
0.144542
30
0.0
11
-0.019954
21
0.142391
31
0.0
0
LINE
8
0
6
CONTINUOUS
10
-0.019249
20
0.142204
30
0.0
11
-0.022275
21
0.144279
31
0.0
0
LINE
8
0
6
CONTINUOUS
10
-0.025851
20
0.146985
30
0.0
11
-0.023091
21
0.144542
31
0.0
0
LINE
8
0
6
CONTINUOUS
10
-0.022275
20
0.144279
30
0.0
11
-0.024939
21
0.146636
31
0.0
0
LINE
8
0
6
CONTINUOUS
10
-0.028197
20
0.149690
30
0.0
11
-0.025851
21
0.146985
31
0.0
0
LINE
8
0
6
CONTINUOUS
10
-0.024939
20
0.146636
30
0.0
11
-0.027202
21
0.149246
31
0.0
0
LINE
8
0
6
CONTINUOUS
10
-0.030090
20
0.152628
30
0.0
11
-0.028197
21
0.149690
31
0.0
0
LINE
8
0
6
CONTINUOUS
10
-0.027202
20
0.149246
30
0.0
11
-0.029028
21
0.152080
31
0.0
0
LINE
8
0
6
CONTINUOUS
10
-0.031491
20
0.155768
30
0.0
11
-0.030090
21
0.152628
31
0.0
0
LINE
8
0
6
CONTINUOUS
10
-0.029028
20
0.152080
30
0.0
11
-0.030379
21
0.155108
31
0.0
0
LINE
8
0
6
CONTINUOUS
10
-0.032360
20
0.159079
30
0.0
11
-0.031491
21
0.155768
31
0.0
0
LINE
8
0
6
CONTINUOUS
10
-0.030379
20
0.155108
30
0.0
11
-0.031217
21
0.158302
31
0.0
0
LINE
8
0
6
CONTINUOUS
10
-0.032658
20
0.162529
30
0.0
11
-0.032360
21
0.159079
31
0.0
0
LINE
8
0
6
CONTINUOUS
10
-0.031217
20
0.158302
30
0.0
11
-0.031505
21
0.161631
31
0.0
0
LINE
8
0
6
CONTINUOUS
10
-0.032360
20
0.165979
30
0.0
11
-0.032658
21
0.162529
31
0.0
0
LINE
8
0
6
CONTINUOUS
10
-0.031505
20
0.161631
30
0.0
11
-0.031217
21
0.164960
31
0.0
0
LINE
8
0
6
CONTINUOUS
10
-0.031491
20
0.169290
30
0.0
11
-0.032360
21
0.165979
31
0.0
0
LINE
8
0
6
CONTINUOUS
10
-0.031217
20
0.164960
30
0.0
11
-0.030379
21
0.168154
31
0.0
0
LINE
8
0
6
CONTINUOUS
10
-0.030091
20
0.172430
30
0.0
11
-0.031491
21
0.169290
31
0.0
0
LINE
8
0
6
CONTINUOUS
10
-0.030379
20
0.168154
30
0.0
11
-0.029028
21
0.171182
31
0.0
0
LINE
8
0
6
CONTINUOUS
10
-0.028198
20
0.175368
30
0.0
11
-0.030091
21
0.172430
31
0.0
0
LINE
8
0
6
CONTINUOUS
10
-0.029028
20
0.171182
30
0.0
11
-0.027202
21
0.174016
31
0.0
0
LINE
8
0
6
CONTINUOUS
10
-0.025852
20
0.178074
30
0.0
11
-0.028198
21
0.175368
31
0.0
0
LINE
8
0
6
CONTINUOUS
10
-0.027202
20
0.174016
30
0.0
11
-0.024939
21
0.176626
31
0.0
0
LINE
8
0
6
CONTINUOUS
10
-0.023091
20
0.180517
30
0.0
11
-0.025852
21
0.178074
31
0.0
0
LINE
8
0
6
CONTINUOUS
10
-0.024939
20
0.176626
30
0.0
11
-0.022276
21
0.178983
31
0.0
0
LINE
8
0
6
CONTINUOUS
10
-0.019955
20
0.182667
30
0.0
11
-0.023091
21
0.180517
31
0.0
0
LINE
8
0
6
CONTINUOUS
10
-0.022276
20
0.178983
30
0.0
11
-0.019250
21
0.181058
31
0.0
0
LINE
8
0
6
CONTINUOUS
10
-0.016482
20
0.184495
30
0.0
11
-0.019955
21
0.182667
31
0.0
0
LINE
8
0
6
CONTINUOUS
10
-0.019250
20
0.181058
30
0.0
11
-0.015899
21
0.182821
31
0.0
0
LINE
8
0
6
CONTINUOUS
10
-0.012710
20
0.185970
30
0.0
11
-0.016482
21
0.184495
31
0.0
0
LINE
8
0
6
CONTINUOUS
10
-0.015899
20
0.182821
30
0.0
11
-0.012261
21
0.184244
31
0.0
0
LINE
8
0
6
CONTINUOUS
10
-0.008680
20
0.187061
30
0.0
11
-0.012710
21
0.185970
31
0.0
0
LINE
8
0
6
CONTINUOUS
10
-0.012261
20
0.184244
30
0.0
11
-0.008374
21
0.185296
31
0.0
0
LINE
8
0
6
CONTINUOUS
10
-0.004429
20
0.187738
30
0.0
11
-0.008680
21
0.187061
31
0.0
0
LINE
8
0
6
CONTINUOUS
10
-0.008374
20
0.185296
30
0.0
11
-0.004275
21
0.185949
31
0.0
0
LINE
8
0
6
CONTINUOUS
10
-0.000001
20
0.187970
30
0.0
11
-0.004429
21
0.187738
31
0.0
0
LINE
8
0
6
CONTINUOUS
10
-0.004275
20
0.185949
30
0.0
11
-0.000001
21
0.186173
31
0.0
0
LINE
8
0
6
CONTINUOUS
10
0.004428
20
0.187738
30
0.0
11
-0.000001
21
0.187970
31
0.0
0
LINE
8
0
6
CONTINUOUS
10
-0.000001
20
0.186173
30
0.0
11
0.004273
21
0.185949
31
0.0
0
LINE
8
0
6
CONTINUOUS
10
0.008678
20
0.187061
30
0.0
11
0.004428
21
0.187738
31
0.0
0
LINE
8
0
6
CONTINUOUS
10
0.004273
20
0.185949
30
0.0
11
0.008373
21
0.185296
31
0.0
0
LINE
8
0
6
CONTINUOUS
10
0.012709
20
0.185970
30
0.0
11
0.008678
21
0.187061
31
0.0
0
LINE
8
0
6
CONTINUOUS
10
0.008373
20
0.185296
30
0.0
11
0.012260
21
0.184244
31
0.0
0
LINE
8
0
6
CONTINUOUS
10
0.016480
20
0.184495
30
0.0
11
0.012709
21
0.185970
31
0.0
0
LINE
8
0
6
CONTINUOUS
10
0.012260
20
0.184244
30
0.0
11
0.015898
21
0.182821
31
0.0
0
LINE
8
0
6
CONTINUOUS
10
0.019954
20
0.182667
30
0.0
11
0.016480
21
0.184495
31
0.0
0
LINE
8
0
6
CONTINUOUS
10
0.015898
20
0.182821
30
0.0
11
0.019249
21
0.181058
31
0.0
0
LINE
8
0
6
CONTINUOUS
10
0.023090
20
0.180517
30
0.0
11
0.019954
21
0.182667
31
0.0
0
LINE
8
0
6
CONTINUOUS
10
0.019249
20
0.181058
30
0.0
11
0.022274
21
0.178983
31
0.0
0
LINE
8
0
6
CONTINUOUS
10
0.025850
20
0.178074
30
0.0
11
0.023090
21
0.180517
31
0.0
0
LINE
8
0
6
CONTINUOUS
10
0.022274
20
0.178983
30
0.0
11
0.024938
21
0.176626
31
0.0
0
LINE
8
0
6
CONTINUOUS
10
0.028197
20
0.175368
30
0.0
11
0.025850
21
0.178074
31
0.0
0
LINE
8
0
6
CONTINUOUS
10
0.024938
20
0.176626
30
0.0
11
0.027201
21
0.174016
31
0.0
0
LINE
8
0
6
CONTINUOUS
10
0.030090
20
0.172430
30
0.0
11
0.028197
21
0.175368
31
0.0
0
LINE
8
0
6
CONTINUOUS
10
0.027201
20
0.174016
30
0.0
11
0.029027
21
0.171182
31
0.0
0
LINE
8
0
6
CONTINUOUS
10
0.031490
20
0.169290
30
0.0
11
0.030090
21
0.172430
31
0.0
0
LINE
8
0
6
CONTINUOUS
10
0.029027
20
0.171182
30
0.0
11
0.030378
21
0.168154
31
0.0
0
LINE
8
0
6
CONTINUOUS
10
0.032359
20
0.165979
30
0.0
11
0.031490
21
0.169290
31
0.0
0
LINE
8
0
6
CONTINUOUS
10
0.030378
20
0.168154
30
0.0
11
0.031216
21
0.164960
31
0.0
0
LINE
8
0
6
CONTINUOUS
10
0.032657
20
0.162529
30
0.0
11
0.032359
21
0.165979
31
0.0
0
LINE
8
0
6
CONTINUOUS
10
0.031216
20
0.164960
30
0.0
11
0.031504
21
0.161631
31
0.0
0
LINE
8
0
6
CONTINUOUS
10
0.032359
20
0.159079
30
0.0
11
0.032657
21
0.162529
31
0.0
0
LINE
8
0
6
CONTINUOUS
10
0.031504
20
0.161631
30
0.0
11
0.031216
21
0.158301
31
0.0
0
LINE
8
0
6
CONTINUOUS
10
0.031490
20
0.155768
30
0.0
11
0.032359
21
0.159079
31
0.0
0
LINE
8
0
6
CONTINUOUS
10
0.031216
20
0.158301
30
0.0
11
0.030378
21
0.155108
31
0.0
0
LINE
8
0
6
CONTINUOUS
10
0.030090
20
0.152628
30
0.0
11
0.031490
21
0.155768
31
0.0
0
LINE
8
0
6
CONTINUOUS
10
0.030378
20
0.155108
30
0.0
11
0.029028
21
0.152080
31
0.0
0
LINE
8
0
6
CONTINUOUS
10
0.028197
20
0.149690
30
0.0
11
0.030090
21
0.152628
31
0.0
0
LINE
8
0
6
CONTINUOUS
10
0.029028
20
0.152080
30
0.0
11
0.027202
21
0.149246
31
0.0
0
LINE
8
0
6
CONTINUOUS
10
0.025851
20
0.146985
30
0.0
11
0.028197
21
0.149690
31
0.0
0
LINE
8
0
6
CONTINUOUS
10
0.027202
20
0.149246
30
0.0
11
0.024938
21
0.146636
31
0.0
0
LINE
8
0
6
CONTINUOUS
10
0.023090
20
0.144541
30
0.0
11
0.025851
21
0.146985
31
0.0
0
LINE
8
0
6
CONTINUOUS
10
0.024938
20
0.146636
30
0.0
11
0.022275
21
0.144278
31
0.0
0
LINE
8
0
6
CONTINUOUS
10
0.019954
20
0.142391
30
0.0
11
0.023090
21
0.144541
31
0.0
0
LINE
8
0
6
CONTINUOUS
10
0.022275
20
0.144278
30
0.0
11
0.019249
21
0.142204
31
0.0
0
LINE
8
0
6
CONTINUOUS
10
0.016481
20
0.140563
30
0.0
11
0.019954
21
0.142391
31
0.0
0
LINE
8
0
6
CONTINUOUS
10
0.019249
20
0.142204
30
0.0
11
0.015898
21
0.140440
31
0.0
0
LINE
8
0
6
CONTINUOUS
10
0.012710
20
0.139089
30
0.0
11
0.016481
21
0.140563
31
0.0
0
LINE
8
0
6
CONTINUOUS
10
0.015898
20
0.140440
30
0.0
11
0.012261
21
0.139018
31
0.0
0
LINE
8
0
6
CONTINUOUS
10
0.012261
20
0.139018
30
0.0
11
0.008373
21
0.137966
31
0.0
0
LINE
8
0
6
CONTINUOUS
10
0.008373
20
0.137966
30
0.0
11
0.004274
21
0.137313
31
0.0
0
LINE
8
0
6
CONTINUOUS
10
0.004274
20
0.137313
30
0.0
11
-0.000000
21
0.137089
31
0.0
0
LINE
8
0
6
CONTINUOUS
10
0.045455
20
0.158836
30
0.0
11
0.045746
21
0.157582
31
0.0
0
LINE
8
0
6
CONTINUOUS
10
0.004688
20
0.147195
30
0.0
11
0.004979
21
0.148449
31
0.0
0
LINE
8
0
6
CONTINUOUS
10
0.004688
20
0.147938
30
0.0
11
0.004688
21
0.147195
31
0.0
0
LINE
8
0
6
CONTINUOUS
10
0.004979
20
0.148449
30
0.0
11
0.006527
21
0.148881
31
0.0
0
LINE
8
0
6
CONTINUOUS
10
0.027325
20
0.137167
30
0.0
11
0.028582
21
0.137989
31
0.0
0
LINE
8
0
6
CONTINUOUS
10
0.027325
20
0.137705
30
0.0
11
0.027325
21
0.137167
31
0.0
0
LINE
8
0
6
CONTINUOUS
10
0.019280
20
0.140177
30
0.0
11
0.020537
21
0.140999
31
0.0
0
LINE
8
0
6
CONTINUOUS
10
0.019280
20
0.140763
30
0.0
11
0.019280
21
0.140177
31
0.0
0
LINE
8
0
6
CONTINUOUS
10
0.022929
20
0.152128
30
0.0
11
0.024478
21
0.151696
31
0.0
0
LINE
8
0
6
CONTINUOUS
10
0.024478
20
0.151696
30
0.0
11
0.024769
21
0.150443
31
0.0
0
LINE
8
0
6
CONTINUOUS
10
0.025371
20
0.160988
30
0.0
11
0.025663
21
0.162242
31
0.0
0
LINE
8
0
6
CONTINUOUS
10
0.025372
20
0.161776
30
0.0
11
0.025371
21
0.160988
31
0.0
0
LINE
8
0
6
CONTINUOUS
10
0.013201
20
0.171561
30
0.0
11
0.013201
21
0.172451
31
0.0
0
LINE
8
0
6
CONTINUOUS
10
0.012765
20
0.172790
30
0.0
11
0.013201
21
0.171561
31
0.0
0
LINE
8
0
6
CONTINUOUS
10
0.016366
20
0.163735
30
0.0
11
0.017743
21
0.164433
31
0.0
0
LINE
8
0
6
CONTINUOUS
10
0.016366
20
0.164523
30
0.0
11
0.016366
21
0.163735
31
0.0
0
LINE
8
0
6
CONTINUOUS
10
0.017743
20
0.164433
30
0.0
11
0.019212
21
0.163858
31
0.0
0
LINE
8
0
6
CONTINUOUS
10
0.006356
20
0.164461
30
0.0
11
0.007733
21
0.165159
31
0.0
0
LINE
8
0
6
CONTINUOUS
10
0.006356
20
0.165279
30
0.0
11
0.006356
21
0.164461
31
0.0
0
LINE
8
0
6
CONTINUOUS
10
0.042479
20
0.169566
30
0.0
11
0.042770
21
0.170820
31
0.0
0
LINE
8
0
6
CONTINUOUS
10
0.042479
20
0.170158
30
0.0
11
0.042479
21
0.169566
31
0.0
0
LINE
8
0
6
CONTINUOUS
10
0.042770
20
0.170820
30
0.0
11
0.044318
21
0.171251
31
0.0
0
LINE
8
0
6
CONTINUOUS
10
0.045576
20
0.170429
30
0.0
11
0.045576
21
0.171508
31
0.0
0
LINE
8
0
6
CONTINUOUS
10
0.044318
20
0.171251
30
0.0
11
0.045576
21
0.170429
31
0.0
0
LINE
8
0
6
CONTINUOUS
10
0.016736
20
0.196817
30
0.0
11
0.016736
21
0.197805
31
0.0
0
LINE
8
0
6
CONTINUOUS
10
0.015685
20
0.197798
30
0.0
11
0.016736
21
0.196817
31
0.0
0
LINE
8
0
6
CONTINUOUS
10
-0.042972
20
0.170958
30
0.0
11
-0.042680
21
0.169705
31
0.0
0
LINE
8
0
6
CONTINUOUS
10
-0.044520
20
0.171390
30
0.0
11
-0.042972
21
0.170958
31
0.0
0
LINE
8
0
6
CONTINUOUS
10
-0.045777
20
0.170568
30
0.0
11
-0.044520
21
0.171390
31
0.0
0
LINE
8
0
6
CONTINUOUS
10
-0.045777
20
0.171539
30
0.0
11
-0.045777
21
0.170568
31
0.0
0
LINE
8
0
6
CONTINUOUS
10
-0.009496
20
0.163336
30
0.0
11
-0.009404
21
0.164608
31
0.0
0
LINE
8
0
6
CONTINUOUS
10
-0.009496
20
0.164205
30
0.0
11
-0.009496
21
0.163336
31
0.0
0
LINE
8
0
6
CONTINUOUS
10
-0.009404
20
0.164608
30
0.0
11
-0.007935
21
0.165182
31
0.0
0
LINE
8
0
6
CONTINUOUS
10
-0.019506
20
0.162647
30
0.0
11
-0.019414
21
0.163919
31
0.0
0
LINE
8
0
6
CONTINUOUS
10
-0.019506
20
0.163630
30
0.0
11
-0.019506
21
0.162647
31
0.0
0
LINE
8
0
6
CONTINUOUS
10
-0.019414
20
0.163919
30
0.0
11
-0.017945
21
0.164493
31
0.0
0
LINE
8
0
6
CONTINUOUS
10
-0.024922
20
0.171805
30
0.0
11
-0.024830
21
0.173077
31
0.0
0
LINE
8
0
6
CONTINUOUS
10
-0.024922
20
0.172778
30
0.0
11
-0.024922
21
0.171805
31
0.0
0
LINE
8
0
6
CONTINUOUS
10
-0.023360
20
0.173651
30
0.0
11
-0.021983
21
0.172953
31
0.0
0
LINE
8
0
6
CONTINUOUS
10
-0.024830
20
0.173077
30
0.0
11
-0.023360
21
0.173651
31
0.0
0
LINE
8
0
6
CONTINUOUS
10
0.000468
20
0.168732
30
0.0
11
0.001625
21
0.167826
31
0.0
0
LINE
8
0
6
CONTINUOUS
10
-0.001124
20
0.168410
30
0.0
11
0.000468
21
0.168732
31
0.0
0
LINE
8
0
6
CONTINUOUS
10
-0.013403
20
0.171590
30
0.0
11
-0.012967
21
0.172818
31
0.0
0
LINE
8
0
6
CONTINUOUS
10
-0.013403
20
0.172456
30
0.0
11
-0.013403
21
0.171590
31
0.0
0
LINE
8
0
6
CONTINUOUS
10
-0.013880
20
0.189299
30
0.0
11
-0.012996
21
0.188224
31
0.0
0
LINE
8
0
6
CONTINUOUS
10
-0.000994
20
0.183719
30
0.0
11
0.000629
21
0.183505
31
0.0
0
LINE
8
0
6
CONTINUOUS
10
-0.034671
20
0.160301
30
0.0
11
-0.034380
21
0.159047
31
0.0
0
LINE
8
0
6
CONTINUOUS
10
-0.036220
20
0.160733
30
0.0
11
-0.034671
21
0.160301
31
0.0
0
LINE
8
0
6
CONTINUOUS
10
-0.037477
20
0.159911
30
0.0
11
-0.036220
21
0.160733
31
0.0
0
LINE
8
0
6
CONTINUOUS
10
-0.037477
20
0.160932
30
0.0
11
-0.037477
21
0.159911
31
0.0
0
LINE
8
0
6
CONTINUOUS
10
-0.014044
20
0.131374
30
0.0
11
-0.013753
21
0.130120
31
0.0
0
LINE
8
0
6
CONTINUOUS
10
-0.015593
20
0.131806
30
0.0
11
-0.014044
21
0.131374
31
0.0
0
LINE
8
0
6
CONTINUOUS
10
0.001045
20
0.129507
30
0.0
11
0.001337
21
0.128253
31
0.0
0
LINE
8
0
6
CONTINUOUS
10
-0.000503
20
0.129939
30
0.0
11
0.001045
21
0.129507
31
0.0
0
LINE
8
0
6
CONTINUOUS
10
-0.029748
20
0.149192
30
0.0
11
-0.029748
21
0.149760
31
0.0
0
LINE
8
0
6
CONTINUOUS
10
-0.031005
20
0.150014
30
0.0
11
-0.029748
21
0.149192
31
0.0
0
LINE
8
0
6
CONTINUOUS
10
-0.032554
20
0.149583
30
0.0
11
-0.031005
21
0.150014
31
0.0
0
LINE
8
0
6
CONTINUOUS
10
-0.019481
20
0.140113
30
0.0
11
-0.019481
21
0.140779
31
0.0
0
LINE
8
0
6
CONTINUOUS
10
-0.020738
20
0.140935
30
0.0
11
-0.019481
21
0.140113
31
0.0
0
LINE
8
0
6
CONTINUOUS
10
-0.022287
20
0.140503
30
0.0
11
-0.020738
21
0.140935
31
0.0
0
LINE
8
0
6
CONTINUOUS
10
-0.006243
20
0.135641
30
0.0
11
-0.005952
21
0.134387
31
0.0
0
LINE
8
0
6
CONTINUOUS
10
-0.007792
20
0.136072
30
0.0
11
-0.006243
21
0.135641
31
0.0
0
LINE
8
0
6
CONTINUOUS
10
0.001543
20
0.174971
30
0.0
11
0.001543
21
0.175874
31
0.0
0
LINE
8
0
6
CONTINUOUS
10
0.000783
20
0.176101
30
0.0
11
0.001543
21
0.174971
31
0.0
0
LINE
8
0
6
CONTINUOUS
10
-0.008095
20
0.153104
30
0.0
11
-0.007570
21
0.152830
31
0.0
0
LINE
8
0
6
CONTINUOUS
10
-0.007570
20
0.152830
30
0.0
11
-0.008760
21
0.153637
31
0.0
0
LINE
8
0
6
CONTINUOUS
10
-0.010532
20
0.154973
30
0.0
11
-0.009407
21
0.153988
31
0.0
0
LINE
8
0
6
CONTINUOUS
10
-0.008760
20
0.153637
30
0.0
11
-0.009807
21
0.154554
31
0.0
0
LINE
8
0
6
CONTINUOUS
10
-0.011488
20
0.156063
30
0.0
11
-0.010532
21
0.154973
31
0.0
0
LINE
8
0
6
CONTINUOUS
10
-0.009807
20
0.154554
30
0.0
11
-0.010697
21
0.155569
31
0.0
0
LINE
8
0
6
CONTINUOUS
10
-0.012259
20
0.157247
30
0.0
11
-0.011488
21
0.156063
31
0.0
0
LINE
8
0
6
CONTINUOUS
10
-0.010697
20
0.155569
30
0.0
11
-0.011415
21
0.156671
31
0.0
0
LINE
8
0
6
CONTINUOUS
10
-0.012830
20
0.158512
30
0.0
11
-0.012259
21
0.157247
31
0.0
0
LINE
8
0
6
CONTINUOUS
10
-0.011415
20
0.156671
30
0.0
11
-0.011946
21
0.157848
31
0.0
0
LINE
8
0
6
CONTINUOUS
10
-0.013184
20
0.159846
30
0.0
11
-0.012830
21
0.158512
31
0.0
0
LINE
8
0
6
CONTINUOUS
10
-0.011946
20
0.157848
30
0.0
11
-0.012276
21
0.159090
31
0.0
0
LINE
8
0
6
CONTINUOUS
10
-0.013305
20
0.161236
30
0.0
11
-0.013184
21
0.159846
31
0.0
0
LINE
8
0
6
CONTINUOUS
10
-0.012276
20
0.159090
30
0.0
11
-0.012389
21
0.160385
31
0.0
0
LINE
8
0
6
CONTINUOUS
10
-0.013184
20
0.162626
30
0.0
11
-0.013305
21
0.161236
31
0.0
0
LINE
8
0
6
CONTINUOUS
10
-0.012389
20
0.160385
30
0.0
11
-0.012276
21
0.161680
31
0.0
0
LINE
8
0
6
CONTINUOUS
10
-0.012830
20
0.163960
30
0.0
11
-0.013184
21
0.162626
31
0.0
0
LINE
8
0
6
CONTINUOUS
10
-0.012276
20
0.161680
30
0.0
11
-0.011946
21
0.162922
31
0.0
0
LINE
8
0
6
CONTINUOUS
10
-0.012259
20
0.165225
30
0.0
11
-0.012830
21
0.163960
31
0.0
0
LINE
8
0
6
CONTINUOUS
10
-0.011946
20
0.162922
30
0.0
11
-0.011415
21
0.164100
31
0.0
0
LINE
8
0
6
CONTINUOUS
10
-0.011488
20
0.166409
30
0.0
11
-0.012259
21
0.165225
31
0.0
0
LINE
8
0
6
CONTINUOUS
10
-0.011415
20
0.164100
30
0.0
11
-0.010697
21
0.165202
31
0.0
0
LINE
8
0
6
CONTINUOUS
10
-0.010532
20
0.167499
30
0.0
11
-0.011488
21
0.166409
31
0.0
0
LINE
8
0
6
CONTINUOUS
10
-0.010697
20
0.165202
30
0.0
11
-0.009807
21
0.166217
31
0.0
0
LINE
8
0
6
CONTINUOUS
10
-0.009408
20
0.168483
30
0.0
11
-0.010532
21
0.167499
31
0.0
0
LINE
8
0
6
CONTINUOUS
10
-0.009807
20
0.166217
30
0.0
11
-0.008760
21
0.167133
31
0.0
0
LINE
8
0
6
CONTINUOUS
10
-0.008130
20
0.169349
30
0.0
11
-0.009408
21
0.168483
31
0.0
0
LINE
8
0
6
CONTINUOUS
10
-0.008760
20
0.167133
30
0.0
11
-0.007570
21
0.167940
31
0.0
0
LINE
8
0
6
CONTINUOUS
10
-0.006715
20
0.170086
30
0.0
11
-0.008130
21
0.169349
31
0.0
0
LINE
8
0
6
CONTINUOUS
10
-0.007570
20
0.167940
30
0.0
11
-0.006252
21
0.168626
31
0.0
0
LINE
8
0
6
CONTINUOUS
10
-0.005178
20
0.170680
30
0.0
11
-0.006715
21
0.170086
31
0.0
0
LINE
8
0
6
CONTINUOUS
10
-0.006252
20
0.168626
30
0.0
11
-0.004822
21
0.169179
31
0.0
0
LINE
8
0
6
CONTINUOUS
10
-0.003536
20
0.171119
30
0.0
11
-0.005178
21
0.170680
31
0.0
0
LINE
8
0
6
CONTINUOUS
10
-0.004822
20
0.169179
30
0.0
11
-0.003293
21
0.169588
31
0.0
0
LINE
8
0
6
CONTINUOUS
10
-0.001805
20
0.171392
30
0.0
11
-0.003536
21
0.171119
31
0.0
0
LINE
8
0
6
CONTINUOUS
10
-0.003293
20
0.169588
30
0.0
11
-0.001681
21
0.169842
31
0.0
0
LINE
8
0
6
CONTINUOUS
10
-0.000001
20
0.171486
30
0.0
11
-0.001805
21
0.171392
31
0.0
0
LINE
8
0
6
CONTINUOUS
10
-0.001681
20
0.169842
30
0.0
11
-0.000001
21
0.169929
31
0.0
0
LINE
8
0
6
CONTINUOUS
10
0.001804
20
0.171392
30
0.0
11
-0.000001
21
0.171486
31
0.0
0
LINE
8
0
6
CONTINUOUS
10
-0.000001
20
0.169929
30
0.0
11
0.001680
21
0.169842
31
0.0
0
LINE
8
0
6
CONTINUOUS
10
0.003535
20
0.171119
30
0.0
11
0.001804
21
0.171392
31
0.0
0
LINE
8
0
6
CONTINUOUS
10
0.001680
20
0.169842
30
0.0
11
0.003292
21
0.169588
31
0.0
0
LINE
8
0
6
CONTINUOUS
10
0.005177
20
0.170680
30
0.0
11
0.003535
21
0.171119
31
0.0
0
LINE
8
0
6
CONTINUOUS
10
0.003292
20
0.169588
30
0.0
11
0.004821
21
0.169179
31
0.0
0
LINE
8
0
6
CONTINUOUS
10
0.006714
20
0.170086
30
0.0
11
0.005177
21
0.170680
31
0.0
0
LINE
8
0
6
CONTINUOUS
10
0.004821
20
0.169179
30
0.0
11
0.006251
21
0.168626
31
0.0
0
LINE
8
0
6
CONTINUOUS
10
0.008129
20
0.169349
30
0.0
11
0.006714
21
0.170086
31
0.0
0
LINE
8
0
6
CONTINUOUS
10
0.006251
20
0.168626
30
0.0
11
0.007569
21
0.167940
31
0.0
0
LINE
8
0
6
CONTINUOUS
10
0.009407
20
0.168483
30
0.0
11
0.008129
21
0.169349
31
0.0
0
LINE
8
0
6
CONTINUOUS
10
0.007569
20
0.167940
30
0.0
11
0.008759
21
0.167133
31
0.0
0
LINE
8
0
6
CONTINUOUS
10
0.010531
20
0.167499
30
0.0
11
0.009407
21
0.168483
31
0.0
0
LINE
8
0
6
CONTINUOUS
10
0.008759
20
0.167133
30
0.0
11
0.009806
21
0.166217
31
0.0
0
LINE
8
0
6
CONTINUOUS
10
0.011487
20
0.166408
30
0.0
11
0.010531
21
0.167499
31
0.0
0
LINE
8
0
6
CONTINUOUS
10
0.009806
20
0.166217
30
0.0
11
0.010696
21
0.165202
31
0.0
0
LINE
8
0
6
CONTINUOUS
10
0.012258
20
0.165225
30
0.0
11
0.011487
21
0.166408
31
0.0
0
LINE
8
0
6
CONTINUOUS
10
0.010696
20
0.165202
30
0.0
11
0.011414
21
0.164099
31
0.0
0
LINE
8
0
6
CONTINUOUS
10
0.012829
20
0.163960
30
0.0
11
0.012258
21
0.165225
31
0.0
0
LINE
8
0
6
CONTINUOUS
10
0.011414
20
0.164099
30
0.0
11
0.011945
21
0.162922
31
0.0
0
LINE
8
0
6
CONTINUOUS
10
0.013183
20
0.162626
30
0.0
11
0.012829
21
0.163960
31
0.0
0
LINE
8
0
6
CONTINUOUS
10
0.011945
20
0.162922
30
0.0
11
0.012275
21
0.161680
31
0.0
0
LINE
8
0
6
CONTINUOUS
10
0.013304
20
0.161236
30
0.0
11
0.013183
21
0.162626
31
0.0
0
LINE
8
0
6
CONTINUOUS
10
0.012275
20
0.161680
30
0.0
11
0.012388
21
0.160385
31
0.0
0
LINE
8
0
6
CONTINUOUS
10
0.013183
20
0.159846
30
0.0
11
0.013304
21
0.161236
31
0.0
0
LINE
8
0
6
CONTINUOUS
10
0.012388
20
0.160385
30
0.0
11
0.012275
21
0.159090
31
0.0
0
LINE
8
0
6
CONTINUOUS
10
0.012829
20
0.158512
30
0.0
11
0.013183
21
0.159846
31
0.0
0
LINE
8
0
6
CONTINUOUS
10
0.012275
20
0.159090
30
0.0
11
0.011946
21
0.157848
31
0.0
0
LINE
8
0
6
CONTINUOUS
10
0.012258
20
0.157246
30
0.0
11
0.012829
21
0.158512
31
0.0
0
LINE
8
0
6
CONTINUOUS
10
0.011946
20
0.157848
30
0.0
11
0.011414
21
0.156671
31
0.0
0
LINE
8
0
6
CONTINUOUS
10
0.011487
20
0.156063
30
0.0
11
0.012258
21
0.157246
31
0.0
0
LINE
8
0
6
CONTINUOUS
10
0.011414
20
0.156671
30
0.0
11
0.010696
21
0.155569
31
0.0
0
LINE
8
0
6
CONTINUOUS
10
0.010531
20
0.154973
30
0.0
11
0.011487
21
0.156063
31
0.0
0
LINE
8
0
6
CONTINUOUS
10
0.010696
20
0.155569
30
0.0
11
0.009806
21
0.154553
31
0.0
0
LINE
8
0
6
CONTINUOUS
10
0.009407
20
0.153988
30
0.0
11
0.010531
21
0.154973
31
0.0
0
LINE
8
0
6
CONTINUOUS
10
0.009806
20
0.154553
30
0.0
11
0.008759
21
0.153637
31
0.0
0
LINE
8
0
6
CONTINUOUS
10
0.007569
20
0.152830
30
0.0
11
0.008094
21
0.153104
31
0.0
0
LINE
8
0
6
CONTINUOUS
10
0.008759
20
0.153637
30
0.0
11
0.007569
21
0.152830
31
0.0
0
LINE
8
0
6
CONTINUOUS
10
-0.045657
20
0.158977
30
0.0
11
-0.044108
21
0.159409
31
0.0
0
LINE
8
0
6
CONTINUOUS
10
0.032907
20
0.171973
30
0.0
11
0.032999
21
0.170701
31
0.0
0
LINE
8
0
6
CONTINUOUS
10
0.034284
20
0.172670
30
0.0
11
0.032907
21
0.171973
31
0.0
0
LINE
8
0
6
CONTINUOUS
10
0.035754
20
0.172096
30
0.0
11
0.034284
21
0.172670
31
0.0
0
LINE
8
0
6
CONTINUOUS
10
0.035846
20
0.170824
30
0.0
11
0.035754
21
0.172096
31
0.0
0
LINE
8
0
6
CONTINUOUS
10
0.034469
20
0.170127
30
0.0
11
0.035846
21
0.170824
31
0.0
0
LINE
8
0
6
CONTINUOUS
10
0.032999
20
0.170701
30
0.0
11
0.034469
21
0.170127
31
0.0
0
LINE
8
0
6
CONTINUOUS
10
0.042650
20
0.158446
30
0.0
11
0.043907
21
0.159268
31
0.0
0
LINE
8
0
6
CONTINUOUS
10
0.042650
20
0.158954
30
0.0
11
0.042650
21
0.158446
31
0.0
0
LINE
8
0
6
CONTINUOUS
10
0.043907
20
0.159268
30
0.0
11
0.045455
21
0.158836
31
0.0
0
LINE
8
0
6
CONTINUOUS
10
0.007785
20
0.148059
30
0.0
11
0.007785
21
0.148831
31
0.0
0
LINE
8
0
6
CONTINUOUS
10
0.006527
20
0.148881
30
0.0
11
0.007785
21
0.148059
31
0.0
0
LINE
8
0
6
CONTINUOUS
10
0.005751
20
0.134341
30
0.0
11
0.006042
21
0.135595
31
0.0
0
LINE
8
0
6
CONTINUOUS
10
0.005751
20
0.135013
30
0.0
11
0.005751
21
0.134341
31
0.0
0
LINE
8
0
6
CONTINUOUS
10
0.006042
20
0.135595
30
0.0
11
0.007591
21
0.136027
31
0.0
0
LINE
8
0
6
CONTINUOUS
10
0.008848
20
0.135205
30
0.0
11
0.008848
21
0.135874
31
0.0
0
LINE
8
0
6
CONTINUOUS
10
0.007591
20
0.136027
30
0.0
11
0.008848
21
0.135205
31
0.0
0
LINE
8
0
6
CONTINUOUS
10
0.006464
20
0.156370
30
0.0
11
0.006756
21
0.157623
31
0.0
0
LINE
8
0
6
CONTINUOUS
10
0.006464
20
0.157128
30
0.0
11
0.006464
21
0.156370
31
0.0
0
LINE
8
0
6
CONTINUOUS
10
0.006756
20
0.157623
30
0.0
11
0.008304
21
0.158055
31
0.0
0
LINE
8
0
6
CONTINUOUS
10
0.009561
20
0.157233
30
0.0
11
0.009561
21
0.158078
31
0.0
0
LINE
8
0
6
CONTINUOUS
10
0.008304
20
0.158055
30
0.0
11
0.009561
21
0.157233
31
0.0
0
LINE
8
0
6
CONTINUOUS
10
0.037502
20
0.146914
30
0.0
11
0.038759
21
0.147736
31
0.0
0
LINE
8
0
6
CONTINUOUS
10
0.037502
20
0.147218
30
0.0
11
0.037502
21
0.146914
31
0.0
0
LINE
8
0
6
CONTINUOUS
10
0.038759
20
0.147736
30
0.0
11
0.040308
21
0.147305
31
0.0
0
LINE
8
0
6
CONTINUOUS
10
0.040308
20
0.147305
30
0.0
11
0.040599
21
0.146051
31
0.0
0
LINE
8
0
6
CONTINUOUS
10
0.028582
20
0.137989
30
0.0
11
0.030130
21
0.137557
31
0.0
0
LINE
8
0
6
CONTINUOUS
10
0.030130
20
0.137557
30
0.0
11
0.030421
21
0.136303
31
0.0
0
LINE
8
0
6
CONTINUOUS
10
0.020537
20
0.140999
30
0.0
11
0.022086
21
0.140567
31
0.0
0
LINE
8
0
6
CONTINUOUS
10
0.022086
20
0.140567
30
0.0
11
0.022377
21
0.139314
31
0.0
0
LINE
8
0
6
CONTINUOUS
10
0.021672
20
0.151306
30
0.0
11
0.022929
21
0.152128
31
0.0
0
LINE
8
0
6
CONTINUOUS
10
0.021672
20
0.152025
30
0.0
11
0.021672
21
0.151306
31
0.0
0
LINE
8
0
6
CONTINUOUS
10
0.029547
20
0.149109
30
0.0
11
0.030804
21
0.149931
31
0.0
0
LINE
8
0
6
CONTINUOUS
10
0.029547
20
0.149735
30
0.0
11
0.029547
21
0.149109
31
0.0
0
LINE
8
0
6
CONTINUOUS
10
0.030804
20
0.149931
30
0.0
11
0.032353
21
0.149499
31
0.0
0
LINE
8
0
6
CONTINUOUS
10
0.032353
20
0.149499
30
0.0
11
0.032644
21
0.148245
31
0.0
0
LINE
8
0
6
CONTINUOUS
10
0.011872
20
0.142750
30
0.0
11
0.012163
21
0.144004
31
0.0
0
LINE
8
0
6
CONTINUOUS
10
0.011872
20
0.143418
30
0.0
11
0.011872
21
0.142750
31
0.0
0
LINE
8
0
6
CONTINUOUS
10
0.012163
20
0.144004
30
0.0
11
0.013711
21
0.144436
31
0.0
0
LINE
8
0
6
CONTINUOUS
10
0.014969
20
0.143614
30
0.0
11
0.014969
21
0.144440
31
0.0
0
LINE
8
0
6
CONTINUOUS
10
0.013711
20
0.144436
30
0.0
11
0.014969
21
0.143614
31
0.0
0
LINE
8
0
6
CONTINUOUS
10
0.013553
20
0.129694
30
0.0
11
0.013844
21
0.130948
31
0.0
0
LINE
8
0
6
CONTINUOUS
10
0.013553
20
0.130261
30
0.0
11
0.013553
21
0.129694
31
0.0
0
LINE
8
0
6
CONTINUOUS
10
0.013844
20
0.130948
30
0.0
11
0.015392
21
0.131379
31
0.0
0
LINE
8
0
6
CONTINUOUS
10
0.016650
20
0.130557
30
0.0
11
0.016650
21
0.131350
31
0.0
0
LINE
8
0
6
CONTINUOUS
10
0.015392
20
0.131379
30
0.0
11
0.016650
21
0.130557
31
0.0
0
LINE
8
0
6
CONTINUOUS
10
0.034179
20
0.158940
30
0.0
11
0.034470
21
0.160194
31
0.0
0
LINE
8
0
6
CONTINUOUS
10
0.034179
20
0.159698
30
0.0
11
0.034179
21
0.158940
31
0.0
0
LINE
8
0
6
CONTINUOUS
10
0.034470
20
0.160194
30
0.0
11
0.036018
21
0.160626
31
0.0
0
LINE
8
0
6
CONTINUOUS
10
0.037276
20
0.159804
30
0.0
11
0.037276
21
0.160908
31
0.0
0
LINE
8
0
6
CONTINUOUS
10
0.036018
20
0.160626
30
0.0
11
0.037276
21
0.159804
31
0.0
0
LINE
8
0
6
CONTINUOUS
10
0.025663
20
0.162242
30
0.0
11
0.027211
21
0.162674
31
0.0
0
LINE
8
0
6
CONTINUOUS
10
0.028468
20
0.161852
30
0.0
11
0.028468
21
0.162949
31
0.0
0
LINE
8
0
6
CONTINUOUS
10
0.027211
20
0.162674
30
0.0
11
0.028468
21
0.161852
31
0.0
0
LINE
8
0
6
CONTINUOUS
10
0.013944
20
0.153224
30
0.0
11
0.014235
21
0.154477
31
0.0
0
LINE
8
0
6
CONTINUOUS
10
0.013944
20
0.153936
30
0.0
11
0.013944
21
0.153224
31
0.0
0
LINE
8
0
6
CONTINUOUS
10
0.014235
20
0.154477
30
0.0
11
0.015783
21
0.154909
31
0.0
0
LINE
8
0
6
CONTINUOUS
10
0.017040
20
0.154087
30
0.0
11
0.017040
21
0.155077
31
0.0
0
LINE
8
0
6
CONTINUOUS
10
0.015783
20
0.154909
30
0.0
11
0.017040
21
0.154087
31
0.0
0
LINE
8
0
6
CONTINUOUS
10
0.016083
20
0.188056
30
0.0
11
0.016083
21
0.189173
31
0.0
0
LINE
8
0
6
CONTINUOUS
10
0.015322
20
0.189185
30
0.0
11
0.016083
21
0.188056
31
0.0
0
LINE
8
0
6
CONTINUOUS
10
0.012794
20
0.188166
30
0.0
11
0.013678
21
0.189240
31
0.0
0
LINE
8
0
6
CONTINUOUS
10
0.012794
20
0.189081
30
0.0
11
0.012794
21
0.188166
31
0.0
0
LINE
8
0
6
CONTINUOUS
10
0.013678
20
0.189240
30
0.0
11
0.015322
21
0.189185
31
0.0
0
LINE
8
0
6
CONTINUOUS
10
0.015147
20
0.179726
30
0.0
11
0.015147
21
0.180786
31
0.0
0
LINE
8
0
6
CONTINUOUS
10
0.014386
20
0.180856
30
0.0
11
0.015147
21
0.179726
31
0.0
0
LINE
8
0
6
CONTINUOUS
10
0.011858
20
0.179836
30
0.0
11
0.012742
21
0.180911
31
0.0
0
LINE
8
0
6
CONTINUOUS
10
0.011858
20
0.180732
30
0.0
11
0.011858
21
0.179836
31
0.0
0
LINE
8
0
6
CONTINUOUS
10
0.012742
20
0.180911
30
0.0
11
0.014386
21
0.180856
31
0.0
0
LINE
8
0
6
CONTINUOUS
10
0.028376
20
0.181051
30
0.0
11
0.028376
21
0.182288
31
0.0
0
LINE
8
0
6
CONTINUOUS
10
0.027940
20
0.182279
30
0.0
11
0.028376
21
0.181051
31
0.0
0
LINE
8
0
6
CONTINUOUS
10
0.025192
20
0.181694
30
0.0
11
0.026348
21
0.182601
31
0.0
0
LINE
8
0
6
CONTINUOUS
10
0.025192
20
0.182657
30
0.0
11
0.025192
21
0.181694
31
0.0
0
LINE
8
0
6
CONTINUOUS
10
0.026348
20
0.182601
30
0.0
11
0.027940
21
0.182279
31
0.0
0
LINE
8
0
6
CONTINUOUS
10
0.010016
20
0.172205
30
0.0
11
0.011172
21
0.173112
31
0.0
0
LINE
8
0
6
CONTINUOUS
10
0.010016
20
0.173066
30
0.0
11
0.010016
21
0.172205
31
0.0
0
LINE
8
0
6
CONTINUOUS
10
0.011172
20
0.173112
30
0.0
11
0.012765
21
0.172790
31
0.0
0
LINE
8
0
6
CONTINUOUS
10
0.035846
20
0.170824
30
0.0
11
0.035846
21
0.171996
31
0.0
0
LINE
8
0
6
CONTINUOUS
10
0.035754
20
0.172096
30
0.0
11
0.035846
21
0.170824
31
0.0
0
LINE
8
0
6
CONTINUOUS
10
0.032907
20
0.171973
30
0.0
11
0.034284
21
0.172670
31
0.0
0
LINE
8
0
6
CONTINUOUS
10
0.032907
20
0.172862
30
0.0
11
0.032907
21
0.171973
31
0.0
0
LINE
8
0
6
CONTINUOUS
10
0.034284
20
0.172670
30
0.0
11
0.035754
21
0.172096
31
0.0
0
LINE
8
0
6
CONTINUOUS
10
0.024720
20
0.171740
30
0.0
11
0.024720
21
0.172763
31
0.0
0
LINE
8
0
6
CONTINUOUS
10
0.024628
20
0.173012
30
0.0
11
0.024720
21
0.171740
31
0.0
0
LINE
8
0
6
CONTINUOUS
10
0.021782
20
0.172889
30
0.0
11
0.023159
21
0.173586
31
0.0
0
LINE
8
0
6
CONTINUOUS
10
0.021782
20
0.173762
30
0.0
11
0.021782
21
0.172889
31
0.0
0
LINE
8
0
6
CONTINUOUS
10
0.023159
20
0.173586
30
0.0
11
0.024628
21
0.173012
31
0.0
0
LINE
8
0
6
CONTINUOUS
10
0.019304
20
0.162587
30
0.0
11
0.019304
21
0.163614
31
0.0
0
LINE
8
0
6
CONTINUOUS
10
0.019212
20
0.163858
30
0.0
11
0.019304
21
0.162587
31
0.0
0
LINE
8
0
6
CONTINUOUS
10
0.009294
20
0.163313
30
0.0
11
0.009294
21
0.164200
31
0.0
0
LINE
8
0
6
CONTINUOUS
10
0.009202
20
0.164585
30
0.0
11
0.009294
21
0.163313
31
0.0
0
LINE
8
0
6
CONTINUOUS
10
0.007733
20
0.165159
30
0.0
11
0.009202
21
0.164585
31
0.0
0
LINE
8
0
6
CONTINUOUS
10
0.013491
20
0.196389
30
0.0
11
0.014063
21
0.197584
31
0.0
0
LINE
8
0
6
CONTINUOUS
10
0.013491
20
0.197178
30
0.0
11
0.013491
21
0.196389
31
0.0
0
LINE
8
0
6
CONTINUOUS
10
0.014063
20
0.197584
30
0.0
11
0.015685
21
0.197798
31
0.0
0
LINE
8
0
6
CONTINUOUS
10
0.030280
20
0.190379
30
0.0
11
0.030280
21
0.191414
31
0.0
0
LINE
8
0
6
CONTINUOUS
10
0.029844
20
0.191607
30
0.0
11
0.030280
21
0.190379
31
0.0
0
LINE
8
0
6
CONTINUOUS
10
0.027095
20
0.191023
30
0.0
11
0.028251
21
0.191929
31
0.0
0
LINE
8
0
6
CONTINUOUS
10
0.027095
20
0.191839
30
0.0
11
0.027095
21
0.191023
31
0.0
0
LINE
8
0
6
CONTINUOUS
10
0.028251
20
0.191929
30
0.0
11
0.029844
21
0.191607
31
0.0
0
LINE
8
0
6
CONTINUOUS
10
0.040176
20
0.180926
30
0.0
11
0.040176
21
0.181943
31
0.0
0
LINE
8
0
6
CONTINUOUS
10
0.040084
20
0.182198
30
0.0
11
0.040176
21
0.180926
31
0.0
0
LINE
8
0
6
CONTINUOUS
10
0.037238
20
0.182074
30
0.0
11
0.038615
21
0.182772
31
0.0
0
LINE
8
0
6
CONTINUOUS
10
0.037238
20
0.182892
30
0.0
11
0.037238
21
0.182074
31
0.0
0
LINE
8
0
6
CONTINUOUS
10
0.038615
20
0.182772
30
0.0
11
0.040084
21
0.182198
31
0.0
0
LINE
8
0
6
CONTINUOUS
10
-0.040378
20
0.181066
30
0.0
11
-0.040286
21
0.182338
31
0.0
0
LINE
8
0
6
CONTINUOUS
10
-0.040378
20
0.181963
30
0.0
11
-0.040378
21
0.181066
31
0.0
0
LINE
8
0
6
CONTINUOUS
10
-0.038817
20
0.182912
30
0.0
11
-0.037440
21
0.182214
31
0.0
0
LINE
8
0
6
CONTINUOUS
10
-0.040286
20
0.182338
30
0.0
11
-0.038817
21
0.182912
31
0.0
0
LINE
8
0
6
CONTINUOUS
10
-0.030482
20
0.190479
30
0.0
11
-0.030046
21
0.191707
31
0.0
0
LINE
8
0
6
CONTINUOUS
10
-0.030482
20
0.191432
30
0.0
11
-0.030482
21
0.190479
31
0.0
0
LINE
8
0
6
CONTINUOUS
10
-0.028453
20
0.192029
30
0.0
11
-0.027297
21
0.191123
31
0.0
0
LINE
8
0
6
CONTINUOUS
10
-0.030046
20
0.191707
30
0.0
11
-0.028453
21
0.192029
31
0.0
0
LINE
8
0
6
CONTINUOUS
10
-0.001690
20
0.198155
30
0.0
11
-0.001198
21
0.199370
31
0.0
0
LINE
8
0
6
CONTINUOUS
10
-0.001690
20
0.199070
30
0.0
11
-0.001690
21
0.198155
31
0.0
0
LINE
8
0
6
CONTINUOUS
10
-0.001198
20
0.199370
30
0.0
11
0.000408
21
0.199648
31
0.0
0
LINE
8
0
6
CONTINUOUS
10
0.000408
20
0.199648
30
0.0
11
0.001523
21
0.198711
31
0.0
0
LINE
8
0
6
CONTINUOUS
10
-0.016938
20
0.196873
30
0.0
11
-0.015888
21
0.197854
31
0.0
0
LINE
8
0
6
CONTINUOUS
10
-0.016938
20
0.197812
30
0.0
11
-0.016938
21
0.196873
31
0.0
0
LINE
8
0
6
CONTINUOUS
10
-0.014265
20
0.197639
30
0.0
11
-0.013694
21
0.196445
31
0.0
0
LINE
8
0
6
CONTINUOUS
10
-0.015888
20
0.197854
30
0.0
11
-0.014265
21
0.197639
31
0.0
0
LINE
8
0
6
CONTINUOUS
10
-0.007935
20
0.165182
30
0.0
11
-0.006558
21
0.164484
31
0.0
0
LINE
8
0
6
CONTINUOUS
10
-0.017945
20
0.164493
30
0.0
11
-0.016568
21
0.163795
31
0.0
0
LINE
8
0
6
CONTINUOUS
10
-0.036047
20
0.170925
30
0.0
11
-0.035955
21
0.172197
31
0.0
0
LINE
8
0
6
CONTINUOUS
10
-0.036047
20
0.172017
30
0.0
11
-0.036047
21
0.170925
31
0.0
0
LINE
8
0
6
CONTINUOUS
10
-0.034486
20
0.172771
30
0.0
11
-0.033109
21
0.172073
31
0.0
0
LINE
8
0
6
CONTINUOUS
10
-0.035955
20
0.172197
30
0.0
11
-0.034486
21
0.172771
31
0.0
0
LINE
8
0
6
CONTINUOUS
10
-0.001560
20
0.167182
30
0.0
11
-0.001124
21
0.168410
31
0.0
0
LINE
8
0
6
CONTINUOUS
10
-0.001560
20
0.168040
30
0.0
11
-0.001560
21
0.167182
31
0.0
0
LINE
8
0
6
CONTINUOUS
10
-0.011374
20
0.173140
30
0.0
11
-0.010218
21
0.172234
31
0.0
0
LINE
8
0
6
CONTINUOUS
10
-0.012967
20
0.172818
30
0.0
11
-0.011374
21
0.173140
31
0.0
0
LINE
8
0
6
CONTINUOUS
10
-0.028578
20
0.181153
30
0.0
11
-0.028142
21
0.182381
31
0.0
0
LINE
8
0
6
CONTINUOUS
10
-0.028578
20
0.182316
30
0.0
11
-0.028578
21
0.181153
31
0.0
0
LINE
8
0
6
CONTINUOUS
10
-0.026550
20
0.182703
30
0.0
11
-0.025393
21
0.181796
31
0.0
0
LINE
8
0
6
CONTINUOUS
10
-0.028142
20
0.182381
30
0.0
11
-0.026550
21
0.182703
31
0.0
0
LINE
8
0
6
CONTINUOUS
10
-0.015349
20
0.179756
30
0.0
11
-0.014588
21
0.180886
31
0.0
0
LINE
8
0
6
CONTINUOUS
10
-0.015349
20
0.180805
30
0.0
11
-0.015349
21
0.179756
31
0.0
0
LINE
8
0
6
CONTINUOUS
10
-0.012944
20
0.180941
30
0.0
11
-0.012060
21
0.179867
31
0.0
0
LINE
8
0
6
CONTINUOUS
10
-0.014588
20
0.180886
30
0.0
11
-0.012944
21
0.180941
31
0.0
0
LINE
8
0
6
CONTINUOUS
10
-0.016285
20
0.188114
30
0.0
11
-0.015524
21
0.189243
31
0.0
0
LINE
8
0
6
CONTINUOUS
10
-0.016285
20
0.189189
30
0.0
11
-0.016285
21
0.188114
31
0.0
0
LINE
8
0
6
CONTINUOUS
10
-0.015524
20
0.189243
30
0.0
11
-0.013880
21
0.189299
31
0.0
0
LINE
8
0
6
CONTINUOUS
10
-0.002045
20
0.182738
30
0.0
11
-0.000994
21
0.183719
31
0.0
0
LINE
8
0
6
CONTINUOUS
10
-0.002045
20
0.183712
30
0.0
11
-0.002045
21
0.182738
31
0.0
0
LINE
8
0
6
CONTINUOUS
10
0.000629
20
0.183505
30
0.0
11
0.001200
21
0.182310
31
0.0
0
LINE
8
0
6
CONTINUOUS
10
-0.001927
20
0.190907
30
0.0
11
-0.000876
21
0.191887
31
0.0
0
LINE
8
0
6
CONTINUOUS
10
-0.001927
20
0.191944
30
0.0
11
-0.001927
21
0.190907
31
0.0
0
LINE
8
0
6
CONTINUOUS
10
0.000746
20
0.191673
30
0.0
11
0.001317
21
0.190478
31
0.0
0
LINE
8
0
6
CONTINUOUS
10
-0.000876
20
0.191887
30
0.0
11
0.000746
21
0.191673
31
0.0
0
LINE
8
0
6
CONTINUOUS
10
-0.014436
20
0.154535
30
0.0
11
-0.014145
21
0.153281
31
0.0
0
LINE
8
0
6
CONTINUOUS
10
-0.015985
20
0.154966
30
0.0
11
-0.014436
21
0.154535
31
0.0
0
LINE
8
0
6
CONTINUOUS
10
-0.017242
20
0.154144
30
0.0
11
-0.015985
21
0.154966
31
0.0
0
LINE
8
0
6
CONTINUOUS
10
-0.017242
20
0.155095
30
0.0
11
-0.017242
21
0.154144
31
0.0
0
LINE
8
0
6
CONTINUOUS
10
-0.025864
20
0.162329
30
0.0
11
-0.025573
21
0.161076
31
0.0
0
LINE
8
0
6
CONTINUOUS
10
-0.027413
20
0.162761
30
0.0
11
-0.025864
21
0.162329
31
0.0
0
LINE
8
0
6
CONTINUOUS
10
-0.028670
20
0.161939
30
0.0
11
-0.027413
21
0.162761
31
0.0
0
LINE
8
0
6
CONTINUOUS
10
-0.028670
20
0.162975
30
0.0
11
-0.028670
21
0.161939
31
0.0
0
LINE
8
0
6
CONTINUOUS
10
-0.016850
20
0.130984
30
0.0
11
-0.015593
21
0.131806
31
0.0
0
LINE
8
0
6
CONTINUOUS
10
-0.016850
20
0.131369
30
0.0
11
-0.016850
21
0.130984
31
0.0
0
LINE
8
0
6
CONTINUOUS
10
-0.001760
20
0.129117
30
0.0
11
-0.000503
21
0.129939
31
0.0
0
LINE
8
0
6
CONTINUOUS
10
-0.001760
20
0.129579
30
0.0
11
-0.001760
21
0.129117
31
0.0
0
LINE
8
0
6
CONTINUOUS
10
-0.012364
20
0.144042
30
0.0
11
-0.012073
21
0.142789
31
0.0
0
LINE
8
0
6
CONTINUOUS
10
-0.013913
20
0.144474
30
0.0
11
-0.012364
21
0.144042
31
0.0
0
LINE
8
0
6
CONTINUOUS
10
-0.015170
20
0.143652
30
0.0
11
-0.013913
21
0.144474
31
0.0
0
LINE
8
0
6
CONTINUOUS
10
-0.015170
20
0.144456
30
0.0
11
-0.015170
21
0.143652
31
0.0
0
LINE
8
0
6
CONTINUOUS
10
-0.032845
20
0.148329
30
0.0
11
-0.032554
21
0.149583
31
0.0
0
LINE
8
0
6
CONTINUOUS
10
-0.032845
20
0.149325
30
0.0
11
-0.032845
21
0.148329
31
0.0
0
LINE
8
0
6
CONTINUOUS
10
-0.021873
20
0.151376
30
0.0
11
-0.021873
21
0.152041
31
0.0
0
LINE
8
0
6
CONTINUOUS
10
-0.023131
20
0.152198
30
0.0
11
-0.021873
21
0.151376
31
0.0
0
LINE
8
0
6
CONTINUOUS
10
-0.024679
20
0.151767
30
0.0
11
-0.023131
21
0.152198
31
0.0
0
LINE
8
0
6
CONTINUOUS
10
-0.024970
20
0.150513
30
0.0
11
-0.024679
21
0.151767
31
0.0
0
LINE
8
0
6
CONTINUOUS
10
-0.024970
20
0.151490
30
0.0
11
-0.024970
21
0.150513
31
0.0
0
LINE
8
0
6
CONTINUOUS
10
-0.022578
20
0.139249
30
0.0
11
-0.022287
21
0.140503
31
0.0
0
LINE
8
0
6
CONTINUOUS
10
-0.022578
20
0.140260
30
0.0
11
-0.022578
21
0.139249
31
0.0
0
LINE
8
0
6
CONTINUOUS
10
-0.027525
20
0.137383
30
0.0
11
-0.027525
21
0.137726
31
0.0
0
LINE
8
0
6
CONTINUOUS
10
-0.028783
20
0.138205
30
0.0
11
-0.027525
21
0.137383
31
0.0
0
LINE
8
0
6
CONTINUOUS
10
-0.030331
20
0.137773
30
0.0
11
-0.028783
21
0.138205
31
0.0
0
LINE
8
0
6
CONTINUOUS
10
-0.030622
20
0.136519
30
0.0
11
-0.030331
21
0.137773
31
0.0
0
LINE
8
0
6
CONTINUOUS
10
-0.030622
20
0.137275
30
0.0
11
-0.030622
21
0.136519
31
0.0
0
LINE
8
0
6
CONTINUOUS
10
-0.037703
20
0.147044
30
0.0
11
-0.037703
21
0.147243
31
0.0
0
LINE
8
0
6
CONTINUOUS
10
-0.038960
20
0.147866
30
0.0
11
-0.037703
21
0.147044
31
0.0
0
LINE
8
0
6
CONTINUOUS
10
-0.040509
20
0.147434
30
0.0
11
-0.038960
21
0.147866
31
0.0
0
LINE
8
0
6
CONTINUOUS
10
-0.040800
20
0.146180
30
0.0
11
-0.040509
21
0.147434
31
0.0
0
LINE
8
0
6
CONTINUOUS
10
-0.040800
20
0.146826
30
0.0
11
-0.040800
21
0.146180
31
0.0
0
LINE
8
0
6
CONTINUOUS
10
-0.006957
20
0.157648
30
0.0
11
-0.006666
21
0.156394
31
0.0
0
LINE
8
0
6
CONTINUOUS
10
-0.008506
20
0.158079
30
0.0
11
-0.006957
21
0.157648
31
0.0
0
LINE
8
0
6
CONTINUOUS
10
-0.009763
20
0.157257
30
0.0
11
-0.008506
21
0.158079
31
0.0
0
LINE
8
0
6
CONTINUOUS
10
-0.009763
20
0.158084
30
0.0
11
-0.009763
21
0.157257
31
0.0
0
LINE
8
0
6
CONTINUOUS
10
-0.009049
20
0.135250
30
0.0
11
-0.007792
21
0.136072
31
0.0
0
LINE
8
0
6
CONTINUOUS
10
-0.009049
20
0.135879
30
0.0
11
-0.009049
21
0.135250
31
0.0
0
LINE
8
0
6
CONTINUOUS
10
0.000982
20
0.140912
30
0.0
11
0.001273
21
0.139658
31
0.0
0
LINE
8
0
6
CONTINUOUS
10
-0.000566
20
0.141344
30
0.0
11
0.000982
21
0.140912
31
0.0
0
LINE
8
0
6
CONTINUOUS
10
-0.001824
20
0.140522
30
0.0
11
-0.000566
21
0.141344
31
0.0
0
LINE
8
0
6
CONTINUOUS
10
-0.001824
20
0.141252
30
0.0
11
-0.001824
21
0.140522
31
0.0
0
LINE
8
0
6
CONTINUOUS
10
-0.005180
20
0.148470
30
0.0
11
-0.004889
21
0.147216
31
0.0
0
LINE
8
0
6
CONTINUOUS
10
-0.006729
20
0.148901
30
0.0
11
-0.005180
21
0.148470
31
0.0
0
LINE
8
0
6
CONTINUOUS
10
-0.007986
20
0.148079
30
0.0
11
-0.006729
21
0.148901
31
0.0
0
LINE
8
0
6
CONTINUOUS
10
-0.007986
20
0.148837
30
0.0
11
-0.007986
21
0.148079
31
0.0
0
LINE
8
0
6
CONTINUOUS
10
0.001234
20
0.153758
30
0.0
11
0.001525
21
0.152504
31
0.0
0
LINE
8
0
6
CONTINUOUS
10
-0.000315
20
0.154190
30
0.0
11
0.001234
21
0.153758
31
0.0
0
LINE
8
0
6
CONTINUOUS
10
-0.001572
20
0.153368
30
0.0
11
-0.000315
21
0.154190
31
0.0
0
LINE
8
0
6
CONTINUOUS
10
-0.001572
20
0.154163
30
0.0
11
-0.001572
21
0.153368
31
0.0
0
LINE
8
0
6
CONTINUOUS
10
-0.001745
20
0.175081
30
0.0
11
-0.000862
21
0.176156
31
0.0
0
LINE
8
0
6
CONTINUOUS
10
-0.001745
20
0.175999
30
0.0
11
-0.001745
21
0.175081
31
0.0
0
LINE
8
0
6
CONTINUOUS
10
-0.000862
20
0.176156
30
0.0
11
0.000783
21
0.176101
31
0.0
0
LINE
8
0
6
CONTINUOUS
10
-0.042851
20
0.158587
30
0.0
11
-0.042851
21
0.158986
31
0.0
0
LINE
8
0
6
CONTINUOUS
10
-0.044108
20
0.159409
30
0.0
11
-0.042851
21
0.158587
31
0.0
0
LINE
8
0
6
CONTINUOUS
10
-0.045948
20
0.157723
30
0.0
11
-0.045657
21
0.158977
31
0.0
0
LINE
8
0
6
CONTINUOUS
10
-0.045948
20
0.158630
30
0.0
11
-0.045948
21
0.157723
31
0.0
0
LINE
8
0
6
CONTINUOUS
10
0.043907
20
0.159268
30
0.0
11
0.042650
21
0.158446
31
0.0
0
LINE
8
0
6
CONTINUOUS
10
0.045455
20
0.158836
30
0.0
11
0.043907
21
0.159268
31
0.0
0
LINE
8
0
6
CONTINUOUS
10
0.045746
20
0.157582
30
0.0
11
0.045455
21
0.158836
31
0.0
0
LINE
8
0
6
CONTINUOUS
10
0.044489
20
0.156760
30
0.0
11
0.045746
21
0.157582
31
0.0
0
LINE
8
0
6
CONTINUOUS
10
0.042941
20
0.157192
30
0.0
11
0.044489
21
0.156760
31
0.0
0
LINE
8
0
6
CONTINUOUS
10
0.042650
20
0.158446
30
0.0
11
0.042941
21
0.157192
31
0.0
0
LINE
8
0
6
CONTINUOUS
10
0.004979
20
0.148449
30
0.0
11
0.004688
21
0.147195
31
0.0
0
LINE
8
0
6
CONTINUOUS
10
0.006527
20
0.148881
30
0.0
11
0.004979
21
0.148449
31
0.0
0
LINE
8
0
6
CONTINUOUS
10
0.007785
20
0.148059
30
0.0
11
0.006527
21
0.148881
31
0.0
0
LINE
8
0
6
CONTINUOUS
10
0.007494
20
0.146805
30
0.0
11
0.007785
21
0.148059
31
0.0
0
LINE
8
0
6
CONTINUOUS
10
0.005945
20
0.146373
30
0.0
11
0.007494
21
0.146805
31
0.0
0
LINE
8
0
6
CONTINUOUS
10
0.004688
20
0.147195
30
0.0
11
0.005945
21
0.146373
31
0.0
0
LINE
8
0
6
CONTINUOUS
10
0.006042
20
0.135595
30
0.0
11
0.005751
21
0.134341
31
0.0
0
LINE
8
0
6
CONTINUOUS
10
0.007591
20
0.136027
30
0.0
11
0.006042
21
0.135595
31
0.0
0
LINE
8
0
6
CONTINUOUS
10
0.008848
20
0.135205
30
0.0
11
0.007591
21
0.136027
31
0.0
0
LINE
8
0
6
CONTINUOUS
10
0.008557
20
0.133951
30
0.0
11
0.008848
21
0.135205
31
0.0
0
LINE
8
0
6
CONTINUOUS
10
0.007009
20
0.133519
30
0.0
11
0.008557
21
0.133951
31
0.0
0
LINE
8
0
6
CONTINUOUS
10
0.005751
20
0.134341
30
0.0
11
0.007009
21
0.133519
31
0.0
0
LINE
8
0
6
CONTINUOUS
10
0.006756
20
0.157623
30
0.0
11
0.006464
21
0.156370
31
0.0
0
LINE
8
0
6
CONTINUOUS
10
0.008304
20
0.158055
30
0.0
11
0.006756
21
0.157623
31
0.0
0
LINE
8
0
6
CONTINUOUS
10
0.009561
20
0.157233
30
0.0
11
0.008304
21
0.158055
31
0.0
0
LINE
8
0
6
CONTINUOUS
10
0.009270
20
0.155979
30
0.0
11
0.009561
21
0.157233
31
0.0
0
LINE
8
0
6
CONTINUOUS
10
0.007722
20
0.155548
30
0.0
11
0.009270
21
0.155979
31
0.0
0
LINE
8
0
6
CONTINUOUS
10
0.006464
20
0.156370
30
0.0
11
0.007722
21
0.155548
31
0.0
0
LINE
8
0
6
CONTINUOUS
10
0.038759
20
0.147736
30
0.0
11
0.037502
21
0.146914
31
0.0
0
LINE
8
0
6
CONTINUOUS
10
0.040308
20
0.147305
30
0.0
11
0.038759
21
0.147736
31
0.0
0
LINE
8
0
6
CONTINUOUS
10
0.040599
20
0.146051
30
0.0
11
0.040308
21
0.147305
31
0.0
0
LINE
8
0
6
CONTINUOUS
10
0.039342
20
0.145229
30
0.0
11
0.040599
21
0.146051
31
0.0
0
LINE
8
0
6
CONTINUOUS
10
0.037793
20
0.145661
30
0.0
11
0.039342
21
0.145229
31
0.0
0
LINE
8
0
6
CONTINUOUS
10
0.037502
20
0.146914
30
0.0
11
0.037793
21
0.145661
31
0.0
0
LINE
8
0
6
CONTINUOUS
10
0.028582
20
0.137989
30
0.0
11
0.027325
21
0.137167
31
0.0
0
LINE
8
0
6
CONTINUOUS
10
0.030130
20
0.137557
30
0.0
11
0.028582
21
0.137989
31
0.0
0
LINE
8
0
6
CONTINUOUS
10
0.030421
20
0.136303
30
0.0
11
0.030130
21
0.137557
31
0.0
0
LINE
8
0
6
CONTINUOUS
10
0.029164
20
0.135481
30
0.0
11
0.030421
21
0.136303
31
0.0
0
LINE
8
0
6
CONTINUOUS
10
0.027616
20
0.135913
30
0.0
11
0.029164
21
0.135481
31
0.0
0
LINE
8
0
6
CONTINUOUS
10
0.027325
20
0.137167
30
0.0
11
0.027616
21
0.135913
31
0.0
0
LINE
8
0
6
CONTINUOUS
10
0.020537
20
0.140999
30
0.0
11
0.019280
21
0.140177
31
0.0
0
LINE
8
0
6
CONTINUOUS
10
0.022086
20
0.140567
30
0.0
11
0.020537
21
0.140999
31
0.0
0
LINE
8
0
6
CONTINUOUS
10
0.022377
20
0.139314
30
0.0
11
0.022086
21
0.140567
31
0.0
0
LINE
8
0
6
CONTINUOUS
10
0.021120
20
0.138492
30
0.0
11
0.022377
21
0.139314
31
0.0
0
LINE
8
0
6
CONTINUOUS
10
0.019571
20
0.138924
30
0.0
11
0.021120
21
0.138492
31
0.0
0
LINE
8
0
6
CONTINUOUS
10
0.019280
20
0.140177
30
0.0
11
0.019571
21
0.138924
31
0.0
0
LINE
8
0
6
CONTINUOUS
10
0.022929
20
0.152128
30
0.0
11
0.021672
21
0.151306
31
0.0
0
LINE
8
0
6
CONTINUOUS
10
0.024478
20
0.151696
30
0.0
11
0.022929
21
0.152128
31
0.0
0
LINE
8
0
6
CONTINUOUS
10
0.024769
20
0.150443
30
0.0
11
0.024478
21
0.151696
31
0.0
0
LINE
8
0
6
CONTINUOUS
10
0.023512
20
0.149621
30
0.0
11
0.024769
21
0.150443
31
0.0
0
LINE
8
0
6
CONTINUOUS
10
0.021963
20
0.150052
30
0.0
11
0.023512
21
0.149621
31
0.0
0
LINE
8
0
6
CONTINUOUS
10
0.021672
20
0.151306
30
0.0
11
0.021963
21
0.150052
31
0.0
0
LINE
8
0
6
CONTINUOUS
10
0.030804
20
0.149931
30
0.0
11
0.029547
21
0.149109
31
0.0
0
LINE
8
0
6
CONTINUOUS
10
0.032353
20
0.149499
30
0.0
11
0.030804
21
0.149931
31
0.0
0
LINE
8
0
6
CONTINUOUS
10
0.032644
20
0.148245
30
0.0
11
0.032353
21
0.149499
31
0.0
0
LINE
8
0
6
CONTINUOUS
10
0.031387
20
0.147423
30
0.0
11
0.032644
21
0.148245
31
0.0
0
LINE
8
0
6
CONTINUOUS
10
0.029838
20
0.147855
30
0.0
11
0.031387
21
0.147423
31
0.0
0
LINE
8
0
6
CONTINUOUS
10
0.029547
20
0.149109
30
0.0
11
0.029838
21
0.147855
31
0.0
0
LINE
8
0
6
CONTINUOUS
10
0.012163
20
0.144004
30
0.0
11
0.011872
21
0.142750
31
0.0
0
LINE
8
0
6
CONTINUOUS
10
0.013711
20
0.144436
30
0.0
11
0.012163
21
0.144004
31
0.0
0
LINE
8
0
6
CONTINUOUS
10
0.014969
20
0.143614
30
0.0
11
0.013711
21
0.144436
31
0.0
0
LINE
8
0
6
CONTINUOUS
10
0.014678
20
0.142360
30
0.0
11
0.014969
21
0.143614
31
0.0
0
LINE
8
0
6
CONTINUOUS
10
0.013129
20
0.141928
30
0.0
11
0.014678
21
0.142360
31
0.0
0
LINE
8
0
6
CONTINUOUS
10
0.011872
20
0.142750
30
0.0
11
0.013129
21
0.141928
31
0.0
0
LINE
8
0
6
CONTINUOUS
10
0.013844
20
0.130948
30
0.0
11
0.013553
21
0.129694
31
0.0
0
LINE
8
0
6
CONTINUOUS
10
0.015392
20
0.131379
30
0.0
11
0.013844
21
0.130948
31
0.0
0
LINE
8
0
6
CONTINUOUS
10
0.016650
20
0.130557
30
0.0
11
0.015392
21
0.131379
31
0.0
0
LINE
8
0
6
CONTINUOUS
10
0.016358
20
0.129304
30
0.0
11
0.016650
21
0.130557
31
0.0
0
LINE
8
0
6
CONTINUOUS
10
0.014810
20
0.128872
30
0.0
11
0.016358
21
0.129304
31
0.0
0
LINE
8
0
6
CONTINUOUS
10
0.013553
20
0.129694
30
0.0
11
0.014810
21
0.128872
31
0.0
0
LINE
8
0
6
CONTINUOUS
10
0.034470
20
0.160194
30
0.0
11
0.034179
21
0.158940
31
0.0
0
LINE
8
0
6
CONTINUOUS
10
0.036018
20
0.160626
30
0.0
11
0.034470
21
0.160194
31
0.0
0
LINE
8
0
6
CONTINUOUS
10
0.037276
20
0.159804
30
0.0
11
0.036018
21
0.160626
31
0.0
0
LINE
8
0
6
CONTINUOUS
10
0.036985
20
0.158550
30
0.0
11
0.037276
21
0.159804
31
0.0
0
LINE
8
0
6
CONTINUOUS
10
0.035436
20
0.158118
30
0.0
11
0.036985
21
0.158550
31
0.0
0
LINE
8
0
6
CONTINUOUS
10
0.034179
20
0.158940
30
0.0
11
0.035436
21
0.158118
31
0.0
0
LINE
8
0
6
CONTINUOUS
10
0.025663
20
0.162242
30
0.0
11
0.025371
21
0.160988
31
0.0
0
LINE
8
0
6
CONTINUOUS
10
0.027211
20
0.162674
30
0.0
11
0.025663
21
0.162242
31
0.0
0
LINE
8
0
6
CONTINUOUS
10
0.028468
20
0.161852
30
0.0
11
0.027211
21
0.162674
31
0.0
0
LINE
8
0
6
CONTINUOUS
10
0.028177
20
0.160598
30
0.0
11
0.028468
21
0.161852
31
0.0
0
LINE
8
0
6
CONTINUOUS
10
0.026629
20
0.160166
30
0.0
11
0.028177
21
0.160598
31
0.0
0
LINE
8
0
6
CONTINUOUS
10
0.025371
20
0.160988
30
0.0
11
0.026629
21
0.160166
31
0.0
0
LINE
8
0
6
CONTINUOUS
10
0.014235
20
0.154477
30
0.0
11
0.013944
21
0.153224
31
0.0
0
LINE
8
0
6
CONTINUOUS
10
0.015783
20
0.154909
30
0.0
11
0.014235
21
0.154477
31
0.0
0
LINE
8
0
6
CONTINUOUS
10
0.017040
20
0.154087
30
0.0
11
0.015783
21
0.154909
31
0.0
0
LINE
8
0
6
CONTINUOUS
10
0.016749
20
0.152833
30
0.0
11
0.017040
21
0.154087
31
0.0
0
LINE
8
0
6
CONTINUOUS
10
0.015201
20
0.152401
30
0.0
11
0.016749
21
0.152833
31
0.0
0
LINE
8
0
6
CONTINUOUS
10
0.013944
20
0.153224
30
0.0
11
0.015201
21
0.152401
31
0.0
0
LINE
8
0
6
CONTINUOUS
10
0.012794
20
0.188166
30
0.0
11
0.013555
21
0.187036
31
0.0
0
LINE
8
0
6
CONTINUOUS
10
0.013678
20
0.189240
30
0.0
11
0.012794
21
0.188166
31
0.0
0
LINE
8
0
6
CONTINUOUS
10
0.015322
20
0.189185
30
0.0
11
0.013678
21
0.189240
31
0.0
0
LINE
8
0
6
CONTINUOUS
10
0.016083
20
0.188056
30
0.0
11
0.015322
21
0.189185
31
0.0
0
LINE
8
0
6
CONTINUOUS
10
0.015199
20
0.186981
30
0.0
11
0.016083
21
0.188056
31
0.0
0
LINE
8
0
6
CONTINUOUS
10
0.013555
20
0.187036
30
0.0
11
0.015199
21
0.186981
31
0.0
0
LINE
8
0
6
CONTINUOUS
10
0.011858
20
0.179836
30
0.0
11
0.012619
21
0.178707
31
0.0
0
LINE
8
0
6
CONTINUOUS
10
0.012742
20
0.180911
30
0.0
11
0.011858
21
0.179836
31
0.0
0
LINE
8
0
6
CONTINUOUS
10
0.014386
20
0.180856
30
0.0
11
0.012742
21
0.180911
31
0.0
0
LINE
8
0
6
CONTINUOUS
10
0.015147
20
0.179726
30
0.0
11
0.014386
21
0.180856
31
0.0
0
LINE
8
0
6
CONTINUOUS
10
0.014263
20
0.178652
30
0.0
11
0.015147
21
0.179726
31
0.0
0
LINE
8
0
6
CONTINUOUS
10
0.012619
20
0.178707
30
0.0
11
0.014263
21
0.178652
31
0.0
0
LINE
8
0
6
CONTINUOUS
10
0.025192
20
0.181694
30
0.0
11
0.025628
21
0.180466
31
0.0
0
LINE
8
0
6
CONTINUOUS
10
0.026348
20
0.182601
30
0.0
11
0.025192
21
0.181694
31
0.0
0
LINE
8
0
6
CONTINUOUS
10
0.027940
20
0.182279
30
0.0
11
0.026348
21
0.182601
31
0.0
0
LINE
8
0
6
CONTINUOUS
10
0.028376
20
0.181051
30
0.0
11
0.027940
21
0.182279
31
0.0
0
LINE
8
0
6
CONTINUOUS
10
0.027220
20
0.180144
30
0.0
11
0.028376
21
0.181051
31
0.0
0
LINE
8
0
6
CONTINUOUS
10
0.025628
20
0.180466
30
0.0
11
0.027220
21
0.180144
31
0.0
0
LINE
8
0
6
CONTINUOUS
10
0.010016
20
0.172205
30
0.0
11
0.010452
21
0.170977
31
0.0
0
LINE
8
0
6
CONTINUOUS
10
0.011172
20
0.173112
30
0.0
11
0.010016
21
0.172205
31
0.0
0
LINE
8
0
6
CONTINUOUS
10
0.012765
20
0.172790
30
0.0
11
0.011172
21
0.173112
31
0.0
0
LINE
8
0
6
CONTINUOUS
10
0.013201
20
0.171561
30
0.0
11
0.012765
21
0.172790
31
0.0
0
LINE
8
0
6
CONTINUOUS
10
0.012045
20
0.170655
30
0.0
11
0.013201
21
0.171561
31
0.0
0
LINE
8
0
6
CONTINUOUS
10
0.010452
20
0.170977
30
0.0
11
0.012045
21
0.170655
31
0.0
0
LINE
8
0
6
CONTINUOUS
10
0.021782
20
0.172889
30
0.0
11
0.021874
21
0.171617
31
0.0
0
LINE
8
0
6
CONTINUOUS
10
0.023159
20
0.173586
30
0.0
11
0.021782
21
0.172889
31
0.0
0
LINE
8
0
6
CONTINUOUS
10
0.024628
20
0.173012
30
0.0
11
0.023159
21
0.173586
31
0.0
0
LINE
8
0
6
CONTINUOUS
10
0.024720
20
0.171740
30
0.0
11
0.024628
21
0.173012
31
0.0
0
LINE
8
0
6
CONTINUOUS
10
0.023343
20
0.171043
30
0.0
11
0.024720
21
0.171740
31
0.0
0
LINE
8
0
6
CONTINUOUS
10
0.021874
20
0.171617
30
0.0
11
0.023343
21
0.171043
31
0.0
0
LINE
8
0
6
CONTINUOUS
10
0.016366
20
0.163735
30
0.0
11
0.016458
21
0.162463
31
0.0
0
LINE
8
0
6
CONTINUOUS
10
0.017743
20
0.164433
30
0.0
11
0.016366
21
0.163735
31
0.0
0
LINE
8
0
6
CONTINUOUS
10
0.019212
20
0.163858
30
0.0
11
0.017743
21
0.164433
31
0.0
0
LINE
8
0
6
CONTINUOUS
10
0.019304
20
0.162587
30
0.0
11
0.019212
21
0.163858
31
0.0
0
LINE
8
0
6
CONTINUOUS
10
0.017927
20
0.161889
30
0.0
11
0.019304
21
0.162587
31
0.0
0
LINE
8
0
6
CONTINUOUS
10
0.016458
20
0.162463
30
0.0
11
0.017927
21
0.161889
31
0.0
0
LINE
8
0
6
CONTINUOUS
10
0.006356
20
0.164461
30
0.0
11
0.006448
21
0.163189
31
0.0
0
LINE
8
0
6
CONTINUOUS
10
0.007733
20
0.165159
30
0.0
11
0.006356
21
0.164461
31
0.0
0
LINE
8
0
6
CONTINUOUS
10
0.009202
20
0.164585
30
0.0
11
0.007733
21
0.165159
31
0.0
0
LINE
8
0
6
CONTINUOUS
10
0.009294
20
0.163313
30
0.0
11
0.009202
21
0.164585
31
0.0
0
LINE
8
0
6
CONTINUOUS
10
0.007917
20
0.162615
30
0.0
11
0.009294
21
0.163313
31
0.0
0
LINE
8
0
6
CONTINUOUS
10
0.006448
20
0.163189
30
0.0
11
0.007917
21
0.162615
31
0.0
0
LINE
8
0
6
CONTINUOUS
10
0.042770
20
0.170820
30
0.0
11
0.042479
21
0.169566
31
0.0
0
LINE
8
0
6
CONTINUOUS
10
0.044318
20
0.171251
30
0.0
11
0.042770
21
0.170820
31
0.0
0
LINE
8
0
6
CONTINUOUS
10
0.045576
20
0.170429
30
0.0
11
0.044318
21
0.171251
31
0.0
0
LINE
8
0
6
CONTINUOUS
10
0.045285
20
0.169176
30
0.0
11
0.045576
21
0.170429
31
0.0
0
LINE
8
0
6
CONTINUOUS
10
0.043736
20
0.168744
30
0.0
11
0.045285
21
0.169176
31
0.0
0
LINE
8
0
6
CONTINUOUS
10
0.042479
20
0.169566
30
0.0
11
0.043736
21
0.168744
31
0.0
0
LINE
8
0
6
CONTINUOUS
10
0.013491
20
0.196389
30
0.0
11
0.014542
21
0.195409
31
0.0
0
LINE
8
0
6
CONTINUOUS
10
0.014063
20
0.197584
30
0.0
11
0.013491
21
0.196389
31
0.0
0
LINE
8
0
6
CONTINUOUS
10
0.015685
20
0.197798
30
0.0
11
0.014063
21
0.197584
31
0.0
0
LINE
8
0
6
CONTINUOUS
10
0.016736
20
0.196817
30
0.0
11
0.015685
21
0.197798
31
0.0
0
LINE
8
0
6
CONTINUOUS
10
0.016165
20
0.195623
30
0.0
11
0.016736
21
0.196817
31
0.0
0
LINE
8
0
6
CONTINUOUS
10
0.014542
20
0.195409
30
0.0
11
0.016165
21
0.195623
31
0.0
0
LINE
8
0
6
CONTINUOUS
10
0.027095
20
0.191023
30
0.0
11
0.027531
21
0.189795
31
0.0
0
LINE
8
0
6
CONTINUOUS
10
0.028251
20
0.191929
30
0.0
11
0.027095
21
0.191023
31
0.0
0
LINE
8
0
6
CONTINUOUS
10
0.029844
20
0.191607
30
0.0
11
0.028251
21
0.191929
31
0.0
0
LINE
8
0
6
CONTINUOUS
10
0.030280
20
0.190379
30
0.0
11
0.029844
21
0.191607
31
0.0
0
LINE
8
0
6
CONTINUOUS
10
0.029123
20
0.189473
30
0.0
11
0.030280
21
0.190379
31
0.0
0
LINE
8
0
6
CONTINUOUS
10
0.027531
20
0.189795
30
0.0
11
0.029123
21
0.189473
31
0.0
0
LINE
8
0
6
CONTINUOUS
10
0.037238
20
0.182074
30
0.0
11
0.037330
21
0.180803
31
0.0
0
LINE
8
0
6
CONTINUOUS
10
0.038615
20
0.182772
30
0.0
11
0.037238
21
0.182074
31
0.0
0
LINE
8
0
6
CONTINUOUS
10
0.040084
20
0.182198
30
0.0
11
0.038615
21
0.182772
31
0.0
0
LINE
8
0
6
CONTINUOUS
10
0.040176
20
0.180926
30
0.0
11
0.040084
21
0.182198
31
0.0
0
LINE
8
0
6
CONTINUOUS
10
0.038799
20
0.180228
30
0.0
11
0.040176
21
0.180926
31
0.0
0
LINE
8
0
6
CONTINUOUS
10
0.037330
20
0.180803
30
0.0
11
0.038799
21
0.180228
31
0.0
0
LINE
8
0
6
CONTINUOUS
10
-0.039001
20
0.180368
30
0.0
11
-0.037532
21
0.180943
31
0.0
0
LINE
8
0
6
CONTINUOUS
10
-0.040378
20
0.181066
30
0.0
11
-0.039001
21
0.180368
31
0.0
0
LINE
8
0
6
CONTINUOUS
10
-0.040286
20
0.182338
30
0.0
11
-0.040378
21
0.181066
31
0.0
0
LINE
8
0
6
CONTINUOUS
10
-0.038817
20
0.182912
30
0.0
11
-0.040286
21
0.182338
31
0.0
0
LINE
8
0
6
CONTINUOUS
10
-0.037440
20
0.182214
30
0.0
11
-0.038817
21
0.182912
31
0.0
0
LINE
8
0
6
CONTINUOUS
10
-0.037532
20
0.180943
30
0.0
11
-0.037440
21
0.182214
31
0.0
0
LINE
8
0
6
CONTINUOUS
10
-0.029325
20
0.189573
30
0.0
11
-0.027733
21
0.189894
31
0.0
0
LINE
8
0
6
CONTINUOUS
10
-0.030482
20
0.190479
30
0.0
11
-0.029325
21
0.189573
31
0.0
0
LINE
8
0
6
CONTINUOUS
10
-0.030046
20
0.191707
30
0.0
11
-0.030482
21
0.190479
31
0.0
0
LINE
8
0
6
CONTINUOUS
10
-0.028453
20
0.192029
30
0.0
11
-0.030046
21
0.191707
31
0.0
0
LINE
8
0
6
CONTINUOUS
10
-0.027297
20
0.191123
30
0.0
11
-0.028453
21
0.192029
31
0.0
0
LINE
8
0
6
CONTINUOUS
10
-0.027733
20
0.189894
30
0.0
11
-0.027297
21
0.191123
31
0.0
0
LINE
8
0
6
CONTINUOUS
10
-0.001690
20
0.198155
30
0.0
11
-0.000575
21
0.197217
31
0.0
0
LINE
8
0
6
CONTINUOUS
10
-0.001198
20
0.199370
30
0.0
11
-0.001690
21
0.198155
31
0.0
0
LINE
8
0
6
CONTINUOUS
10
0.000408
20
0.199648
30
0.0
11
-0.001198
21
0.199370
31
0.0
0
LINE
8
0
6
CONTINUOUS
10
0.001523
20
0.198711
30
0.0
11
0.000408
21
0.199648
31
0.0
0
LINE
8
0
6
CONTINUOUS
10
0.001031
20
0.197495
30
0.0
11
0.001523
21
0.198711
31
0.0
0
LINE
8
0
6
CONTINUOUS
10
-0.000575
20
0.197217
30
0.0
11
0.001031
21
0.197495
31
0.0
0
LINE
8
0
6
CONTINUOUS
10
-0.016367
20
0.195679
30
0.0
11
-0.014745
21
0.195465
31
0.0
0
LINE
8
0
6
CONTINUOUS
10
-0.016938
20
0.196873
30
0.0
11
-0.016367
21
0.195679
31
0.0
0
LINE
8
0
6
CONTINUOUS
10
-0.015888
20
0.197854
30
0.0
11
-0.016938
21
0.196873
31
0.0
0
LINE
8
0
6
CONTINUOUS
10
-0.014265
20
0.197639
30
0.0
11
-0.015888
21
0.197854
31
0.0
0
LINE
8
0
6
CONTINUOUS
10
-0.013694
20
0.196445
30
0.0
11
-0.014265
21
0.197639
31
0.0
0
LINE
8
0
6
CONTINUOUS
10
-0.014745
20
0.195465
30
0.0
11
-0.013694
21
0.196445
31
0.0
0
LINE
8
0
6
CONTINUOUS
10
-0.043938
20
0.168883
30
0.0
11
-0.042680
21
0.169705
31
0.0
0
LINE
8
0
6
CONTINUOUS
10
-0.045486
20
0.169314
30
0.0
11
-0.043938
21
0.168883
31
0.0
0
LINE
8
0
6
CONTINUOUS
10
-0.045777
20
0.170568
30
0.0
11
-0.045486
21
0.169314
31
0.0
0
LINE
8
0
6
CONTINUOUS
10
-0.044520
20
0.171390
30
0.0
11
-0.045777
21
0.170568
31
0.0
0
LINE
8
0
6
CONTINUOUS
10
-0.042972
20
0.170958
30
0.0
11
-0.044520
21
0.171390
31
0.0
0
LINE
8
0
6
CONTINUOUS
10
-0.042680
20
0.169705
30
0.0
11
-0.042972
21
0.170958
31
0.0
0
LINE
8
0
6
CONTINUOUS
10
-0.008119
20
0.162638
30
0.0
11
-0.006650
21
0.163212
31
0.0
0
LINE
8
0
6
CONTINUOUS
10
-0.009496
20
0.163336
30
0.0
11
-0.008119
21
0.162638
31
0.0
0
LINE
8
0
6
CONTINUOUS
10
-0.009404
20
0.164608
30
0.0
11
-0.009496
21
0.163336
31
0.0
0
LINE
8
0
6
CONTINUOUS
10
-0.007935
20
0.165182
30
0.0
11
-0.009404
21
0.164608
31
0.0
0
LINE
8
0
6
CONTINUOUS
10
-0.006558
20
0.164484
30
0.0
11
-0.007935
21
0.165182
31
0.0
0
LINE
8
0
6
CONTINUOUS
10
-0.006650
20
0.163212
30
0.0
11
-0.006558
21
0.164484
31
0.0
0
LINE
8
0
6
CONTINUOUS
10
-0.018129
20
0.161949
30
0.0
11
-0.016660
21
0.162524
31
0.0
0
LINE
8
0
6
CONTINUOUS
10
-0.019506
20
0.162647
30
0.0
11
-0.018129
21
0.161949
31
0.0
0
LINE
8
0
6
CONTINUOUS
10
-0.019414
20
0.163919
30
0.0
11
-0.019506
21
0.162647
31
0.0
0
LINE
8
0
6
CONTINUOUS
10
-0.017945
20
0.164493
30
0.0
11
-0.019414
21
0.163919
31
0.0
0
LINE
8
0
6
CONTINUOUS
10
-0.016568
20
0.163795
30
0.0
11
-0.017945
21
0.164493
31
0.0
0
LINE
8
0
6
CONTINUOUS
10
-0.016660
20
0.162524
30
0.0
11
-0.016568
21
0.163795
31
0.0
0
LINE
8
0
6
CONTINUOUS
10
-0.023545
20
0.171107
30
0.0
11
-0.022075
21
0.171682
31
0.0
0
LINE
8
0
6
CONTINUOUS
10
-0.024922
20
0.171805
30
0.0
11
-0.023545
21
0.171107
31
0.0
0
LINE
8
0
6
CONTINUOUS
10
-0.024830
20
0.173077
30
0.0
11
-0.024922
21
0.171805
31
0.0
0
LINE
8
0
6
CONTINUOUS
10
-0.023360
20
0.173651
30
0.0
11
-0.024830
21
0.173077
31
0.0
0
LINE
8
0
6
CONTINUOUS
10
-0.021983
20
0.172953
30
0.0
11
-0.023360
21
0.173651
31
0.0
0
LINE
8
0
6
CONTINUOUS
10
-0.022075
20
0.171682
30
0.0
11
-0.021983
21
0.172953
31
0.0
0
LINE
8
0
6
CONTINUOUS
10
-0.034670
20
0.170227
30
0.0
11
-0.033201
21
0.170801
31
0.0
0
LINE
8
0
6
CONTINUOUS
10
-0.036047
20
0.170925
30
0.0
11
-0.034670
21
0.170227
31
0.0
0
LINE
8
0
6
CONTINUOUS
10
-0.035955
20
0.172197
30
0.0
11
-0.036047
21
0.170925
31
0.0
0
LINE
8
0
6
CONTINUOUS
10
-0.034486
20
0.172771
30
0.0
11
-0.035955
21
0.172197
31
0.0
0
LINE
8
0
6
CONTINUOUS
10
-0.033109
20
0.172073
30
0.0
11
-0.034486
21
0.172771
31
0.0
0
LINE
8
0
6
CONTINUOUS
10
-0.033201
20
0.170801
30
0.0
11
-0.033109
21
0.172073
31
0.0
0
LINE
8
0
6
CONTINUOUS
10
-0.000404
20
0.166276
30
0.0
11
0.001189
21
0.166598
31
0.0
0
LINE
8
0
6
CONTINUOUS
10
-0.001560
20
0.167182
30
0.0
11
-0.000404
21
0.166276
31
0.0
0
LINE
8
0
6
CONTINUOUS
10
-0.001124
20
0.168410
30
0.0
11
-0.001560
21
0.167182
31
0.0
0
LINE
8
0
6
CONTINUOUS
10
0.000468
20
0.168732
30
0.0
11
-0.001124
21
0.168410
31
0.0
0
LINE
8
0
6
CONTINUOUS
10
0.001625
20
0.167826
30
0.0
11
0.000468
21
0.168732
31
0.0
0
LINE
8
0
6
CONTINUOUS
10
0.001189
20
0.166598
30
0.0
11
0.001625
21
0.167826
31
0.0
0
LINE
8
0
6
CONTINUOUS
10
-0.012246
20
0.170683
30
0.0
11
-0.010654
21
0.171005
31
0.0
0
LINE
8
0
6
CONTINUOUS
10
-0.013403
20
0.171590
30
0.0
11
-0.012246
21
0.170683
31
0.0
0
LINE
8
0
6
CONTINUOUS
10
-0.012967
20
0.172818
30
0.0
11
-0.013403
21
0.171590
31
0.0
0
LINE
8
0
6
CONTINUOUS
10
-0.011374
20
0.173140
30
0.0
11
-0.012967
21
0.172818
31
0.0
0
LINE
8
0
6
CONTINUOUS
10
-0.010218
20
0.172234
30
0.0
11
-0.011374
21
0.173140
31
0.0
0
LINE
8
0
6
CONTINUOUS
10
-0.010654
20
0.171005
30
0.0
11
-0.010218
21
0.172234
31
0.0
0
LINE
8
0
6
CONTINUOUS
10
-0.027422
20
0.180246
30
0.0
11
-0.025830
21
0.180568
31
0.0
0
LINE
8
0
6
CONTINUOUS
10
-0.028578
20
0.181153
30
0.0
11
-0.027422
21
0.180246
31
0.0
0
LINE
8
0
6
CONTINUOUS
10
-0.028142
20
0.182381
30
0.0
11
-0.028578
21
0.181153
31
0.0
0
LINE
8
0
6
CONTINUOUS
10
-0.026550
20
0.182703
30
0.0
11
-0.028142
21
0.182381
31
0.0
0
LINE
8
0
6
CONTINUOUS
10
-0.025393
20
0.181796
30
0.0
11
-0.026550
21
0.182703
31
0.0
0
LINE
8
0
6
CONTINUOUS
10
-0.025830
20
0.180568
30
0.0
11
-0.025393
21
0.181796
31
0.0
0
LINE
8
0
6
CONTINUOUS
10
-0.014465
20
0.178682
30
0.0
11
-0.012821
21
0.178737
31
0.0
0
LINE
8
0
6
CONTINUOUS
10
-0.015349
20
0.179756
30
0.0
11
-0.014465
21
0.178682
31
0.0
0
LINE
8
0
6
CONTINUOUS
10
-0.014588
20
0.180886
30
0.0
11
-0.015349
21
0.179756
31
0.0
0
LINE
8
0
6
CONTINUOUS
10
-0.012944
20
0.180941
30
0.0
11
-0.014588
21
0.180886
31
0.0
0
LINE
8
0
6
CONTINUOUS
10
-0.012060
20
0.179867
30
0.0
11
-0.012944
21
0.180941
31
0.0
0
LINE
8
0
6
CONTINUOUS
10
-0.012821
20
0.178737
30
0.0
11
-0.012060
21
0.179867
31
0.0
0
LINE
8
0
6
CONTINUOUS
10
-0.015401
20
0.187039
30
0.0
11
-0.013757
21
0.187094
31
0.0
0
LINE
8
0
6
CONTINUOUS
10
-0.016285
20
0.188114
30
0.0
11
-0.015401
21
0.187039
31
0.0
0
LINE
8
0
6
CONTINUOUS
10
-0.015524
20
0.189243
30
0.0
11
-0.016285
21
0.188114
31
0.0
0
LINE
8
0
6
CONTINUOUS
10
-0.013880
20
0.189299
30
0.0
11
-0.015524
21
0.189243
31
0.0
0
LINE
8
0
6
CONTINUOUS
10
-0.012996
20
0.188224
30
0.0
11
-0.013880
21
0.189299
31
0.0
0
LINE
8
0
6
CONTINUOUS
10
-0.013757
20
0.187094
30
0.0
11
-0.012996
21
0.188224
31
0.0
0
LINE
8
0
6
CONTINUOUS
10
-0.001473
20
0.181544
30
0.0
11
0.000149
21
0.181330
31
0.0
0
LINE
8
0
6
CONTINUOUS
10
-0.002045
20
0.182738
30
0.0
11
-0.001473
21
0.181544
31
0.0
0
LINE
8
0
6
CONTINUOUS
10
-0.000994
20
0.183719
30
0.0
11
-0.002045
21
0.182738
31
0.0
0
LINE
8
0
6
CONTINUOUS
10
0.000629
20
0.183505
30
0.0
11
-0.000994
21
0.183719
31
0.0
0
LINE
8
0
6
CONTINUOUS
10
0.001200
20
0.182310
30
0.0
11
0.000629
21
0.183505
31
0.0
0
LINE
8
0
6
CONTINUOUS
10
0.000149
20
0.181330
30
0.0
11
0.001200
21
0.182310
31
0.0
0
LINE
8
0
6
CONTINUOUS
10
-0.001356
20
0.189712
30
0.0
11
0.000267
21
0.189498
31
0.0
0
LINE
8
0
6
CONTINUOUS
10
-0.001927
20
0.190907
30
0.0
11
-0.001356
21
0.189712
31
0.0
0
LINE
8
0
6
CONTINUOUS
10
-0.000876
20
0.191887
30
0.0
11
-0.001927
21
0.190907
31
0.0
0
LINE
8
0
6
CONTINUOUS
10
0.000746
20
0.191673
30
0.0
11
-0.000876
21
0.191887
31
0.0
0
LINE
8
0
6
CONTINUOUS
10
0.001317
20
0.190478
30
0.0
11
0.000746
21
0.191673
31
0.0
0
LINE
8
0
6
CONTINUOUS
10
0.000267
20
0.189498
30
0.0
11
0.001317
21
0.190478
31
0.0
0
LINE
8
0
6
CONTINUOUS
10
-0.015402
20
0.152459
30
0.0
11
-0.014145
21
0.153281
31
0.0
0
LINE
8
0
6
CONTINUOUS
10
-0.016951
20
0.152891
30
0.0
11
-0.015402
21
0.152459
31
0.0
0
LINE
8
0
6
CONTINUOUS
10
-0.017242
20
0.154144
30
0.0
11
-0.016951
21
0.152891
31
0.0
0
LINE
8
0
6
CONTINUOUS
10
-0.015985
20
0.154966
30
0.0
11
-0.017242
21
0.154144
31
0.0
0
LINE
8
0
6
CONTINUOUS
10
-0.014436
20
0.154535
30
0.0
11
-0.015985
21
0.154966
31
0.0
0
LINE
8
0
6
CONTINUOUS
10
-0.014145
20
0.153281
30
0.0
11
-0.014436
21
0.154535
31
0.0
0
LINE
8
0
6
CONTINUOUS
10
-0.026830
20
0.160254
30
0.0
11
-0.025573
21
0.161076
31
0.0
0
LINE
8
0
6
CONTINUOUS
10
-0.028379
20
0.160685
30
0.0
11
-0.026830
21
0.160254
31
0.0
0
LINE
8
0
6
CONTINUOUS
10
-0.028670
20
0.161939
30
0.0
11
-0.028379
21
0.160685
31
0.0
0
LINE
8
0
6
CONTINUOUS
10
-0.027413
20
0.162761
30
0.0
11
-0.028670
21
0.161939
31
0.0
0
LINE
8
0
6
CONTINUOUS
10
-0.025864
20
0.162329
30
0.0
11
-0.027413
21
0.162761
31
0.0
0
LINE
8
0
6
CONTINUOUS
10
-0.025573
20
0.161076
30
0.0
11
-0.025864
21
0.162329
31
0.0
0
LINE
8
0
6
CONTINUOUS
10
-0.035637
20
0.158225
30
0.0
11
-0.034380
21
0.159047
31
0.0
0
LINE
8
0
6
CONTINUOUS
10
-0.037186
20
0.158657
30
0.0
11
-0.035637
21
0.158225
31
0.0
0
LINE
8
0
6
CONTINUOUS
10
-0.037477
20
0.159911
30
0.0
11
-0.037186
21
0.158657
31
0.0
0
LINE
8
0
6
CONTINUOUS
10
-0.036220
20
0.160733
30
0.0
11
-0.037477
21
0.159911
31
0.0
0
LINE
8
0
6
CONTINUOUS
10
-0.034671
20
0.160301
30
0.0
11
-0.036220
21
0.160733
31
0.0
0
LINE
8
0
6
CONTINUOUS
10
-0.034380
20
0.159047
30
0.0
11
-0.034671
21
0.160301
31
0.0
0
LINE
8
0
6
CONTINUOUS
10
-0.015011
20
0.129298
30
0.0
11
-0.013753
21
0.130120
31
0.0
0
LINE
8
0
6
CONTINUOUS
10
-0.016559
20
0.129730
30
0.0
11
-0.015011
21
0.129298
31
0.0
0
LINE
8
0
6
CONTINUOUS
10
-0.016850
20
0.130984
30
0.0
11
-0.016559
21
0.129730
31
0.0
0
LINE
8
0
6
CONTINUOUS
10
-0.015593
20
0.131806
30
0.0
11
-0.016850
21
0.130984
31
0.0
0
LINE
8
0
6
CONTINUOUS
10
-0.014044
20
0.131374
30
0.0
11
-0.015593
21
0.131806
31
0.0
0
LINE
8
0
6
CONTINUOUS
10
-0.013753
20
0.130120
30
0.0
11
-0.014044
21
0.131374
31
0.0
0
LINE
8
0
6
CONTINUOUS
10
0.000079
20
0.127431
30
0.0
11
0.001337
21
0.128253
31
0.0
0
LINE
8
0
6
CONTINUOUS
10
-0.001469
20
0.127863
30
0.0
11
0.000079
21
0.127431
31
0.0
0
LINE
8
0
6
CONTINUOUS
10
-0.001760
20
0.129117
30
0.0
11
-0.001469
21
0.127863
31
0.0
0
LINE
8
0
6
CONTINUOUS
10
-0.000503
20
0.129939
30
0.0
11
-0.001760
21
0.129117
31
0.0
0
LINE
8
0
6
CONTINUOUS
10
0.001045
20
0.129507
30
0.0
11
-0.000503
21
0.129939
31
0.0
0
LINE
8
0
6
CONTINUOUS
10
0.001337
20
0.128253
30
0.0
11
0.001045
21
0.129507
31
0.0
0
LINE
8
0
6
CONTINUOUS
10
-0.013330
20
0.141967
30
0.0
11
-0.012073
21
0.142789
31
0.0
0
LINE
8
0
6
CONTINUOUS
10
-0.014879
20
0.142399
30
0.0
11
-0.013330
21
0.141967
31
0.0
0
LINE
8
0
6
CONTINUOUS
10
-0.015170
20
0.143652
30
0.0
11
-0.014879
21
0.142399
31
0.0
0
LINE
8
0
6
CONTINUOUS
10
-0.013913
20
0.144474
30
0.0
11
-0.015170
21
0.143652
31
0.0
0
LINE
8
0
6
CONTINUOUS
10
-0.012364
20
0.144042
30
0.0
11
-0.013913
21
0.144474
31
0.0
0
LINE
8
0
6
CONTINUOUS
10
-0.012073
20
0.142789
30
0.0
11
-0.012364
21
0.144042
31
0.0
0
LINE
8
0
6
CONTINUOUS
10
-0.030039
20
0.147939
30
0.0
11
-0.029748
21
0.149192
31
0.0
0
LINE
8
0
6
CONTINUOUS
10
-0.031588
20
0.147507
30
0.0
11
-0.030039
21
0.147939
31
0.0
0
LINE
8
0
6
CONTINUOUS
10
-0.032845
20
0.148329
30
0.0
11
-0.031588
21
0.147507
31
0.0
0
LINE
8
0
6
CONTINUOUS
10
-0.032554
20
0.149583
30
0.0
11
-0.032845
21
0.148329
31
0.0
0
LINE
8
0
6
CONTINUOUS
10
-0.031005
20
0.150014
30
0.0
11
-0.032554
21
0.149583
31
0.0
0
LINE
8
0
6
CONTINUOUS
10
-0.029748
20
0.149192
30
0.0
11
-0.031005
21
0.150014
31
0.0
0
LINE
8
0
6
CONTINUOUS
10
-0.022165
20
0.150123
30
0.0
11
-0.021873
21
0.151376
31
0.0
0
LINE
8
0
6
CONTINUOUS
10
-0.023713
20
0.149691
30
0.0
11
-0.022165
21
0.150123
31
0.0
0
LINE
8
0
6
CONTINUOUS
10
-0.024970
20
0.150513
30
0.0
11
-0.023713
21
0.149691
31
0.0
0
LINE
8
0
6
CONTINUOUS
10
-0.024679
20
0.151767
30
0.0
11
-0.024970
21
0.150513
31
0.0
0
LINE
8
0
6
CONTINUOUS
10
-0.023131
20
0.152198
30
0.0
11
-0.024679
21
0.151767
31
0.0
0
LINE
8
0
6
CONTINUOUS
10
-0.021873
20
0.151376
30
0.0
11
-0.023131
21
0.152198
31
0.0
0
LINE
8
0
6
CONTINUOUS
10
-0.019772
20
0.138859
30
0.0
11
-0.019481
21
0.140113
31
0.0
0
LINE
8
0
6
CONTINUOUS
10
-0.021320
20
0.138427
30
0.0
11
-0.019772
21
0.138859
31
0.0
0
LINE
8
0
6
CONTINUOUS
10
-0.022578
20
0.139249
30
0.0
11
-0.021320
21
0.138427
31
0.0
0
LINE
8
0
6
CONTINUOUS
10
-0.022287
20
0.140503
30
0.0
11
-0.022578
21
0.139249
31
0.0
0
LINE
8
0
6
CONTINUOUS
10
-0.020738
20
0.140935
30
0.0
11
-0.022287
21
0.140503
31
0.0
0
LINE
8
0
6
CONTINUOUS
10
-0.019481
20
0.140113
30
0.0
11
-0.020738
21
0.140935
31
0.0
0
LINE
8
0
6
CONTINUOUS
10
-0.027816
20
0.136129
30
0.0
11
-0.027525
21
0.137383
31
0.0
0
LINE
8
0
6
CONTINUOUS
10
-0.029365
20
0.135697
30
0.0
11
-0.027816
21
0.136129
31
0.0
0
LINE
8
0
6
CONTINUOUS
10
-0.030622
20
0.136519
30
0.0
11
-0.029365
21
0.135697
31
0.0
0
LINE
8
0
6
CONTINUOUS
10
-0.030331
20
0.137773
30
0.0
11
-0.030622
21
0.136519
31
0.0
0
LINE
8
0
6
CONTINUOUS
10
-0.028783
20
0.138205
30
0.0
11
-0.030331
21
0.137773
31
0.0
0
LINE
8
0
6
CONTINUOUS
10
-0.027525
20
0.137383
30
0.0
11
-0.028783
21
0.138205
31
0.0
0
LINE
8
0
6
CONTINUOUS
10
-0.037994
20
0.145790
30
0.0
11
-0.037703
21
0.147044
31
0.0
0
LINE
8
0
6
CONTINUOUS
10
-0.039543
20
0.145358
30
0.0
11
-0.037994
21
0.145790
31
0.0
0
LINE
8
0
6
CONTINUOUS
10
-0.040800
20
0.146180
30
0.0
11
-0.039543
21
0.145358
31
0.0
0
LINE
8
0
6
CONTINUOUS
10
-0.040509
20
0.147434
30
0.0
11
-0.040800
21
0.146180
31
0.0
0
LINE
8
0
6
CONTINUOUS
10
-0.038960
20
0.147866
30
0.0
11
-0.040509
21
0.147434
31
0.0
0
LINE
8
0
6
CONTINUOUS
10
-0.037703
20
0.147044
30
0.0
11
-0.038960
21
0.147866
31
0.0
0
LINE
8
0
6
CONTINUOUS
10
-0.007923
20
0.155572
30
0.0
11
-0.006666
21
0.156394
31
0.0
0
LINE
8
0
6
CONTINUOUS
10
-0.009472
20
0.156004
30
0.0
11
-0.007923
21
0.155572
31
0.0
0
LINE
8
0
6
CONTINUOUS
10
-0.009763
20
0.157257
30
0.0
11
-0.009472
21
0.156004
31
0.0
0
LINE
8
0
6
CONTINUOUS
10
-0.008506
20
0.158079
30
0.0
11
-0.009763
21
0.157257
31
0.0
0
LINE
8
0
6
CONTINUOUS
10
-0.006957
20
0.157648
30
0.0
11
-0.008506
21
0.158079
31
0.0
0
LINE
8
0
6
CONTINUOUS
10
-0.006666
20
0.156394
30
0.0
11
-0.006957
21
0.157648
31
0.0
0
LINE
8
0
6
CONTINUOUS
10
-0.007209
20
0.133565
30
0.0
11
-0.005952
21
0.134387
31
0.0
0
LINE
8
0
6
CONTINUOUS
10
-0.008758
20
0.133997
30
0.0
11
-0.007209
21
0.133565
31
0.0
0
LINE
8
0
6
CONTINUOUS
10
-0.009049
20
0.135250
30
0.0
11
-0.008758
21
0.133997
31
0.0
0
LINE
8
0
6
CONTINUOUS
10
-0.007792
20
0.136072
30
0.0
11
-0.009049
21
0.135250
31
0.0
0
LINE
8
0
6
CONTINUOUS
10
-0.006243
20
0.135641
30
0.0
11
-0.007792
21
0.136072
31
0.0
0
LINE
8
0
6
CONTINUOUS
10
-0.005952
20
0.134387
30
0.0
11
-0.006243
21
0.135641
31
0.0
0
LINE
8
0
6
CONTINUOUS
10
0.000016
20
0.138836
30
0.0
11
0.001273
21
0.139658
31
0.0
0
LINE
8
0
6
CONTINUOUS
10
-0.001533
20
0.139268
30
0.0
11
0.000016
21
0.138836
31
0.0
0
LINE
8
0
6
CONTINUOUS
10
-0.001824
20
0.140522
30
0.0
11
-0.001533
21
0.139268
31
0.0
0
LINE
8
0
6
CONTINUOUS
10
-0.000566
20
0.141344
30
0.0
11
-0.001824
21
0.140522
31
0.0
0
LINE
8
0
6
CONTINUOUS
10
0.000982
20
0.140912
30
0.0
11
-0.000566
21
0.141344
31
0.0
0
LINE
8
0
6
CONTINUOUS
10
0.001273
20
0.139658
30
0.0
11
0.000982
21
0.140912
31
0.0
0
LINE
8
0
6
CONTINUOUS
10
-0.006146
20
0.146394
30
0.0
11
-0.004889
21
0.147216
31
0.0
0
LINE
8
0
6
CONTINUOUS
10
-0.007695
20
0.146826
30
0.0
11
-0.006146
21
0.146394
31
0.0
0
LINE
8
0
6
CONTINUOUS
10
-0.007986
20
0.148079
30
0.0
11
-0.007695
21
0.146826
31
0.0
0
LINE
8
0
6
CONTINUOUS
10
-0.006729
20
0.148901
30
0.0
11
-0.007986
21
0.148079
31
0.0
0
LINE
8
0
6
CONTINUOUS
10
-0.005180
20
0.148470
30
0.0
11
-0.006729
21
0.148901
31
0.0
0
LINE
8
0
6
CONTINUOUS
10
-0.004889
20
0.147216
30
0.0
11
-0.005180
21
0.148470
31
0.0
0
LINE
8
0
6
CONTINUOUS
10
0.000267
20
0.151682
30
0.0
11
0.001525
21
0.152504
31
0.0
0
LINE
8
0
6
CONTINUOUS
10
-0.001281
20
0.152114
30
0.0
11
0.000267
21
0.151682
31
0.0
0
LINE
8
0
6
CONTINUOUS
10
-0.001572
20
0.153368
30
0.0
11
-0.001281
21
0.152114
31
0.0
0
LINE
8
0
6
CONTINUOUS
10
-0.000315
20
0.154190
30
0.0
11
-0.001572
21
0.153368
31
0.0
0
LINE
8
0
6
CONTINUOUS
10
0.001234
20
0.153758
30
0.0
11
-0.000315
21
0.154190
31
0.0
0
LINE
8
0
6
CONTINUOUS
10
0.001525
20
0.152504
30
0.0
11
0.001234
21
0.153758
31
0.0
0
LINE
8
0
6
CONTINUOUS
10
-0.001745
20
0.175081
30
0.0
11
-0.000985
21
0.173952
31
0.0
0
LINE
8
0
6
CONTINUOUS
10
-0.000862
20
0.176156
30
0.0
11
-0.001745
21
0.175081
31
0.0
0
LINE
8
0
6
CONTINUOUS
10
0.000783
20
0.176101
30
0.0
11
-0.000862
21
0.176156
31
0.0
0
LINE
8
0
6
CONTINUOUS
10
0.001543
20
0.174971
30
0.0
11
0.000783
21
0.176101
31
0.0
0
LINE
8
0
6
CONTINUOUS
10
0.000660
20
0.173897
30
0.0
11
0.001543
21
0.174971
31
0.0
0
LINE
8
0
6
CONTINUOUS
10
-0.000985
20
0.173952
30
0.0
11
0.000660
21
0.173897
31
0.0
0
LINE
8
0
6
CONTINUOUS
10
-0.043142
20
0.157333
30
0.0
11
-0.042851
21
0.158587
31
0.0
0
LINE
8
0
6
CONTINUOUS
10
-0.044690
20
0.156901
30
0.0
11
-0.043142
21
0.157333
31
0.0
0
LINE
8
0
6
CONTINUOUS
10
-0.045948
20
0.157723
30
0.0
11
-0.044690
21
0.156901
31
0.0
0
LINE
8
0
6
CONTINUOUS
10
-0.045657
20
0.158977
30
0.0
11
-0.045948
21
0.157723
31
0.0
0
LINE
8
0
6
CONTINUOUS
10
-0.044108
20
0.159409
30
0.0
11
-0.045657
21
0.158977
31
0.0
0
LINE
8
0
6
CONTINUOUS
10
-0.042851
20
0.158587
30
0.0
11
-0.044108
21
0.159409
31
0.0
0
LINE
8
0
6
CONTINUOUS
10
-0.052128
20
0.154667
30
0.0
11
-0.050108
21
0.147341
31
0.0
0
LINE
8
0
6
CONTINUOUS
10
-0.015138
20
0.056659
30
0.0
11
-0.013609
21
0.022930
31
0.0
0
LINE
8
0
6
CONTINUOUS
10
-0.016272
20
0.082601
30
0.0
11
-0.015138
21
0.056659
31
0.0
0
LINE
8
0
6
CONTINUOUS
10
-0.017344
20
0.103012
30
0.0
11
-0.016272
21
0.082601
31
0.0
0
LINE
8
0
6
CONTINUOUS
10
-0.018322
20
0.116761
30
0.0
11
-0.017344
21
0.103012
31
0.0
0
LINE
8
0
6
CONTINUOUS
10
-0.053685
20
0.185221
30
0.0
11
-0.054239
21
0.178398
31
0.0
0
LINE
8
0
6
CONTINUOUS
10
-0.052700
20
0.158425
30
0.0
11
-0.052148
21
0.154801
31
0.0
0
LINE
8
0
6
CONTINUOUS
10
-0.053771
20
0.166286
30
0.0
11
-0.052700
21
0.158425
31
0.0
0
LINE
8
0
6
CONTINUOUS
10
-0.000000
20
0.218688
30
0.0
11
-0.012608
21
0.218244
31
0.0
0
LINE
8
0
6
CONTINUOUS
10
-0.012608
20
0.218244
30
0.0
11
-0.024977
21
0.216540
31
0.0
0
LINE
8
0
6
CONTINUOUS
10
-0.024977
20
0.216540
30
0.0
11
-0.033938
21
0.214071
31
0.0
0
LINE
8
0
6
CONTINUOUS
10
-0.041806
20
0.209012
30
0.0
11
-0.047043
21
0.203662
31
0.0
0
LINE
8
0
6
CONTINUOUS
10
-0.040733
20
0.209817
30
0.0
11
-0.041806
21
0.209012
31
0.0
0
LINE
8
0
6
CONTINUOUS
10
-0.033938
20
0.214071
30
0.0
11
-0.040733
21
0.209817
31
0.0
0
LINE
8
0
6
CONTINUOUS
10
-0.023903
20
0.126022
30
0.0
11
-0.019505
21
0.121064
31
0.0
0
LINE
8
0
6
CONTINUOUS
10
-0.044026
20
0.138904
30
0.0
11
-0.046961
21
0.142448
31
0.0
0
LINE
8
0
6
CONTINUOUS
10
-0.047510
20
0.142356
30
0.0
11
-0.044527
21
0.138821
31
0.0
0
LINE
8
0
6
CONTINUOUS
10
-0.036858
20
0.134028
30
0.0
11
-0.040513
21
0.136108
31
0.0
0
LINE
8
0
6
CONTINUOUS
10
-0.040985
20
0.136046
30
0.0
11
-0.037300
21
0.133987
31
0.0
0
LINE
8
0
6
CONTINUOUS
10
-0.025482
20
0.204349
30
0.0
11
-0.012752
21
0.206300
31
0.0
0
LINE
8
0
6
CONTINUOUS
10
-0.037300
20
0.133987
30
0.0
11
-0.028753
21
0.129930
31
0.0
0
LINE
8
0
6
CONTINUOUS
10
-0.028400
20
0.129923
30
0.0
11
-0.036858
21
0.134028
31
0.0
0
LINE
8
0
6
CONTINUOUS
10
-0.049396
20
0.146985
30
0.0
11
-0.051080
21
0.153945
31
0.0
0
LINE
8
0
6
CONTINUOUS
10
-0.051847
20
0.153889
30
0.0
11
-0.049992
21
0.146883
31
0.0
0
LINE
8
0
6
CONTINUOUS
10
-0.028714
20
0.129838
30
0.0
11
-0.023903
21
0.126022
31
0.0
0
LINE
8
0
6
CONTINUOUS
10
-0.047043
20
0.203662
30
0.0
11
-0.050499
21
0.197694
31
0.0
0
LINE
8
0
6
CONTINUOUS
10
-0.013609
20
0.022930
30
0.0
11
-0.012349
21
0.007231
31
0.0
0
LINE
8
0
6
CONTINUOUS
10
-0.020254
20
0.121908
30
0.0
11
-0.017379
21
0.114252
31
0.0
0
LINE
8
0
6
CONTINUOUS
10
-0.052148
20
0.154801
30
0.0
11
-0.052128
21
0.154667
31
0.0
0
LINE
8
0
6
CONTINUOUS
10
-0.002608
20
0.002930
30
0.0
11
0.000000
21
0.002834
31
0.0
0
LINE
8
0
6
CONTINUOUS
10
-0.005426
20
0.003210
30
0.0
11
-0.002608
21
0.002930
31
0.0
0
LINE
8
0
6
CONTINUOUS
10
-0.007833
20
0.003656
30
0.0
11
-0.005426
21
0.003210
31
0.0
0
LINE
8
0
6
CONTINUOUS
10
-0.009682
20
0.004237
30
0.0
11
-0.007833
21
0.003656
31
0.0
0
LINE
8
0
6
CONTINUOUS
10
-0.010295
20
0.004580
30
0.0
11
-0.009682
21
0.004237
31
0.0
0
LINE
8
0
6
CONTINUOUS
10
-0.010915
20
0.004928
30
0.0
11
-0.010295
21
0.004580
31
0.0
0
LINE
8
0
6
CONTINUOUS
10
-0.011228
20
0.005206
30
0.0
11
-0.010915
21
0.004928
31
0.0
0
LINE
8
0
6
CONTINUOUS
10
-0.011676
20
0.005613
30
0.0
11
-0.011228
21
0.005206
31
0.0
0
LINE
8
0
6
CONTINUOUS
10
-0.012142
20
0.006035
30
0.0
11
-0.011676
21
0.005613
31
0.0
0
LINE
8
0
6
CONTINUOUS
10
-0.012349
20
0.007231
30
0.0
11
-0.012343
21
0.007089
31
0.0
0
LINE
8
0
6
CONTINUOUS
10
-0.012343
20
0.007089
30
0.0
11
-0.012142
21
0.006035
31
0.0
0
LINE
8
0
6
CONTINUOUS
10
-0.008121
20
0.100922
30
0.0
11
-0.011243
21
0.103037
31
0.0
0
LINE
8
0
6
CONTINUOUS
10
-0.003834
20
0.100000
30
0.0
11
-0.008121
21
0.100922
31
0.0
0
LINE
8
0
6
CONTINUOUS
10
0.000000
20
0.099724
30
0.0
11
-0.003834
21
0.100000
31
0.0
0
LINE
8
0
6
CONTINUOUS
10
-0.011243
20
0.103037
30
0.0
11
-0.013498
21
0.112296
31
0.0
0
LINE
8
0
6
CONTINUOUS
10
-0.013498
20
0.112296
30
0.0
11
-0.017214
21
0.121123
31
0.0
0
LINE
8
0
6
CONTINUOUS
10
-0.023533
20
0.126508
30
0.0
11
-0.028400
21
0.129923
31
0.0
0
LINE
8
0
6
CONTINUOUS
10
-0.040066
20
0.198292
30
0.0
11
-0.034395
21
0.201536
31
0.0
0
LINE
8
0
6
CONTINUOUS
10
-0.034395
20
0.201536
30
0.0
11
-0.025482
21
0.204349
31
0.0
0
LINE
8
0
6
CONTINUOUS
10
-0.012752
20
0.206300
30
0.0
11
-0.000001
21
0.206887
31
0.0
0
LINE
8
0
6
CONTINUOUS
10
-0.052058
20
0.168861
30
0.0
11
-0.051413
21
0.175481
31
0.0
0
LINE
8
0
6
CONTINUOUS
10
-0.044921
20
0.193689
30
0.0
11
-0.040066
21
0.198292
31
0.0
0
LINE
8
0
6
CONTINUOUS
10
-0.048257
20
0.187736
30
0.0
11
-0.044921
21
0.193689
31
0.0
0
LINE
8
0
6
CONTINUOUS
10
-0.051080
20
0.153945
30
0.0
11
-0.052037
21
0.161628
31
0.0
0
LINE
8
0
6
CONTINUOUS
10
-0.020290
20
0.125043
30
0.0
11
-0.023533
21
0.126508
31
0.0
0
LINE
8
0
6
CONTINUOUS
10
-0.017214
20
0.121123
30
0.0
11
-0.019966
21
0.124896
31
0.0
0
LINE
8
0
6
CONTINUOUS
10
-0.019966
20
0.124896
30
0.0
11
-0.020290
21
0.125043
31
0.0
0
LINE
8
0
6
CONTINUOUS
10
-0.046961
20
0.142448
30
0.0
11
-0.049396
21
0.146985
31
0.0
0
LINE
8
0
6
CONTINUOUS
10
-0.049992
20
0.146883
30
0.0
11
-0.047510
21
0.142356
31
0.0
0
LINE
8
0
6
CONTINUOUS
10
-0.040513
20
0.136108
30
0.0
11
-0.044026
21
0.138904
31
0.0
0
LINE
8
0
6
CONTINUOUS
10
-0.044527
20
0.138821
30
0.0
11
-0.040985
21
0.136046
31
0.0
0
LINE
8
0
6
CONTINUOUS
10
-0.054015
20
0.171075
30
0.0
11
-0.053994
21
0.170711
31
0.0
0
LINE
8
0
6
CONTINUOUS
10
-0.054239
20
0.178398
30
0.0
11
-0.054015
21
0.171075
31
0.0
0
LINE
8
0
6
CONTINUOUS
10
-0.053994
20
0.170711
30
0.0
11
-0.053771
21
0.166286
31
0.0
0
LINE
8
0
6
CONTINUOUS
10
-0.052037
20
0.161628
30
0.0
11
-0.052058
21
0.168861
31
0.0
0
LINE
8
0
6
CONTINUOUS
10
-0.050499
20
0.197694
30
0.0
11
-0.052410
21
0.191726
31
0.0
0
LINE
8
0
6
CONTINUOUS
10
-0.050047
20
0.181784
30
0.0
11
-0.048257
21
0.187736
31
0.0
0
LINE
8
0
6
CONTINUOUS
10
-0.052410
20
0.191726
30
0.0
11
-0.053685
21
0.185221
31
0.0
0
LINE
8
0
6
CONTINUOUS
10
-0.051413
20
0.175481
30
0.0
11
-0.050047
21
0.181784
31
0.0
0
LINE
8
0
6
CONTINUOUS
10
0.050108
20
0.147340
30
0.0
11
0.052128
21
0.154667
31
0.0
0
LINE
8
0
6
CONTINUOUS
10
0.013611
20
0.022930
30
0.0
11
0.015139
21
0.056659
31
0.0
0
LINE
8
0
6
CONTINUOUS
10
0.015139
20
0.056659
30
0.0
11
0.016273
21
0.082601
31
0.0
0
LINE
8
0
6
CONTINUOUS
10
0.016273
20
0.082601
30
0.0
11
0.017345
21
0.103012
31
0.0
0
LINE
8
0
6
CONTINUOUS
10
0.017345
20
0.103012
30
0.0
11
0.018323
21
0.116763
31
0.0
0
LINE
8
0
6
CONTINUOUS
10
0.054239
20
0.178398
30
0.0
11
0.053685
21
0.185220
31
0.0
0
LINE
8
0
6
CONTINUOUS
10
0.052700
20
0.158424
30
0.0
11
0.053771
21
0.166286
31
0.0
0
LINE
8
0
6
CONTINUOUS
10
0.052148
20
0.154801
30
0.0
11
0.052700
21
0.158424
31
0.0
0
LINE
8
0
6
CONTINUOUS
10
0.012607
20
0.218244
30
0.0
11
-0.000000
21
0.218688
31
0.0
0
LINE
8
0
6
CONTINUOUS
10
0.024976
20
0.216539
30
0.0
11
0.012607
21
0.218244
31
0.0
0
LINE
8
0
6
CONTINUOUS
10
0.033937
20
0.214071
30
0.0
11
0.024976
21
0.216539
31
0.0
0
LINE
8
0
6
CONTINUOUS
10
0.047042
20
0.203661
30
0.0
11
0.041805
21
0.209012
31
0.0
0
LINE
8
0
6
CONTINUOUS
10
0.040732
20
0.209817
30
0.0
11
0.033937
21
0.214071
31
0.0
0
LINE
8
0
6
CONTINUOUS
10
0.041805
20
0.209012
30
0.0
11
0.040732
21
0.209817
31
0.0
0
LINE
8
0
6
CONTINUOUS
10
0.019505
20
0.121063
30
0.0
11
0.023903
21
0.126022
31
0.0
0
LINE
8
0
6
CONTINUOUS
10
0.044527
20
0.138821
30
0.0
11
0.047510
21
0.142355
31
0.0
0
LINE
8
0
6
CONTINUOUS
10
0.046961
20
0.142448
30
0.0
11
0.044026
21
0.138903
31
0.0
0
LINE
8
0
6
CONTINUOUS
10
0.037300
20
0.133987
30
0.0
11
0.040985
21
0.136045
31
0.0
0
LINE
8
0
6
CONTINUOUS
10
0.040514
20
0.136107
30
0.0
11
0.036859
21
0.134028
31
0.0
0
LINE
8
0
6
CONTINUOUS
10
0.012751
20
0.206300
30
0.0
11
0.025480
21
0.204348
31
0.0
0
LINE
8
0
6
CONTINUOUS
10
0.036859
20
0.134028
30
0.0
11
0.028401
21
0.129923
31
0.0
0
LINE
8
0
6
CONTINUOUS
10
0.028753
20
0.129930
30
0.0
11
0.037300
21
0.133987
31
0.0
0
LINE
8
0
6
CONTINUOUS
10
0.049992
20
0.146882
30
0.0
11
0.051847
21
0.153889
31
0.0
0
LINE
8
0
6
CONTINUOUS
10
0.051080
20
0.153944
30
0.0
11
0.049396
21
0.146985
31
0.0
0
LINE
8
0
6
CONTINUOUS
10
0.023903
20
0.126022
30
0.0
11
0.028715
21
0.129838
31
0.0
0
LINE
8
0
6
CONTINUOUS
10
0.050499
20
0.197693
30
0.0
11
0.047042
21
0.203661
31
0.0
0
LINE
8
0
6
CONTINUOUS
10
0.012351
20
0.007231
30
0.0
11
0.013611
21
0.022930
31
0.0
0
LINE
8
0
6
CONTINUOUS
10
0.017380
20
0.114252
30
0.0
11
0.020255
21
0.121908
31
0.0
0
LINE
8
0
6
CONTINUOUS
10
0.052128
20
0.154667
30
0.0
11
0.052148
21
0.154801
31
0.0
0
LINE
8
0
6
CONTINUOUS
10
0.000000
20
0.002834
30
0.0
11
0.002608
21
0.002930
31
0.0
0
LINE
8
0
6
CONTINUOUS
10
0.002608
20
0.002930
30
0.0
11
0.005427
21
0.003210
31
0.0
0
LINE
8
0
6
CONTINUOUS
10
0.005427
20
0.003210
30
0.0
11
0.007834
21
0.003656
31
0.0
0
LINE
8
0
6
CONTINUOUS
10
0.007834
20
0.003656
30
0.0
11
0.009683
21
0.004237
31
0.0
0
LINE
8
0
6
CONTINUOUS
10
0.009683
20
0.004237
30
0.0
11
0.010296
21
0.004580
31
0.0
0
LINE
8
0
6
CONTINUOUS
10
0.010916
20
0.004927
30
0.0
11
0.011229
21
0.005206
31
0.0
0
LINE
8
0
6
CONTINUOUS
10
0.010296
20
0.004580
30
0.0
11
0.010916
21
0.004927
31
0.0
0
LINE
8
0
6
CONTINUOUS
10
0.011229
20
0.005206
30
0.0
11
0.011677
21
0.005613
31
0.0
0
LINE
8
0
6
CONTINUOUS
10
0.011677
20
0.005613
30
0.0
11
0.012143
21
0.006035
31
0.0
0
LINE
8
0
6
CONTINUOUS
10
0.012143
20
0.006035
30
0.0
11
0.012344
21
0.007089
31
0.0
0
LINE
8
0
6
CONTINUOUS
10
0.012344
20
0.007089
30
0.0
11
0.012351
21
0.007231
31
0.0
0
LINE
8
0
6
CONTINUOUS
10
0.011243
20
0.103037
30
0.0
11
0.008122
21
0.100922
31
0.0
0
LINE
8
0
6
CONTINUOUS
10
0.008122
20
0.100922
30
0.0
11
0.003834
21
0.100000
31
0.0
0
LINE
8
0
6
CONTINUOUS
10
0.003834
20
0.100000
30
0.0
11
0.000000
21
0.099724
31
0.0
0
LINE
8
0
6
CONTINUOUS
10
0.013499
20
0.112296
30
0.0
11
0.011243
21
0.103037
31
0.0
0
LINE
8
0
6
CONTINUOUS
10
0.017214
20
0.121123
30
0.0
11
0.013499
21
0.112296
31
0.0
0
LINE
8
0
6
CONTINUOUS
10
0.028401
20
0.129923
30
0.0
11
0.023533
21
0.126508
31
0.0
0
LINE
8
0
6
CONTINUOUS
10
0.034394
20
0.201536
30
0.0
11
0.040065
21
0.198292
31
0.0
0
LINE
8
0
6
CONTINUOUS
10
0.025480
20
0.204348
30
0.0
11
0.034394
21
0.201536
31
0.0
0
LINE
8
0
6
CONTINUOUS
10
-0.000001
20
0.206887
30
0.0
11
0.012751
21
0.206300
31
0.0
0
LINE
8
0
6
CONTINUOUS
10
0.051413
20
0.175481
30
0.0
11
0.052057
21
0.168860
31
0.0
0
LINE
8
0
6
CONTINUOUS
10
0.040065
20
0.198292
30
0.0
11
0.044920
21
0.193688
31
0.0
0
LINE
8
0
6
CONTINUOUS
10
0.044920
20
0.193688
30
0.0
11
0.048256
21
0.187736
31
0.0
0
LINE
8
0
6
CONTINUOUS
10
0.052037
20
0.161627
30
0.0
11
0.051080
21
0.153944
31
0.0
0
LINE
8
0
6
CONTINUOUS
10
0.023533
20
0.126508
30
0.0
11
0.020296
21
0.125046
31
0.0
0
LINE
8
0
6
CONTINUOUS
10
0.020296
20
0.125046
30
0.0
11
0.019966
21
0.124896
31
0.0
0
LINE
8
0
6
CONTINUOUS
10
0.019966
20
0.124896
30
0.0
11
0.017214
21
0.121123
31
0.0
0
LINE
8
0
6
CONTINUOUS
10
0.047510
20
0.142355
30
0.0
11
0.049992
21
0.146882
31
0.0
0
LINE
8
0
6
CONTINUOUS
10
0.049396
20
0.146985
30
0.0
11
0.046961
21
0.142448
31
0.0
0
LINE
8
0
6
CONTINUOUS
10
0.040985
20
0.136045
30
0.0
11
0.044527
21
0.138821
31
0.0
0
LINE
8
0
6
CONTINUOUS
10
0.044026
20
0.138903
30
0.0
11
0.040514
21
0.136107
31
0.0
0
LINE
8
0
6
CONTINUOUS
10
0.054015
20
0.171075
30
0.0
11
0.054239
21
0.178398
31
0.0
0
LINE
8
0
6
CONTINUOUS
10
0.053994
20
0.170711
30
0.0
11
0.054015
21
0.171075
31
0.0
0
LINE
8
0
6
CONTINUOUS
10
0.053771
20
0.166286
30
0.0
11
0.053994
21
0.170711
31
0.0
0
LINE
8
0
6
CONTINUOUS
10
0.052057
20
0.168860
30
0.0
11
0.052037
21
0.161627
31
0.0
0
LINE
8
0
6
CONTINUOUS
10
0.052410
20
0.191726
30
0.0
11
0.050499
21
0.197693
31
0.0
0
LINE
8
0
6
CONTINUOUS
10
0.048256
20
0.187736
30
0.0
11
0.050046
21
0.181783
31
0.0
0
LINE
8
0
6
CONTINUOUS
10
0.053685
20
0.185220
30
0.0
11
0.052410
21
0.191726
31
0.0
0
LINE
8
0
6
CONTINUOUS
10
0.050046
20
0.181783
30
0.0
11
0.051413
21
0.175481
31
0.0
0
LINE
8
0
6
CONTINUOUS
10
0.011265
20
-0.004560
30
0.0
11
0.011721
21
0.003603
31
0.0
0
LINE
8
0
6
CONTINUOUS
10
-0.011720
20
0.003603
30
0.0
11
-0.011242
21
-0.004958
31
0.0
0
LINE
8
0
6
CONTINUOUS
10
0.011721
20
0.005548
30
0.0
11
0.011721
21
0.005639
31
0.0
0
LINE
8
0
6
CONTINUOUS
10
-0.011720
20
0.005639
30
0.0
11
-0.011720
21
0.005548
31
0.0
0
LINE
8
0
6
CONTINUOUS
10
-0.011720
20
0.005548
30
0.0
11
-0.011720
21
0.003603
31
0.0
0
LINE
8
0
6
CONTINUOUS
10
0.011721
20
0.003603
30
0.0
11
0.011721
21
0.005548
31
0.0
0
LINE
8
0
6
CONTINUOUS
10
0.008812
20
-0.025284
30
0.0
11
0.008928
21
-0.025216
31
0.0
0
LINE
8
0
6
CONTINUOUS
10
0.000000
20
-0.026511
30
0.0
11
0.002634
21
-0.026427
31
0.0
0
LINE
8
0
6
CONTINUOUS
10
-0.008811
20
-0.025283
30
0.0
11
-0.007194
21
-0.025792
31
0.0
0
LINE
8
0
6
CONTINUOUS
10
0.002634
20
-0.026427
30
0.0
11
0.005088
21
-0.026182
31
0.0
0
LINE
8
0
6
CONTINUOUS
10
-0.007194
20
-0.025792
30
0.0
11
-0.005087
21
-0.026182
31
0.0
0
LINE
8
0
6
CONTINUOUS
10
0.005088
20
-0.026182
30
0.0
11
0.007195
21
-0.025792
31
0.0
0
LINE
8
0
6
CONTINUOUS
10
-0.005087
20
-0.026182
30
0.0
11
-0.002633
21
-0.026427
31
0.0
0
LINE
8
0
6
CONTINUOUS
10
-0.002633
20
-0.026427
30
0.0
11
0.000000
21
-0.026511
31
0.0
0
LINE
8
0
6
CONTINUOUS
10
-0.009546
20
-0.024856
30
0.0
11
-0.008811
21
-0.025283
31
0.0
0
LINE
8
0
6
CONTINUOUS
10
0.007195
20
-0.025792
30
0.0
11
0.008812
21
-0.025284
31
0.0
0
LINE
8
0
6
CONTINUOUS
10
-0.036858
20
0.134028
30
0.0
11
-0.028400
21
0.129923
31
0.0
0
LINE
8
0
6
CONTINUOUS
10
-0.012752
20
0.206300
30
0.0
11
-0.025482
21
0.204349
31
0.0
0
LINE
8
0
6
CONTINUOUS
10
-0.013771
20
0.127150
30
0.0
11
-0.006974
21
0.127502
31
0.0
0
LINE
8
0
6
CONTINUOUS
10
-0.023533
20
0.126508
30
0.0
11
-0.020290
21
0.125043
31
0.0
0
LINE
8
0
6
CONTINUOUS
10
-0.028400
20
0.129923
30
0.0
11
-0.023533
21
0.126508
31
0.0
0
LINE
8
0
6
CONTINUOUS
10
-0.048257
20
0.187736
30
0.0
11
-0.050047
21
0.181784
31
0.0
0
LINE
8
0
6
CONTINUOUS
10
-0.034395
20
0.201536
30
0.0
11
-0.040066
21
0.198292
31
0.0
0
LINE
8
0
6
CONTINUOUS
10
-0.040066
20
0.198292
30
0.0
11
-0.044921
21
0.193689
31
0.0
0
LINE
8
0
6
CONTINUOUS
10
-0.025482
20
0.204349
30
0.0
11
-0.034395
21
0.201536
31
0.0
0
LINE
8
0
6
CONTINUOUS
10
-0.000001
20
0.206887
30
0.0
11
-0.012752
21
0.206300
31
0.0
0
LINE
8
0
6
CONTINUOUS
10
-0.051413
20
0.175481
30
0.0
11
-0.052058
21
0.168861
31
0.0
0
LINE
8
0
6
CONTINUOUS
10
-0.052037
20
0.161628
30
0.0
11
-0.051080
21
0.153945
31
0.0
0
LINE
8
0
6
CONTINUOUS
10
-0.051080
20
0.153945
30
0.0
11
-0.049396
21
0.146985
31
0.0
0
LINE
8
0
6
CONTINUOUS
10
-0.046961
20
0.142448
30
0.0
11
-0.044025
21
0.138904
31
0.0
0
LINE
8
0
6
CONTINUOUS
10
-0.044025
20
0.138904
30
0.0
11
-0.040513
21
0.136108
31
0.0
0
LINE
8
0
6
CONTINUOUS
10
-0.006974
20
0.127502
30
0.0
11
0.000000
21
0.127547
31
0.0
0
LINE
8
0
6
CONTINUOUS
10
-0.019966
20
0.124896
30
0.0
11
-0.013771
21
0.127150
31
0.0
0
LINE
8
0
6
CONTINUOUS
10
-0.020290
20
0.125043
30
0.0
11
-0.019966
21
0.124896
31
0.0
0
LINE
8
0
6
CONTINUOUS
10
-0.049396
20
0.146985
30
0.0
11
-0.046961
21
0.142448
31
0.0
0
LINE
8
0
6
CONTINUOUS
10
-0.040513
20
0.136108
30
0.0
11
-0.036858
21
0.134028
31
0.0
0
LINE
8
0
6
CONTINUOUS
10
-0.052058
20
0.168861
30
0.0
11
-0.052037
21
0.161628
31
0.0
0
LINE
8
0
6
CONTINUOUS
10
-0.044921
20
0.193689
30
0.0
11
-0.048257
21
0.187736
31
0.0
0
LINE
8
0
6
CONTINUOUS
10
-0.050047
20
0.181784
30
0.0
11
-0.051413
21
0.175481
31
0.0
0
LINE
8
0
6
CONTINUOUS
10
0.028401
20
0.129923
30
0.0
11
0.036859
21
0.134028
31
0.0
0
LINE
8
0
6
CONTINUOUS
10
0.025480
20
0.204348
30
0.0
11
0.012751
21
0.206300
31
0.0
0
LINE
8
0
6
CONTINUOUS
10
0.006975
20
0.127502
30
0.0
11
0.013771
21
0.127150
31
0.0
0
LINE
8
0
6
CONTINUOUS
10
0.023533
20
0.126508
30
0.0
11
0.028401
21
0.129923
31
0.0
0
LINE
8
0
6
CONTINUOUS
10
0.020296
20
0.125046
30
0.0
11
0.023533
21
0.126508
31
0.0
0
LINE
8
0
6
CONTINUOUS
10
0.050046
20
0.181783
30
0.0
11
0.048256
21
0.187736
31
0.0
0
LINE
8
0
6
CONTINUOUS
10
0.044920
20
0.193688
30
0.0
11
0.040065
21
0.198292
31
0.0
0
LINE
8
0
6
CONTINUOUS
10
0.040065
20
0.198292
30
0.0
11
0.034394
21
0.201536
31
0.0
0
LINE
8
0
6
CONTINUOUS
10
0.034394
20
0.201536
30
0.0
11
0.025480
21
0.204348
31
0.0
0
LINE
8
0
6
CONTINUOUS
10
0.012751
20
0.206300
30
0.0
11
-0.000001
21
0.206887
31
0.0
0
LINE
8
0
6
CONTINUOUS
10
0.052057
20
0.168860
30
0.0
11
0.051413
21
0.175481
31
0.0
0
LINE
8
0
6
CONTINUOUS
10
0.051080
20
0.153944
30
0.0
11
0.052037
21
0.161627
31
0.0
0
LINE
8
0
6
CONTINUOUS
10
0.049396
20
0.146985
30
0.0
11
0.051080
21
0.153944
31
0.0
0
LINE
8
0
6
CONTINUOUS
10
0.044026
20
0.138903
30
0.0
11
0.046961
21
0.142448
31
0.0
0
LINE
8
0
6
CONTINUOUS
10
0.040514
20
0.136107
30
0.0
11
0.044026
21
0.138903
31
0.0
0
LINE
8
0
6
CONTINUOUS
10
0.000000
20
0.127547
30
0.0
11
0.006975
21
0.127502
31
0.0
0
LINE
8
0
6
CONTINUOUS
10
0.019966
20
0.124896
30
0.0
11
0.020296
21
0.125046
31
0.0
0
LINE
8
0
6
CONTINUOUS
10
0.013771
20
0.127150
30
0.0
11
0.019966
21
0.124896
31
0.0
0
LINE
8
0
6
CONTINUOUS
10
0.046961
20
0.142448
30
0.0
11
0.049396
21
0.146985
31
0.0
0
LINE
8
0
6
CONTINUOUS
10
0.036859
20
0.134028
30
0.0
11
0.040514
21
0.136107
31
0.0
0
LINE
8
0
6
CONTINUOUS
10
0.052037
20
0.161627
30
0.0
11
0.052057
21
0.168860
31
0.0
0
LINE
8
0
6
CONTINUOUS
10
0.048256
20
0.187736
30
0.0
11
0.044920
21
0.193688
31
0.0
0
LINE
8
0
6
CONTINUOUS
10
0.051413
20
0.175481
30
0.0
11
0.050046
21
0.181783
31
0.0
0
LINE
8
0
6
CONTINUOUS
10
-0.003834
20
0.100000
30
0.0
11
0.000000
21
0.099724
31
0.0
0
LINE
8
0
6
CONTINUOUS
10
-0.019307
20
0.124692
30
0.0
11
-0.013636
21
0.126753
31
0.0
0
LINE
8
0
6
CONTINUOUS
10
-0.016556
20
0.120935
30
0.0
11
-0.019307
21
0.124692
31
0.0
0
LINE
8
0
6
CONTINUOUS
10
0.008122
20
0.100922
30
0.0
11
0.011243
21
0.103037
31
0.0
0
LINE
8
0
6
CONTINUOUS
10
0.003834
20
0.100000
30
0.0
11
0.008122
21
0.100922
31
0.0
0
LINE
8
0
6
CONTINUOUS
10
0.000000
20
0.099724
30
0.0
11
0.003834
21
0.100000
31
0.0
0
LINE
8
0
6
CONTINUOUS
10
0.011243
20
0.103037
30
0.0
11
0.013499
21
0.112296
31
0.0
0
LINE
8
0
6
CONTINUOUS
10
0.013499
20
0.112296
30
0.0
11
0.017214
21
0.121123
31
0.0
0
LINE
8
0
6
CONTINUOUS
10
0.013771
20
0.127150
30
0.0
11
0.006975
21
0.127502
31
0.0
0
LINE
8
0
6
CONTINUOUS
10
0.006975
20
0.127502
30
0.0
11
0.000006
21
0.127547
31
0.0
0
LINE
8
0
6
CONTINUOUS
10
0.019966
20
0.124896
30
0.0
11
0.013771
21
0.127150
31
0.0
0
LINE
8
0
6
CONTINUOUS
10
0.017214
20
0.121123
30
0.0
11
0.019966
21
0.124896
31
0.0
0
LINE
8
0
6
CONTINUOUS
10
-0.008121
20
0.100922
30
0.0
11
-0.003834
21
0.100000
31
0.0
0
LINE
8
0
6
CONTINUOUS
10
-0.017214
20
0.121123
30
0.0
11
-0.013498
21
0.112296
31
0.0
0
LINE
8
0
6
CONTINUOUS
10
-0.011243
20
0.103037
30
0.0
11
-0.008121
21
0.100922
31
0.0
0
LINE
8
0
6
CONTINUOUS
10
0.019319
20
0.124692
30
0.0
11
0.016568
21
0.120935
31
0.0
0
LINE
8
0
6
CONTINUOUS
10
-0.019966
20
0.124896
30
0.0
11
-0.017214
21
0.121123
31
0.0
0
LINE
8
0
6
CONTINUOUS
10
-0.013498
20
0.112296
30
0.0
11
-0.011243
21
0.103037
31
0.0
0
LINE
8
0
6
CONTINUOUS
10
-0.006903
20
0.127105
30
0.0
11
0.000006
21
0.127147
31
0.0
0
LINE
8
0
6
CONTINUOUS
10
0.000006
20
0.127547
30
0.0
11
-0.006974
21
0.127502
31
0.0
0
LINE
8
0
6
CONTINUOUS
10
-0.010845
20
0.103297
30
0.0
11
-0.012991
21
0.112190
31
0.0
0
LINE
8
0
6
CONTINUOUS
10
-0.012991
20
0.112190
30
0.0
11
-0.016556
21
0.120935
31
0.0
0
LINE
8
0
6
CONTINUOUS
10
-0.003847
20
0.100470
30
0.0
11
-0.008166
21
0.101486
31
0.0
0
LINE
8
0
6
CONTINUOUS
10
-0.008166
20
0.101486
30
0.0
11
-0.010845
21
0.103297
31
0.0
0
LINE
8
0
6
CONTINUOUS
10
-0.000007
20
0.100183
30
0.0
11
-0.003847
21
0.100470
31
0.0
0
LINE
8
0
6
CONTINUOUS
10
0.010857
20
0.103297
30
0.0
11
0.008178
21
0.101486
31
0.0
0
LINE
8
0
6
CONTINUOUS
10
0.008178
20
0.101486
30
0.0
11
0.003859
21
0.100470
31
0.0
0
LINE
8
0
6
CONTINUOUS
10
0.003859
20
0.100470
30
0.0
11
-0.000007
21
0.100183
31
0.0
0
LINE
8
0
6
CONTINUOUS
10
0.013003
20
0.112190
30
0.0
11
0.010857
21
0.103297
31
0.0
0
LINE
8
0
6
CONTINUOUS
10
0.016568
20
0.120935
30
0.0
11
0.013003
21
0.112190
31
0.0
0
LINE
8
0
6
CONTINUOUS
10
0.006914
20
0.127105
30
0.0
11
0.013648
21
0.126753
31
0.0
0
LINE
8
0
6
CONTINUOUS
10
0.000006
20
0.127147
30
0.0
11
0.006914
21
0.127105
31
0.0
0
LINE
8
0
6
CONTINUOUS
10
0.013648
20
0.126753
30
0.0
11
0.019319
21
0.124692
31
0.0
0
LINE
8
0
6
CONTINUOUS
10
-0.013636
20
0.126753
30
0.0
11
-0.006903
21
0.127105
31
0.0
0
LINE
8
0
6
CONTINUOUS
10
-0.006974
20
0.127502
30
0.0
11
-0.013771
21
0.127150
31
0.0
0
LINE
8
0
6
CONTINUOUS
10
-0.013771
20
0.127150
30
0.0
11
-0.019966
21
0.124896
31
0.0
0
LINE
8
0
6
CONTINUOUS
10
0.003859
20
0.100470
30
0.0
11
0.008178
21
0.101486
31
0.0
0
LINE
8
0
6
CONTINUOUS
10
-0.003847
20
0.100470
30
0.0
11
-0.000007
21
0.100183
31
0.0
0
LINE
8
0
6
CONTINUOUS
10
0.013648
20
0.126753
30
0.0
11
0.006914
21
0.127105
31
0.0
0
LINE
8
0
6
CONTINUOUS
10
0.006914
20
0.127105
30
0.0
11
0.000006
21
0.127147
31
0.0
0
LINE
8
0
6
CONTINUOUS
10
0.013003
20
0.112190
30
0.0
11
0.016568
21
0.120935
31
0.0
0
LINE
8
0
6
CONTINUOUS
10
0.016568
20
0.120935
30
0.0
11
0.019319
21
0.124692
31
0.0
0
LINE
8
0
6
CONTINUOUS
10
0.019319
20
0.124692
30
0.0
11
0.013648
21
0.126753
31
0.0
0
LINE
8
0
6
CONTINUOUS
10
-0.008166
20
0.101486
30
0.0
11
-0.003847
21
0.100470
31
0.0
0
LINE
8
0
6
CONTINUOUS
10
-0.016556
20
0.120935
30
0.0
11
-0.012991
21
0.112190
31
0.0
0
LINE
8
0
6
CONTINUOUS
10
0.010857
20
0.103297
30
0.0
11
0.013003
21
0.112190
31
0.0
0
LINE
8
0
6
CONTINUOUS
10
0.008178
20
0.101486
30
0.0
11
0.010857
21
0.103297
31
0.0
0
LINE
8
0
6
CONTINUOUS
10
-0.013636
20
0.126753
30
0.0
11
-0.019307
21
0.124692
31
0.0
0
LINE
8
0
6
CONTINUOUS
10
-0.019307
20
0.124692
30
0.0
11
-0.016556
21
0.120935
31
0.0
0
LINE
8
0
6
CONTINUOUS
10
-0.000007
20
0.100183
30
0.0
11
0.003859
21
0.100470
31
0.0
0
LINE
8
0
6
CONTINUOUS
10
-0.010845
20
0.103297
30
0.0
11
-0.008166
21
0.101486
31
0.0
0
LINE
8
0
6
CONTINUOUS
10
-0.012991
20
0.112190
30
0.0
11
-0.010845
21
0.103297
31
0.0
0
LINE
8
0
6
CONTINUOUS
10
-0.006903
20
0.127105
30
0.0
11
-0.013636
21
0.126753
31
0.0
0
LINE
8
0
6
CONTINUOUS
10
0.000006
20
0.127147
30
0.0
11
-0.006903
21
0.127105
31
0.0
0
LINE
8
0
6
CONTINUOUS
10
-0.031005
20
0.150674
30
0.0
11
-0.029748
21
0.149760
31
0.0
0
LINE
8
0
6
CONTINUOUS
10
-0.022263
20
0.141358
30
0.0
11
-0.020738
21
0.141626
31
0.0
0
LINE
8
0
6
CONTINUOUS
10
-0.009391
20
0.153979
30
0.0
11
-0.008432
21
0.153333
31
0.0
0
LINE
8
0
6
CONTINUOUS
10
-0.008432
20
0.153333
30
0.0
11
-0.008095
21
0.153104
31
0.0
0
LINE
8
0
6
CONTINUOUS
10
0.008431
20
0.153333
30
0.0
11
0.009390
21
0.153979
31
0.0
0
LINE
8
0
6
CONTINUOUS
10
0.008094
20
0.153104
30
0.0
11
0.008431
21
0.153333
31
0.0
0
LINE
8
0
6
CONTINUOUS
10
0.005751
20
0.135013
30
0.0
11
0.006042
21
0.136168
31
0.0
0
LINE
8
0
6
CONTINUOUS
10
0.006042
20
0.136168
30
0.0
11
0.007591
21
0.136599
31
0.0
0
LINE
8
0
6
CONTINUOUS
10
0.037502
20
0.147218
30
0.0
11
0.038759
21
0.148137
31
0.0
0
LINE
8
0
6
CONTINUOUS
10
0.030804
20
0.150649
30
0.0
11
0.032353
21
0.150432
31
0.0
0
LINE
8
0
6
CONTINUOUS
10
0.011872
20
0.143418
30
0.0
11
0.012108
21
0.144365
31
0.0
0
LINE
8
0
6
CONTINUOUS
10
0.013823
20
0.131394
30
0.0
11
0.013844
21
0.131480
31
0.0
0
LINE
8
0
6
CONTINUOUS
10
0.013553
20
0.130261
30
0.0
11
0.013823
21
0.131394
31
0.0
0
LINE
8
0
6
CONTINUOUS
10
0.014171
20
0.131583
30
0.0
11
0.014866
21
0.131799
31
0.0
0
LINE
8
0
6
CONTINUOUS
10
0.014866
20
0.131799
30
0.0
11
0.015001
21
0.131851
31
0.0
0
LINE
8
0
6
CONTINUOUS
10
0.026762
20
0.163421
30
0.0
11
0.027211
21
0.163600
31
0.0
0
LINE
8
0
6
CONTINUOUS
10
0.025663
20
0.163035
30
0.0
11
0.026762
21
0.163421
31
0.0
0
LINE
8
0
6
CONTINUOUS
10
0.027211
20
0.163600
30
0.0
11
0.028468
21
0.162949
31
0.0
0
LINE
8
0
6
CONTINUOUS
10
0.014235
20
0.155214
30
0.0
11
0.015783
21
0.155785
31
0.0
0
LINE
8
0
6
CONTINUOUS
10
0.013405
20
0.189946
30
0.0
11
0.013678
21
0.190350
31
0.0
0
LINE
8
0
6
CONTINUOUS
10
0.012794
20
0.189081
30
0.0
11
0.013405
21
0.189946
31
0.0
0
LINE
8
0
6
CONTINUOUS
10
0.013678
20
0.190350
30
0.0
11
0.015322
21
0.190414
31
0.0
0
LINE
8
0
6
CONTINUOUS
10
0.011922
20
0.180823
30
0.0
11
0.012742
21
0.181989
31
0.0
0
LINE
8
0
6
CONTINUOUS
10
0.013648
20
0.181977
30
0.0
11
0.014386
21
0.182016
31
0.0
0
LINE
8
0
6
CONTINUOUS
10
0.012742
20
0.181989
30
0.0
11
0.013648
21
0.181977
31
0.0
0
LINE
8
0
6
CONTINUOUS
10
0.025192
20
0.182657
30
0.0
11
0.026328
21
0.183732
31
0.0
0
LINE
8
0
6
CONTINUOUS
10
0.026348
20
0.183752
30
0.0
11
0.027146
21
0.183681
31
0.0
0
LINE
8
0
6
CONTINUOUS
10
0.012112
20
0.173900
30
0.0
11
0.012765
21
0.173772
31
0.0
0
LINE
8
0
6
CONTINUOUS
10
0.011172
20
0.174082
30
0.0
11
0.012112
21
0.173900
31
0.0
0
LINE
8
0
6
CONTINUOUS
10
0.034284
20
0.173737
30
0.0
11
0.035754
21
0.173300
31
0.0
0
LINE
8
0
6
CONTINUOUS
10
0.022378
20
0.174139
30
0.0
11
0.023159
21
0.174617
31
0.0
0
LINE
8
0
6
CONTINUOUS
10
0.023159
20
0.174617
30
0.0
11
0.024628
21
0.174111
31
0.0
0
LINE
8
0
6
CONTINUOUS
10
0.030280
20
0.191414
30
0.0
11
0.029844
21
0.192734
31
0.0
0
LINE
8
0
6
CONTINUOUS
10
0.037504
20
0.183056
30
0.0
11
0.038615
21
0.183775
31
0.0
0
LINE
8
0
6
CONTINUOUS
10
0.037238
20
0.182892
30
0.0
11
0.037504
21
0.183056
31
0.0
0
LINE
8
0
6
CONTINUOUS
10
-0.040378
20
0.181963
30
0.0
11
-0.040286
21
0.183325
31
0.0
0
LINE
8
0
6
CONTINUOUS
10
-0.001690
20
0.199070
30
0.0
11
-0.001198
21
0.200566
31
0.0
0
LINE
8
0
6
CONTINUOUS
10
-0.016938
20
0.197812
30
0.0
11
-0.015888
21
0.198966
31
0.0
0
LINE
8
0
6
CONTINUOUS
10
-0.036047
20
0.172017
30
0.0
11
-0.035955
21
0.173322
31
0.0
0
LINE
8
0
6
CONTINUOUS
10
-0.028461
20
0.182672
30
0.0
11
-0.028142
21
0.183607
31
0.0
0
LINE
8
0
6
CONTINUOUS
10
-0.032554
20
0.150456
30
0.0
11
-0.032845
21
0.149325
31
0.0
0
LINE
8
0
6
CONTINUOUS
10
-0.023131
20
0.152907
30
0.0
11
-0.021873
21
0.152041
31
0.0
0
LINE
8
0
6
CONTINUOUS
10
-0.028783
20
0.138597
30
0.0
11
-0.027525
21
0.137726
31
0.0
0
LINE
8
0
6
CONTINUOUS
10
-0.040509
20
0.147954
30
0.0
11
-0.040800
21
0.146826
31
0.0
0
LINE
8
0
6
CONTINUOUS
10
-0.000861
20
0.177145
30
0.0
11
-0.000001
21
0.177091
31
0.0
0
LINE
8
0
6
CONTINUOUS
10
-0.000001
20
0.177091
30
0.0
11
0.000783
21
0.177083
31
0.0
0
LINE
8
0
6
CONTINUOUS
10
-0.044108
20
0.159982
30
0.0
11
-0.042851
21
0.158986
31
0.0
0
LINE
8
0
6
CONTINUOUS
10
-0.045948
20
0.158630
30
0.0
11
-0.045709
21
0.159600
31
0.0
0
LINE
8
0
6
CONTINUOUS
10
-0.045709
20
0.159600
30
0.0
11
-0.045657
21
0.159810
31
0.0
0
LINE
8
0
6
CONTINUOUS
10
-0.004391
20
0.137319
30
0.0
11
-0.000504
21
0.137115
31
0.0
0
LINE
8
0
6
CONTINUOUS
10
0.004688
20
0.147938
30
0.0
11
0.004979
21
0.149115
31
0.0
0
LINE
8
0
6
CONTINUOUS
10
0.019280
20
0.140763
30
0.0
11
0.020537
21
0.141610
31
0.0
0
LINE
8
0
6
CONTINUOUS
10
0.016366
20
0.164523
30
0.0
11
0.016570
21
0.164643
31
0.0
0
LINE
8
0
6
CONTINUOUS
10
-0.009496
20
0.164205
30
0.0
11
-0.009404
21
0.165477
31
0.0
0
LINE
8
0
6
CONTINUOUS
10
-0.019506
20
0.163630
30
0.0
11
-0.019414
21
0.164878
31
0.0
0
LINE
8
0
6
CONTINUOUS
10
-0.024922
20
0.172778
30
0.0
11
-0.024830
21
0.174126
31
0.0
0
LINE
8
0
6
CONTINUOUS
10
-0.013108
20
0.173350
30
0.0
11
-0.012967
21
0.173777
31
0.0
0
LINE
8
0
6
CONTINUOUS
10
-0.000001
20
0.184633
30
0.0
11
0.000629
21
0.184556
31
0.0
0
ENDSEC
0
EOF
