999
unknown String-ID: 20550
0
SECTION
2
HEADER
9
$ACADVER
1
AC1009
9
$DWGCODEPAGE
3
unknown String-ID: 20561
0
ENDSEC
0
SECTION
2
TABLES
0
TABLE
2
LAYER
70
1
0
LAYER
2
0
70
0
62
7
6
CONTINUOUS
0
ENDTAB
0
ENDSEC
0
SECTION
2
ENTITIES
0
LINE
8
0
6
CONTINUOUS
10
-0.015679
20
0.045246
30
0.0
11
-0.015245
21
0.044989
31
0.0
0
LINE
8
0
6
CONTINUOUS
10
-0.017462
20
0.046400
30
0.0
11
-0.015679
21
0.045246
31
0.0
0
LINE
8
0
6
CONTINUOUS
10
-0.015245
20
0.044989
30
0.0
11
-0.016976
21
0.046109
31
0.0
0
LINE
8
0
6
CONTINUOUS
10
-0.018976
20
0.047677
30
0.0
11
-0.017462
21
0.046400
31
0.0
0
LINE
8
0
6
CONTINUOUS
10
-0.016976
20
0.046109
30
0.0
11
-0.018446
21
0.047349
31
0.0
0
LINE
8
0
6
CONTINUOUS
10
-0.020198
20
0.049064
30
0.0
11
-0.018976
21
0.047677
31
0.0
0
LINE
8
0
6
CONTINUOUS
10
-0.018446
20
0.047349
30
0.0
11
-0.019633
21
0.048696
31
0.0
0
LINE
8
0
6
CONTINUOUS
10
-0.021103
20
0.050547
30
0.0
11
-0.020198
21
0.049064
31
0.0
0
LINE
8
0
6
CONTINUOUS
10
-0.019633
20
0.048696
30
0.0
11
-0.020510
21
0.050134
31
0.0
0
LINE
8
0
6
CONTINUOUS
10
-0.021663
20
0.052110
30
0.0
11
-0.021103
21
0.050547
31
0.0
0
LINE
8
0
6
CONTINUOUS
10
-0.020510
20
0.050134
30
0.0
11
-0.021055
21
0.051652
31
0.0
0
LINE
8
0
6
CONTINUOUS
10
-0.021856
20
0.053738
30
0.0
11
-0.021663
21
0.052110
31
0.0
0
LINE
8
0
6
CONTINUOUS
10
-0.021055
20
0.051652
30
0.0
11
-0.021242
21
0.053234
31
0.0
0
LINE
8
0
6
CONTINUOUS
10
-0.021663
20
0.055367
30
0.0
11
-0.021856
21
0.053738
31
0.0
0
LINE
8
0
6
CONTINUOUS
10
-0.021242
20
0.053234
30
0.0
11
-0.021055
21
0.054815
31
0.0
0
LINE
8
0
6
CONTINUOUS
10
-0.021103
20
0.056930
30
0.0
11
-0.021663
21
0.055367
31
0.0
0
LINE
8
0
6
CONTINUOUS
10
-0.021055
20
0.054815
30
0.0
11
-0.020510
21
0.056333
31
0.0
0
LINE
8
0
6
CONTINUOUS
10
-0.020198
20
0.058412
30
0.0
11
-0.021103
21
0.056930
31
0.0
0
LINE
8
0
6
CONTINUOUS
10
-0.020510
20
0.056333
30
0.0
11
-0.019633
21
0.057772
31
0.0
0
LINE
8
0
6
CONTINUOUS
10
-0.018976
20
0.059800
30
0.0
11
-0.020198
21
0.058412
31
0.0
0
LINE
8
0
6
CONTINUOUS
10
-0.019633
20
0.057772
30
0.0
11
-0.018446
21
0.059118
31
0.0
0
LINE
8
0
6
CONTINUOUS
10
-0.017462
20
0.061077
30
0.0
11
-0.018976
21
0.059800
31
0.0
0
LINE
8
0
6
CONTINUOUS
10
-0.018446
20
0.059118
30
0.0
11
-0.016976
21
0.060358
31
0.0
0
LINE
8
0
6
CONTINUOUS
10
-0.015680
20
0.062230
30
0.0
11
-0.017462
21
0.061077
31
0.0
0
LINE
8
0
6
CONTINUOUS
10
-0.016976
20
0.060358
30
0.0
11
-0.015245
21
0.061478
31
0.0
0
LINE
8
0
6
CONTINUOUS
10
-0.013655
20
0.063245
30
0.0
11
-0.015680
21
0.062230
31
0.0
0
LINE
8
0
6
CONTINUOUS
10
-0.015245
20
0.061478
30
0.0
11
-0.013279
21
0.062464
31
0.0
0
LINE
8
0
6
CONTINUOUS
10
-0.011413
20
0.064108
30
0.0
11
-0.013655
21
0.063245
31
0.0
0
LINE
8
0
6
CONTINUOUS
10
-0.013279
20
0.062464
30
0.0
11
-0.011102
21
0.063302
31
0.0
0
LINE
8
0
6
CONTINUOUS
10
-0.008978
20
0.064804
30
0.0
11
-0.011413
21
0.064108
31
0.0
0
LINE
8
0
6
CONTINUOUS
10
-0.011102
20
0.063302
30
0.0
11
-0.008739
21
0.063977
31
0.0
0
LINE
8
0
6
CONTINUOUS
10
-0.008739
20
0.063977
30
0.0
11
-0.006213
21
0.064477
31
0.0
0
LINE
8
0
6
CONTINUOUS
10
-0.003632
20
0.065639
30
0.0
11
-0.006376
21
0.065319
31
0.0
0
LINE
8
0
6
CONTINUOUS
10
-0.006213
20
0.064477
30
0.0
11
-0.003549
21
0.064788
31
0.0
0
LINE
8
0
6
CONTINUOUS
10
-0.000773
20
0.065749
30
0.0
11
-0.003632
21
0.065639
31
0.0
0
LINE
8
0
6
CONTINUOUS
10
-0.003549
20
0.064788
30
0.0
11
-0.000773
21
0.064894
31
0.0
0
LINE
8
0
6
CONTINUOUS
10
0.002087
20
0.065639
30
0.0
11
-0.000773
21
0.065749
31
0.0
0
LINE
8
0
6
CONTINUOUS
10
-0.000773
20
0.064894
30
0.0
11
0.002004
21
0.064788
31
0.0
0
LINE
8
0
6
CONTINUOUS
10
0.004831
20
0.065319
30
0.0
11
0.002087
21
0.065639
31
0.0
0
LINE
8
0
6
CONTINUOUS
10
0.002004
20
0.064788
30
0.0
11
0.004668
21
0.064477
31
0.0
0
LINE
8
0
6
CONTINUOUS
10
0.004668
20
0.064477
30
0.0
11
0.007194
21
0.063977
31
0.0
0
LINE
8
0
6
CONTINUOUS
10
0.009868
20
0.064108
30
0.0
11
0.007433
21
0.064804
31
0.0
0
LINE
8
0
6
CONTINUOUS
10
0.007194
20
0.063977
30
0.0
11
0.009557
21
0.063302
31
0.0
0
LINE
8
0
6
CONTINUOUS
10
0.012110
20
0.063245
30
0.0
11
0.009868
21
0.064108
31
0.0
0
LINE
8
0
6
CONTINUOUS
10
0.009557
20
0.063302
30
0.0
11
0.011734
21
0.062464
31
0.0
0
LINE
8
0
6
CONTINUOUS
10
0.014135
20
0.062230
30
0.0
11
0.012110
21
0.063245
31
0.0
0
LINE
8
0
6
CONTINUOUS
10
0.011734
20
0.062464
30
0.0
11
0.013700
21
0.061478
31
0.0
0
LINE
8
0
6
CONTINUOUS
10
0.015917
20
0.061077
30
0.0
11
0.014135
21
0.062230
31
0.0
0
LINE
8
0
6
CONTINUOUS
10
0.013700
20
0.061478
30
0.0
11
0.015431
21
0.060358
31
0.0
0
LINE
8
0
6
CONTINUOUS
10
0.017431
20
0.059799
30
0.0
11
0.015917
21
0.061077
31
0.0
0
LINE
8
0
6
CONTINUOUS
10
0.015431
20
0.060358
30
0.0
11
0.016902
21
0.059118
31
0.0
0
LINE
8
0
6
CONTINUOUS
10
0.018654
20
0.058412
30
0.0
11
0.017431
21
0.059799
31
0.0
0
LINE
8
0
6
CONTINUOUS
10
0.016902
20
0.059118
30
0.0
11
0.018088
21
0.057771
31
0.0
0
LINE
8
0
6
CONTINUOUS
10
0.019558
20
0.056930
30
0.0
11
0.018654
21
0.058412
31
0.0
0
LINE
8
0
6
CONTINUOUS
10
0.018088
20
0.057771
30
0.0
11
0.018966
21
0.056333
31
0.0
0
LINE
8
0
6
CONTINUOUS
10
0.020119
20
0.055367
30
0.0
11
0.019558
21
0.056930
31
0.0
0
LINE
8
0
6
CONTINUOUS
10
0.018966
20
0.056333
30
0.0
11
0.019510
21
0.054815
31
0.0
0
LINE
8
0
6
CONTINUOUS
10
0.020311
20
0.053738
30
0.0
11
0.020119
21
0.055367
31
0.0
0
LINE
8
0
6
CONTINUOUS
10
0.019510
20
0.054815
30
0.0
11
0.019697
21
0.053233
31
0.0
0
LINE
8
0
6
CONTINUOUS
10
0.020119
20
0.052109
30
0.0
11
0.020311
21
0.053738
31
0.0
0
LINE
8
0
6
CONTINUOUS
10
0.019697
20
0.053233
30
0.0
11
0.019510
21
0.051652
31
0.0
0
LINE
8
0
6
CONTINUOUS
10
0.019558
20
0.050546
30
0.0
11
0.020119
21
0.052109
31
0.0
0
LINE
8
0
6
CONTINUOUS
10
0.019510
20
0.051652
30
0.0
11
0.018966
21
0.050134
31
0.0
0
LINE
8
0
6
CONTINUOUS
10
0.018654
20
0.049064
30
0.0
11
0.019558
21
0.050546
31
0.0
0
LINE
8
0
6
CONTINUOUS
10
0.018966
20
0.050134
30
0.0
11
0.018088
21
0.048695
31
0.0
0
LINE
8
0
6
CONTINUOUS
10
0.017432
20
0.047677
30
0.0
11
0.018654
21
0.049064
31
0.0
0
LINE
8
0
6
CONTINUOUS
10
0.018088
20
0.048695
30
0.0
11
0.016902
21
0.047349
31
0.0
0
LINE
8
0
6
CONTINUOUS
10
0.015917
20
0.046400
30
0.0
11
0.017432
21
0.047677
31
0.0
0
LINE
8
0
6
CONTINUOUS
10
0.016902
20
0.047349
30
0.0
11
0.015431
21
0.046109
31
0.0
0
LINE
8
0
6
CONTINUOUS
10
0.014135
20
0.045246
30
0.0
11
0.015917
21
0.046400
31
0.0
0
LINE
8
0
6
CONTINUOUS
10
0.013700
20
0.044989
30
0.0
11
0.014135
21
0.045246
31
0.0
0
LINE
8
0
6
CONTINUOUS
10
0.015431
20
0.046109
30
0.0
11
0.013700
21
0.044989
31
0.0
0
LINE
8
0
6
CONTINUOUS
10
0.041123
20
0.051587
30
0.0
11
0.042746
21
0.052367
31
0.0
0
LINE
8
0
6
CONTINUOUS
10
0.041123
20
0.051928
30
0.0
11
0.041123
21
0.051587
31
0.0
0
LINE
8
0
6
CONTINUOUS
10
0.042874
20
0.065531
30
0.0
11
0.042874
21
0.066610
31
0.0
0
LINE
8
0
6
CONTINUOUS
10
0.042755
20
0.066739
30
0.0
11
0.042874
21
0.065531
31
0.0
0
LINE
8
0
6
CONTINUOUS
10
0.036718
20
0.062187
30
0.0
11
0.036718
21
0.063627
31
0.0
0
LINE
8
0
6
CONTINUOUS
10
0.036599
20
0.063395
30
0.0
11
0.036718
21
0.062187
31
0.0
0
LINE
8
0
6
CONTINUOUS
10
0.027850
20
0.070394
30
0.0
11
0.029905
21
0.070089
31
0.0
0
LINE
8
0
6
CONTINUOUS
10
0.000369
20
0.063605
30
0.0
11
0.001351
21
0.062532
31
0.0
0
LINE
8
0
6
CONTINUOUS
10
-0.002894
20
0.062637
30
0.0
11
-0.001753
21
0.063657
31
0.0
0
LINE
8
0
6
CONTINUOUS
10
-0.002894
20
0.063797
30
0.0
11
-0.002894
21
0.062637
31
0.0
0
LINE
8
0
6
CONTINUOUS
10
-0.001753
20
0.063657
30
0.0
11
0.000369
21
0.063605
31
0.0
0
LINE
8
0
6
CONTINUOUS
10
0.007696
20
0.065898
30
0.0
11
0.007696
21
0.067026
31
0.0
0
LINE
8
0
6
CONTINUOUS
10
0.006714
20
0.066971
30
0.0
11
0.007696
21
0.065898
31
0.0
0
LINE
8
0
6
CONTINUOUS
10
0.004592
20
0.067024
30
0.0
11
0.006714
21
0.066971
31
0.0
0
LINE
8
0
6
CONTINUOUS
10
0.014041
20
0.069527
30
0.0
11
0.014041
21
0.070712
31
0.0
0
LINE
8
0
6
CONTINUOUS
10
0.013060
20
0.070600
30
0.0
11
0.014041
21
0.069527
31
0.0
0
LINE
8
0
6
CONTINUOUS
10
0.010938
20
0.070652
30
0.0
11
0.013060
21
0.070600
31
0.0
0
LINE
8
0
6
CONTINUOUS
10
0.016142
20
0.073669
30
0.0
11
0.017283
21
0.074689
31
0.0
0
LINE
8
0
6
CONTINUOUS
10
0.016142
20
0.074554
30
0.0
11
0.016142
21
0.073669
31
0.0
0
LINE
8
0
6
CONTINUOUS
10
0.017283
20
0.074689
30
0.0
11
0.019405
21
0.074637
31
0.0
0
LINE
8
0
6
CONTINUOUS
10
0.007713
20
0.076404
30
0.0
11
0.007713
21
0.077646
31
0.0
0
LINE
8
0
6
CONTINUOUS
10
0.006357
20
0.077335
30
0.0
11
0.007713
21
0.076404
31
0.0
0
LINE
8
0
6
CONTINUOUS
10
0.003525
20
0.075997
30
0.0
11
0.004263
21
0.077131
31
0.0
0
LINE
8
0
6
CONTINUOUS
10
0.003525
20
0.077001
30
0.0
11
0.003525
21
0.075997
31
0.0
0
LINE
8
0
6
CONTINUOUS
10
0.004263
20
0.077131
30
0.0
11
0.006357
21
0.077335
31
0.0
0
LINE
8
0
6
CONTINUOUS
10
0.023801
20
0.050105
30
0.0
11
0.023801
21
0.051369
31
0.0
0
LINE
8
0
6
CONTINUOUS
10
0.022179
20
0.050885
30
0.0
11
0.023801
21
0.050105
31
0.0
0
LINE
8
0
6
CONTINUOUS
10
0.031189
20
0.052777
30
0.0
11
0.031189
21
0.054134
31
0.0
0
LINE
8
0
6
CONTINUOUS
10
0.029566
20
0.053558
30
0.0
11
0.031189
21
0.052777
31
0.0
0
LINE
8
0
6
CONTINUOUS
10
0.016003
20
0.035693
30
0.0
11
0.016379
21
0.036884
31
0.0
0
LINE
8
0
6
CONTINUOUS
10
0.016003
20
0.036553
30
0.0
11
0.016003
21
0.035693
31
0.0
0
LINE
8
0
6
CONTINUOUS
10
0.016379
20
0.036884
30
0.0
11
0.018377
21
0.037294
31
0.0
0
LINE
8
0
6
CONTINUOUS
10
0.020000
20
0.036513
30
0.0
11
0.020000
21
0.037623
31
0.0
0
LINE
8
0
6
CONTINUOUS
10
0.018377
20
0.037294
30
0.0
11
0.020000
21
0.036513
31
0.0
0
LINE
8
0
6
CONTINUOUS
10
0.013988
20
0.044107
30
0.0
11
0.015987
21
0.044517
31
0.0
0
LINE
8
0
6
CONTINUOUS
10
0.017609
20
0.043736
30
0.0
11
0.017609
21
0.044939
31
0.0
0
LINE
8
0
6
CONTINUOUS
10
0.015987
20
0.044517
30
0.0
11
0.017609
21
0.043736
31
0.0
0
LINE
8
0
6
CONTINUOUS
10
0.024811
20
0.045671
30
0.0
11
0.026434
21
0.046452
31
0.0
0
LINE
8
0
6
CONTINUOUS
10
0.024811
20
0.046390
30
0.0
11
0.024811
21
0.045671
31
0.0
0
LINE
8
0
6
CONTINUOUS
10
0.030401
20
0.042114
30
0.0
11
0.030777
21
0.040923
31
0.0
0
LINE
8
0
6
CONTINUOUS
10
0.027624
20
0.038160
30
0.0
11
0.029246
21
0.038941
31
0.0
0
LINE
8
0
6
CONTINUOUS
10
0.027624
20
0.038717
30
0.0
11
0.027624
21
0.038160
31
0.0
0
LINE
8
0
6
CONTINUOUS
10
0.029246
20
0.038941
30
0.0
11
0.031245
21
0.038531
31
0.0
0
LINE
8
0
6
CONTINUOUS
10
0.002808
20
0.045827
30
0.0
11
0.003184
21
0.047018
31
0.0
0
LINE
8
0
6
CONTINUOUS
10
0.002808
20
0.046830
30
0.0
11
0.002808
21
0.045827
31
0.0
0
LINE
8
0
6
CONTINUOUS
10
-0.005713
20
0.036768
30
0.0
11
-0.005337
21
0.035577
31
0.0
0
LINE
8
0
6
CONTINUOUS
10
-0.007711
20
0.037178
30
0.0
11
-0.005713
21
0.036768
31
0.0
0
LINE
8
0
6
CONTINUOUS
10
-0.006042
20
0.033726
30
0.0
11
-0.005666
21
0.032535
31
0.0
0
LINE
8
0
6
CONTINUOUS
10
-0.008040
20
0.034136
30
0.0
11
-0.006042
21
0.033726
31
0.0
0
LINE
8
0
6
CONTINUOUS
10
-0.038025
20
0.044671
30
0.0
11
-0.038025
21
0.045034
31
0.0
0
LINE
8
0
6
CONTINUOUS
10
-0.039648
20
0.045452
30
0.0
11
-0.038025
21
0.044671
31
0.0
0
LINE
8
0
6
CONTINUOUS
10
-0.026354
20
0.045744
30
0.0
11
-0.026354
21
0.046592
31
0.0
0
LINE
8
0
6
CONTINUOUS
10
-0.027977
20
0.046525
30
0.0
11
-0.026354
21
0.045744
31
0.0
0
LINE
8
0
6
CONTINUOUS
10
-0.016726
20
0.040444
30
0.0
11
-0.016351
21
0.039253
31
0.0
0
LINE
8
0
6
CONTINUOUS
10
-0.019117
20
0.033858
30
0.0
11
-0.018741
21
0.032667
31
0.0
0
LINE
8
0
6
CONTINUOUS
10
-0.021723
20
0.050543
30
0.0
11
-0.021348
21
0.049352
31
0.0
0
LINE
8
0
6
CONTINUOUS
10
-0.016334
20
0.048385
30
0.0
11
-0.014336
21
0.047975
31
0.0
0
LINE
8
0
6
CONTINUOUS
10
-0.009256
20
0.076423
30
0.0
11
-0.007900
21
0.077354
31
0.0
0
LINE
8
0
6
CONTINUOUS
10
-0.009256
20
0.077688
30
0.0
11
-0.009256
21
0.076423
31
0.0
0
LINE
8
0
6
CONTINUOUS
10
-0.005806
20
0.077150
30
0.0
11
-0.005068
21
0.076016
31
0.0
0
LINE
8
0
6
CONTINUOUS
10
-0.007900
20
0.077354
30
0.0
11
-0.005806
21
0.077150
31
0.0
0
LINE
8
0
6
CONTINUOUS
10
-0.009239
20
0.065918
30
0.0
11
-0.008257
21
0.066991
31
0.0
0
LINE
8
0
6
CONTINUOUS
10
-0.009239
20
0.067074
30
0.0
11
-0.009239
21
0.065918
31
0.0
0
LINE
8
0
6
CONTINUOUS
10
-0.006135
20
0.067043
30
0.0
11
-0.004995
21
0.066022
31
0.0
0
LINE
8
0
6
CONTINUOUS
10
-0.008257
20
0.066991
30
0.0
11
-0.006135
21
0.067043
31
0.0
0
LINE
8
0
6
CONTINUOUS
10
-0.014130
20
0.059802
30
0.0
11
-0.013567
21
0.060969
31
0.0
0
LINE
8
0
6
CONTINUOUS
10
-0.014130
20
0.060927
30
0.0
11
-0.014130
21
0.059802
31
0.0
0
LINE
8
0
6
CONTINUOUS
10
-0.013567
20
0.060969
30
0.0
11
-0.011512
21
0.061274
31
0.0
0
LINE
8
0
6
CONTINUOUS
10
-0.005552
20
0.058622
30
0.0
11
-0.004060
21
0.057761
31
0.0
0
LINE
8
0
6
CONTINUOUS
10
-0.023933
20
0.058286
30
0.0
11
-0.022156
21
0.057623
31
0.0
0
LINE
8
0
6
CONTINUOUS
10
-0.017777
20
0.055659
30
0.0
11
-0.016000
21
0.054997
31
0.0
0
LINE
8
0
6
CONTINUOUS
10
-0.045884
20
0.060071
30
0.0
11
-0.043885
21
0.059661
31
0.0
0
LINE
8
0
6
CONTINUOUS
10
-0.028275
20
0.077623
30
0.0
11
-0.027293
21
0.078696
31
0.0
0
LINE
8
0
6
CONTINUOUS
10
-0.028275
20
0.078864
30
0.0
11
-0.028275
21
0.077623
31
0.0
0
LINE
8
0
6
CONTINUOUS
10
-0.002293
20
0.083143
30
0.0
11
-0.000220
21
0.083407
31
0.0
0
LINE
8
0
6
CONTINUOUS
10
-0.035352
20
0.073732
30
0.0
11
-0.033860
21
0.072870
31
0.0
0
LINE
8
0
6
CONTINUOUS
10
-0.046287
20
0.052096
30
0.0
11
-0.044289
21
0.052506
31
0.0
0
LINE
8
0
6
CONTINUOUS
10
0.003513
20
0.043586
30
0.0
11
0.003137
21
0.042395
31
0.0
0
LINE
8
0
6
CONTINUOUS
10
0.005511
20
0.043996
30
0.0
11
0.003513
21
0.043586
31
0.0
0
LINE
8
0
6
CONTINUOUS
10
0.007134
20
0.043216
30
0.0
11
0.005511
21
0.043996
31
0.0
0
LINE
8
0
6
CONTINUOUS
10
0.006758
20
0.042025
30
0.0
11
0.007134
21
0.043216
31
0.0
0
LINE
8
0
6
CONTINUOUS
10
0.004760
20
0.041615
30
0.0
11
0.006758
21
0.042025
31
0.0
0
LINE
8
0
6
CONTINUOUS
10
0.003137
20
0.042395
30
0.0
11
0.004760
21
0.041615
31
0.0
0
LINE
8
0
6
CONTINUOUS
10
0.042746
20
0.052367
30
0.0
11
0.044744
21
0.051957
31
0.0
0
LINE
8
0
6
CONTINUOUS
10
0.044744
20
0.051957
30
0.0
11
0.045120
21
0.050766
31
0.0
0
LINE
8
0
6
CONTINUOUS
10
0.039082
20
0.066622
30
0.0
11
0.040859
21
0.067284
31
0.0
0
LINE
8
0
6
CONTINUOUS
10
0.039082
20
0.067242
30
0.0
11
0.039082
21
0.066622
31
0.0
0
LINE
8
0
6
CONTINUOUS
10
0.040859
20
0.067284
30
0.0
11
0.042755
21
0.066739
31
0.0
0
LINE
8
0
6
CONTINUOUS
10
0.036428
20
0.072160
30
0.0
11
0.036428
21
0.073505
31
0.0
0
LINE
8
0
6
CONTINUOUS
10
0.035865
20
0.073327
30
0.0
11
0.036428
21
0.072160
31
0.0
0
LINE
8
0
6
CONTINUOUS
10
0.032317
20
0.072772
30
0.0
11
0.033810
21
0.073633
31
0.0
0
LINE
8
0
6
CONTINUOUS
10
0.032317
20
0.073804
30
0.0
11
0.032317
21
0.072772
31
0.0
0
LINE
8
0
6
CONTINUOUS
10
0.033810
20
0.073633
30
0.0
11
0.035865
21
0.073327
31
0.0
0
LINE
8
0
6
CONTINUOUS
10
0.026732
20
0.077549
30
0.0
11
0.026732
21
0.078710
31
0.0
0
LINE
8
0
6
CONTINUOUS
10
0.025750
20
0.078622
30
0.0
11
0.026732
21
0.077549
31
0.0
0
LINE
8
0
6
CONTINUOUS
10
0.022488
20
0.077653
30
0.0
11
0.023628
21
0.078674
31
0.0
0
LINE
8
0
6
CONTINUOUS
10
0.022488
20
0.078522
30
0.0
11
0.022488
21
0.077653
31
0.0
0
LINE
8
0
6
CONTINUOUS
10
0.023628
20
0.078674
30
0.0
11
0.025750
21
0.078622
31
0.0
0
LINE
8
0
6
CONTINUOUS
10
0.014103
20
0.080864
30
0.0
11
0.014103
21
0.082077
31
0.0
0
LINE
8
0
6
CONTINUOUS
10
0.012747
20
0.081795
30
0.0
11
0.014103
21
0.080864
31
0.0
0
LINE
8
0
6
CONTINUOUS
10
0.009916
20
0.080457
30
0.0
11
0.010653
21
0.081591
31
0.0
0
LINE
8
0
6
CONTINUOUS
10
0.009916
20
0.081367
30
0.0
11
0.009916
21
0.080457
31
0.0
0
LINE
8
0
6
CONTINUOUS
10
0.010653
20
0.081591
30
0.0
11
0.012747
21
0.081795
31
0.0
0
LINE
8
0
6
CONTINUOUS
10
0.041967
20
0.058325
30
0.0
11
0.042343
21
0.059516
31
0.0
0
LINE
8
0
6
CONTINUOUS
10
0.041967
20
0.058706
30
0.0
11
0.041967
21
0.058325
31
0.0
0
LINE
8
0
6
CONTINUOUS
10
0.042343
20
0.059516
30
0.0
11
0.044341
21
0.059926
31
0.0
0
LINE
8
0
6
CONTINUOUS
10
0.045964
20
0.059145
30
0.0
11
0.045964
21
0.060379
31
0.0
0
LINE
8
0
6
CONTINUOUS
10
0.044341
20
0.059926
30
0.0
11
0.045964
21
0.059145
31
0.0
0
LINE
8
0
6
CONTINUOUS
10
0.012093
20
0.051604
30
0.0
11
0.012093
21
0.052715
31
0.0
0
LINE
8
0
6
CONTINUOUS
10
0.011974
20
0.052812
30
0.0
11
0.012093
21
0.051604
31
0.0
0
LINE
8
0
6
CONTINUOUS
10
0.008301
20
0.052695
30
0.0
11
0.010078
21
0.053358
31
0.0
0
LINE
8
0
6
CONTINUOUS
10
0.008301
20
0.053680
30
0.0
11
0.008301
21
0.052695
31
0.0
0
LINE
8
0
6
CONTINUOUS
10
0.010078
20
0.053358
30
0.0
11
0.011974
21
0.052812
31
0.0
0
LINE
8
0
6
CONTINUOUS
10
0.018249
20
0.053850
30
0.0
11
0.018249
21
0.055135
31
0.0
0
LINE
8
0
6
CONTINUOUS
10
0.018130
20
0.055058
30
0.0
11
0.018249
21
0.053850
31
0.0
0
LINE
8
0
6
CONTINUOUS
10
0.014457
20
0.054941
30
0.0
11
0.016234
21
0.055603
31
0.0
0
LINE
8
0
6
CONTINUOUS
10
0.014457
20
0.055808
30
0.0
11
0.014457
21
0.054941
31
0.0
0
LINE
8
0
6
CONTINUOUS
10
0.016234
20
0.055603
30
0.0
11
0.018130
21
0.055058
31
0.0
0
LINE
8
0
6
CONTINUOUS
10
0.024405
20
0.056461
30
0.0
11
0.024405
21
0.057647
31
0.0
0
LINE
8
0
6
CONTINUOUS
10
0.024286
20
0.057669
30
0.0
11
0.024405
21
0.056461
31
0.0
0
LINE
8
0
6
CONTINUOUS
10
0.020613
20
0.057551
30
0.0
11
0.022390
21
0.058214
31
0.0
0
LINE
8
0
6
CONTINUOUS
10
0.020613
20
0.058440
30
0.0
11
0.020613
21
0.057551
31
0.0
0
LINE
8
0
6
CONTINUOUS
10
0.022390
20
0.058214
30
0.0
11
0.024286
21
0.057669
31
0.0
0
LINE
8
0
6
CONTINUOUS
10
0.030561
20
0.059281
30
0.0
11
0.030561
21
0.060646
31
0.0
0
LINE
8
0
6
CONTINUOUS
10
0.030443
20
0.060489
30
0.0
11
0.030561
21
0.059281
31
0.0
0
LINE
8
0
6
CONTINUOUS
10
0.026769
20
0.060372
30
0.0
11
0.028547
21
0.061035
31
0.0
0
LINE
8
0
6
CONTINUOUS
10
0.026769
20
0.061179
30
0.0
11
0.026769
21
0.060372
31
0.0
0
LINE
8
0
6
CONTINUOUS
10
0.028547
20
0.061035
30
0.0
11
0.030443
21
0.060489
31
0.0
0
LINE
8
0
6
CONTINUOUS
10
0.032926
20
0.063278
30
0.0
11
0.034703
21
0.063941
31
0.0
0
LINE
8
0
6
CONTINUOUS
10
0.032926
20
0.064252
30
0.0
11
0.032926
21
0.063278
31
0.0
0
LINE
8
0
6
CONTINUOUS
10
0.034703
20
0.063941
30
0.0
11
0.036599
21
0.063395
31
0.0
0
LINE
8
0
6
CONTINUOUS
10
0.006627
20
0.057132
30
0.0
11
0.006627
21
0.058185
31
0.0
0
LINE
8
0
6
CONTINUOUS
10
0.006064
20
0.058299
30
0.0
11
0.006627
21
0.057132
31
0.0
0
LINE
8
0
6
CONTINUOUS
10
0.002517
20
0.057743
30
0.0
11
0.004009
21
0.058604
31
0.0
0
LINE
8
0
6
CONTINUOUS
10
0.002517
20
0.058739
30
0.0
11
0.002517
21
0.057743
31
0.0
0
LINE
8
0
6
CONTINUOUS
10
0.004009
20
0.058604
30
0.0
11
0.006064
21
0.058299
31
0.0
0
LINE
8
0
6
CONTINUOUS
10
0.012587
20
0.059772
30
0.0
11
0.012587
21
0.060836
31
0.0
0
LINE
8
0
6
CONTINUOUS
10
0.012025
20
0.060938
30
0.0
11
0.012587
21
0.059772
31
0.0
0
LINE
8
0
6
CONTINUOUS
10
0.008477
20
0.060383
30
0.0
11
0.009969
21
0.061244
31
0.0
0
LINE
8
0
6
CONTINUOUS
10
0.008477
20
0.061397
30
0.0
11
0.008477
21
0.060383
31
0.0
0
LINE
8
0
6
CONTINUOUS
10
0.009969
20
0.061244
30
0.0
11
0.012025
21
0.060938
31
0.0
0
LINE
8
0
6
CONTINUOUS
10
0.018547
20
0.062627
30
0.0
11
0.018547
21
0.063845
31
0.0
0
LINE
8
0
6
CONTINUOUS
10
0.017985
20
0.063793
30
0.0
11
0.018547
21
0.062627
31
0.0
0
LINE
8
0
6
CONTINUOUS
10
0.014437
20
0.063238
30
0.0
11
0.015929
21
0.064099
31
0.0
0
LINE
8
0
6
CONTINUOUS
10
0.014437
20
0.064094
30
0.0
11
0.014437
21
0.063238
31
0.0
0
LINE
8
0
6
CONTINUOUS
10
0.015929
20
0.064099
30
0.0
11
0.017985
21
0.063793
31
0.0
0
LINE
8
0
6
CONTINUOUS
10
0.024507
20
0.065525
30
0.0
11
0.024507
21
0.066844
31
0.0
0
LINE
8
0
6
CONTINUOUS
10
0.023945
20
0.066691
30
0.0
11
0.024507
21
0.065525
31
0.0
0
LINE
8
0
6
CONTINUOUS
10
0.020397
20
0.066136
30
0.0
11
0.021889
21
0.066997
31
0.0
0
LINE
8
0
6
CONTINUOUS
10
0.020397
20
0.067124
30
0.0
11
0.020397
21
0.066136
31
0.0
0
LINE
8
0
6
CONTINUOUS
10
0.021889
20
0.066997
30
0.0
11
0.023945
21
0.066691
31
0.0
0
LINE
8
0
6
CONTINUOUS
10
0.030468
20
0.068922
30
0.0
11
0.030468
21
0.070294
31
0.0
0
LINE
8
0
6
CONTINUOUS
10
0.029905
20
0.070089
30
0.0
11
0.030468
21
0.068922
31
0.0
0
LINE
8
0
6
CONTINUOUS
10
0.026357
20
0.069533
30
0.0
11
0.027850
21
0.070394
31
0.0
0
LINE
8
0
6
CONTINUOUS
10
0.026357
20
0.070357
30
0.0
11
0.026357
21
0.069533
31
0.0
0
LINE
8
0
6
CONTINUOUS
10
0.003452
20
0.066003
30
0.0
11
0.004592
21
0.067024
31
0.0
0
LINE
8
0
6
CONTINUOUS
10
0.003452
20
0.067014
30
0.0
11
0.003452
21
0.066003
31
0.0
0
LINE
8
0
6
CONTINUOUS
10
0.009797
20
0.069632
30
0.0
11
0.010938
21
0.070652
31
0.0
0
LINE
8
0
6
CONTINUOUS
10
0.009797
20
0.070667
30
0.0
11
0.009797
21
0.069632
31
0.0
0
LINE
8
0
6
CONTINUOUS
10
0.020386
20
0.073564
30
0.0
11
0.020386
21
0.074848
31
0.0
0
LINE
8
0
6
CONTINUOUS
10
0.019405
20
0.074637
30
0.0
11
0.020386
21
0.073564
31
0.0
0
LINE
8
0
6
CONTINUOUS
10
0.012417
20
0.046733
30
0.0
11
0.012793
21
0.047924
31
0.0
0
LINE
8
0
6
CONTINUOUS
10
0.012417
20
0.047595
30
0.0
11
0.012417
21
0.046733
31
0.0
0
LINE
8
0
6
CONTINUOUS
10
0.012793
20
0.047924
30
0.0
11
0.014791
21
0.048334
31
0.0
0
LINE
8
0
6
CONTINUOUS
10
0.016414
20
0.047554
30
0.0
11
0.016414
21
0.048809
31
0.0
0
LINE
8
0
6
CONTINUOUS
10
0.014791
20
0.048334
30
0.0
11
0.016414
21
0.047554
31
0.0
0
LINE
8
0
6
CONTINUOUS
10
0.019805
20
0.049284
30
0.0
11
0.020180
21
0.050475
31
0.0
0
LINE
8
0
6
CONTINUOUS
10
0.019805
20
0.050147
30
0.0
11
0.019805
21
0.049284
31
0.0
0
LINE
8
0
6
CONTINUOUS
10
0.020180
20
0.050475
30
0.0
11
0.022179
21
0.050885
31
0.0
0
LINE
8
0
6
CONTINUOUS
10
0.027192
20
0.051957
30
0.0
11
0.027568
21
0.053148
31
0.0
0
LINE
8
0
6
CONTINUOUS
10
0.027192
20
0.052696
30
0.0
11
0.027192
21
0.051957
31
0.0
0
LINE
8
0
6
CONTINUOUS
10
0.027568
20
0.053148
30
0.0
11
0.029566
21
0.053558
31
0.0
0
LINE
8
0
6
CONTINUOUS
10
0.034580
20
0.054781
30
0.0
11
0.034955
21
0.055972
31
0.0
0
LINE
8
0
6
CONTINUOUS
10
0.034580
20
0.054894
30
0.0
11
0.034580
21
0.054781
31
0.0
0
LINE
8
0
6
CONTINUOUS
10
0.034955
20
0.055972
30
0.0
11
0.036954
21
0.056382
31
0.0
0
LINE
8
0
6
CONTINUOUS
10
0.038576
20
0.055601
30
0.0
11
0.038576
21
0.057057
31
0.0
0
LINE
8
0
6
CONTINUOUS
10
0.036954
20
0.056382
30
0.0
11
0.038576
21
0.055601
31
0.0
0
LINE
8
0
6
CONTINUOUS
10
0.017199
20
0.032228
30
0.0
11
0.017574
21
0.033419
31
0.0
0
LINE
8
0
6
CONTINUOUS
10
0.017199
20
0.033027
30
0.0
11
0.017199
21
0.032228
31
0.0
0
LINE
8
0
6
CONTINUOUS
10
0.017574
20
0.033419
30
0.0
11
0.019573
21
0.033829
31
0.0
0
LINE
8
0
6
CONTINUOUS
10
0.021195
20
0.033048
30
0.0
11
0.021195
21
0.034200
31
0.0
0
LINE
8
0
6
CONTINUOUS
10
0.019573
20
0.033829
30
0.0
11
0.021195
21
0.033048
31
0.0
0
LINE
8
0
6
CONTINUOUS
10
0.014808
20
0.039263
30
0.0
11
0.015184
21
0.040454
31
0.0
0
LINE
8
0
6
CONTINUOUS
10
0.014808
20
0.040140
30
0.0
11
0.014808
21
0.039263
31
0.0
0
LINE
8
0
6
CONTINUOUS
10
0.015184
20
0.040454
30
0.0
11
0.017182
21
0.040864
31
0.0
0
LINE
8
0
6
CONTINUOUS
10
0.018805
20
0.040083
30
0.0
11
0.018805
21
0.041232
31
0.0
0
LINE
8
0
6
CONTINUOUS
10
0.017182
20
0.040864
30
0.0
11
0.018805
21
0.040083
31
0.0
0
LINE
8
0
6
CONTINUOUS
10
0.013613
20
0.042916
30
0.0
11
0.013988
21
0.044107
31
0.0
0
LINE
8
0
6
CONTINUOUS
10
0.013613
20
0.043816
30
0.0
11
0.013613
21
0.042916
31
0.0
0
LINE
8
0
6
CONTINUOUS
10
0.032686
20
0.048163
30
0.0
11
0.034309
21
0.048944
31
0.0
0
LINE
8
0
6
CONTINUOUS
10
0.032686
20
0.048876
30
0.0
11
0.032686
21
0.048163
31
0.0
0
LINE
8
0
6
CONTINUOUS
10
0.034309
20
0.048944
30
0.0
11
0.036307
21
0.048534
31
0.0
0
LINE
8
0
6
CONTINUOUS
10
0.036307
20
0.048534
30
0.0
11
0.036683
21
0.047343
31
0.0
0
LINE
8
0
6
CONTINUOUS
10
0.026434
20
0.046452
30
0.0
11
0.028432
21
0.046042
31
0.0
0
LINE
8
0
6
CONTINUOUS
10
0.028432
20
0.046042
30
0.0
11
0.028808
21
0.044851
31
0.0
0
LINE
8
0
6
CONTINUOUS
10
0.026780
20
0.041743
30
0.0
11
0.028403
21
0.042524
31
0.0
0
LINE
8
0
6
CONTINUOUS
10
0.026780
20
0.042380
30
0.0
11
0.026780
21
0.041743
31
0.0
0
LINE
8
0
6
CONTINUOUS
10
0.028403
20
0.042524
30
0.0
11
0.030401
21
0.042114
31
0.0
0
LINE
8
0
6
CONTINUOUS
10
0.031245
20
0.038531
30
0.0
11
0.031620
21
0.037340
31
0.0
0
LINE
8
0
6
CONTINUOUS
10
0.036483
20
0.044545
30
0.0
11
0.038105
21
0.045326
31
0.0
0
LINE
8
0
6
CONTINUOUS
10
0.036483
20
0.044786
30
0.0
11
0.036483
21
0.044545
31
0.0
0
LINE
8
0
6
CONTINUOUS
10
0.038105
20
0.045326
30
0.0
11
0.040104
21
0.044916
31
0.0
0
LINE
8
0
6
CONTINUOUS
10
0.040104
20
0.044916
30
0.0
11
0.040479
21
0.043725
31
0.0
0
LINE
8
0
6
CONTINUOUS
10
0.003184
20
0.047018
30
0.0
11
0.005182
21
0.047428
31
0.0
0
LINE
8
0
6
CONTINUOUS
10
0.006805
20
0.046648
30
0.0
11
0.006805
21
0.047702
31
0.0
0
LINE
8
0
6
CONTINUOUS
10
0.005182
20
0.047428
30
0.0
11
0.006805
21
0.046648
31
0.0
0
LINE
8
0
6
CONTINUOUS
10
0.004123
20
0.032421
30
0.0
11
0.004499
21
0.033612
31
0.0
0
LINE
8
0
6
CONTINUOUS
10
0.004123
20
0.033391
30
0.0
11
0.004123
21
0.032421
31
0.0
0
LINE
8
0
6
CONTINUOUS
10
0.004499
20
0.033612
30
0.0
11
0.006497
21
0.034022
31
0.0
0
LINE
8
0
6
CONTINUOUS
10
0.008120
20
0.033241
30
0.0
11
0.008120
21
0.034135
31
0.0
0
LINE
8
0
6
CONTINUOUS
10
0.006497
20
0.034022
30
0.0
11
0.008120
21
0.033241
31
0.0
0
LINE
8
0
6
CONTINUOUS
10
0.003795
20
0.035595
30
0.0
11
0.004170
21
0.036786
31
0.0
0
LINE
8
0
6
CONTINUOUS
10
0.003795
20
0.036583
30
0.0
11
0.003795
21
0.035595
31
0.0
0
LINE
8
0
6
CONTINUOUS
10
0.004170
20
0.036786
30
0.0
11
0.006169
21
0.037196
31
0.0
0
LINE
8
0
6
CONTINUOUS
10
0.007791
20
0.036415
30
0.0
11
0.007791
21
0.037413
31
0.0
0
LINE
8
0
6
CONTINUOUS
10
0.006169
20
0.037196
30
0.0
11
0.007791
21
0.036415
31
0.0
0
LINE
8
0
6
CONTINUOUS
10
0.003466
20
0.038957
30
0.0
11
0.003842
21
0.040148
31
0.0
0
LINE
8
0
6
CONTINUOUS
10
0.003466
20
0.039937
30
0.0
11
0.003466
21
0.038957
31
0.0
0
LINE
8
0
6
CONTINUOUS
10
0.003842
20
0.040148
30
0.0
11
0.005840
21
0.040558
31
0.0
0
LINE
8
0
6
CONTINUOUS
10
0.007463
20
0.039778
30
0.0
11
0.007463
21
0.040795
31
0.0
0
LINE
8
0
6
CONTINUOUS
10
0.005840
20
0.040558
30
0.0
11
0.007463
21
0.039778
31
0.0
0
LINE
8
0
6
CONTINUOUS
10
0.003137
20
0.042395
30
0.0
11
0.003513
21
0.043586
31
0.0
0
LINE
8
0
6
CONTINUOUS
10
0.003137
20
0.043376
30
0.0
11
0.003137
21
0.042395
31
0.0
0
LINE
8
0
6
CONTINUOUS
10
0.003513
20
0.043586
30
0.0
11
0.005511
21
0.043996
31
0.0
0
LINE
8
0
6
CONTINUOUS
10
0.007134
20
0.043216
30
0.0
11
0.007134
21
0.044242
31
0.0
0
LINE
8
0
6
CONTINUOUS
10
0.005511
20
0.043996
30
0.0
11
0.007134
21
0.043216
31
0.0
0
LINE
8
0
6
CONTINUOUS
10
-0.005056
20
0.043605
30
0.0
11
-0.004680
21
0.042414
31
0.0
0
LINE
8
0
6
CONTINUOUS
10
-0.007054
20
0.044015
30
0.0
11
-0.005056
21
0.043605
31
0.0
0
LINE
8
0
6
CONTINUOUS
10
-0.008677
20
0.043235
30
0.0
11
-0.007054
21
0.044015
31
0.0
0
LINE
8
0
6
CONTINUOUS
10
-0.008677
20
0.044299
30
0.0
11
-0.008677
21
0.043235
31
0.0
0
LINE
8
0
6
CONTINUOUS
10
-0.005384
20
0.040157
30
0.0
11
-0.005009
21
0.038966
31
0.0
0
LINE
8
0
6
CONTINUOUS
10
-0.007383
20
0.040567
30
0.0
11
-0.005384
21
0.040157
31
0.0
0
LINE
8
0
6
CONTINUOUS
10
-0.009005
20
0.039786
30
0.0
11
-0.007383
21
0.040567
31
0.0
0
LINE
8
0
6
CONTINUOUS
10
-0.009005
20
0.040853
30
0.0
11
-0.009005
21
0.039786
31
0.0
0
LINE
8
0
6
CONTINUOUS
10
-0.009334
20
0.036397
30
0.0
11
-0.007711
21
0.037178
31
0.0
0
LINE
8
0
6
CONTINUOUS
10
-0.009334
20
0.037466
30
0.0
11
-0.009334
21
0.036397
31
0.0
0
LINE
8
0
6
CONTINUOUS
10
-0.009663
20
0.033356
30
0.0
11
-0.008040
21
0.034136
31
0.0
0
LINE
8
0
6
CONTINUOUS
10
-0.009663
20
0.034252
30
0.0
11
-0.009663
21
0.033356
31
0.0
0
LINE
8
0
6
CONTINUOUS
10
-0.004727
20
0.047036
30
0.0
11
-0.004351
21
0.045845
31
0.0
0
LINE
8
0
6
CONTINUOUS
10
-0.006725
20
0.047446
30
0.0
11
-0.004727
21
0.047036
31
0.0
0
LINE
8
0
6
CONTINUOUS
10
-0.008348
20
0.046666
30
0.0
11
-0.006725
21
0.047446
31
0.0
0
LINE
8
0
6
CONTINUOUS
10
-0.008348
20
0.047765
30
0.0
11
-0.008348
21
0.046666
31
0.0
0
LINE
8
0
6
CONTINUOUS
10
-0.041646
20
0.045042
30
0.0
11
-0.039648
21
0.045452
31
0.0
0
LINE
8
0
6
CONTINUOUS
10
-0.042022
20
0.043851
30
0.0
11
-0.041646
21
0.045042
31
0.0
0
LINE
8
0
6
CONTINUOUS
10
-0.042022
20
0.044966
30
0.0
11
-0.042022
21
0.043851
31
0.0
0
LINE
8
0
6
CONTINUOUS
10
-0.029166
20
0.038333
30
0.0
11
-0.029166
21
0.038928
31
0.0
0
LINE
8
0
6
CONTINUOUS
10
-0.030789
20
0.039114
30
0.0
11
-0.029166
21
0.038333
31
0.0
0
LINE
8
0
6
CONTINUOUS
10
-0.032787
20
0.038704
30
0.0
11
-0.030789
21
0.039114
31
0.0
0
LINE
8
0
6
CONTINUOUS
10
-0.033163
20
0.037513
30
0.0
11
-0.032787
21
0.038704
31
0.0
0
LINE
8
0
6
CONTINUOUS
10
-0.033163
20
0.038815
30
0.0
11
-0.033163
21
0.037513
31
0.0
0
LINE
8
0
6
CONTINUOUS
10
-0.028323
20
0.041792
30
0.0
11
-0.028323
21
0.042603
31
0.0
0
LINE
8
0
6
CONTINUOUS
10
-0.029945
20
0.042573
30
0.0
11
-0.028323
21
0.041792
31
0.0
0
LINE
8
0
6
CONTINUOUS
10
-0.031944
20
0.042163
30
0.0
11
-0.029945
21
0.042573
31
0.0
0
LINE
8
0
6
CONTINUOUS
10
-0.032319
20
0.040972
30
0.0
11
-0.031944
21
0.042163
31
0.0
0
LINE
8
0
6
CONTINUOUS
10
-0.032319
20
0.042471
30
0.0
11
-0.032319
21
0.040972
31
0.0
0
LINE
8
0
6
CONTINUOUS
10
-0.029975
20
0.046115
30
0.0
11
-0.027977
21
0.046525
31
0.0
0
LINE
8
0
6
CONTINUOUS
10
-0.030351
20
0.044924
30
0.0
11
-0.029975
21
0.046115
31
0.0
0
LINE
8
0
6
CONTINUOUS
10
-0.030351
20
0.046478
30
0.0
11
-0.030351
21
0.044924
31
0.0
0
LINE
8
0
6
CONTINUOUS
10
-0.034229
20
0.048269
30
0.0
11
-0.034229
21
0.049135
31
0.0
0
LINE
8
0
6
CONTINUOUS
10
-0.035851
20
0.049050
30
0.0
11
-0.034229
21
0.048269
31
0.0
0
LINE
8
0
6
CONTINUOUS
10
-0.037850
20
0.048640
30
0.0
11
-0.035851
21
0.049050
31
0.0
0
LINE
8
0
6
CONTINUOUS
10
-0.038225
20
0.047449
30
0.0
11
-0.037850
21
0.048640
31
0.0
0
LINE
8
0
6
CONTINUOUS
10
-0.038225
20
0.049003
30
0.0
11
-0.038225
21
0.047449
31
0.0
0
LINE
8
0
6
CONTINUOUS
10
-0.015531
20
0.044158
30
0.0
11
-0.015155
21
0.042967
31
0.0
0
LINE
8
0
6
CONTINUOUS
10
-0.017529
20
0.044568
30
0.0
11
-0.015531
21
0.044158
31
0.0
0
LINE
8
0
6
CONTINUOUS
10
-0.019152
20
0.043787
30
0.0
11
-0.017529
21
0.044568
31
0.0
0
LINE
8
0
6
CONTINUOUS
10
-0.019152
20
0.045100
30
0.0
11
-0.019152
21
0.043787
31
0.0
0
LINE
8
0
6
CONTINUOUS
10
-0.018725
20
0.040854
30
0.0
11
-0.016726
21
0.040444
31
0.0
0
LINE
8
0
6
CONTINUOUS
10
-0.020347
20
0.040073
30
0.0
11
-0.018725
21
0.040854
31
0.0
0
LINE
8
0
6
CONTINUOUS
10
-0.020347
20
0.041389
30
0.0
11
-0.020347
21
0.040073
31
0.0
0
LINE
8
0
6
CONTINUOUS
10
-0.017922
20
0.036868
30
0.0
11
-0.017546
21
0.035677
31
0.0
0
LINE
8
0
6
CONTINUOUS
10
-0.019920
20
0.037278
30
0.0
11
-0.017922
21
0.036868
31
0.0
0
LINE
8
0
6
CONTINUOUS
10
-0.021543
20
0.036497
30
0.0
11
-0.019920
21
0.037278
31
0.0
0
LINE
8
0
6
CONTINUOUS
10
-0.021543
20
0.037832
30
0.0
11
-0.021543
21
0.036497
31
0.0
0
LINE
8
0
6
CONTINUOUS
10
-0.021115
20
0.034268
30
0.0
11
-0.019117
21
0.033858
31
0.0
0
LINE
8
0
6
CONTINUOUS
10
-0.022738
20
0.033487
30
0.0
11
-0.021115
21
0.034268
31
0.0
0
LINE
8
0
6
CONTINUOUS
10
-0.022738
20
0.034386
30
0.0
11
-0.022738
21
0.033487
31
0.0
0
LINE
8
0
6
CONTINUOUS
10
-0.036498
20
0.056086
30
0.0
11
-0.036122
21
0.054895
31
0.0
0
LINE
8
0
6
CONTINUOUS
10
-0.038496
20
0.056496
30
0.0
11
-0.036498
21
0.056086
31
0.0
0
LINE
8
0
6
CONTINUOUS
10
-0.040119
20
0.055715
30
0.0
11
-0.038496
21
0.056496
31
0.0
0
LINE
8
0
6
CONTINUOUS
10
-0.040119
20
0.057333
30
0.0
11
-0.040119
21
0.055715
31
0.0
0
LINE
8
0
6
CONTINUOUS
10
-0.029111
20
0.053244
30
0.0
11
-0.028735
21
0.052053
31
0.0
0
LINE
8
0
6
CONTINUOUS
10
-0.031109
20
0.053654
30
0.0
11
-0.029111
21
0.053244
31
0.0
0
LINE
8
0
6
CONTINUOUS
10
-0.032732
20
0.052873
30
0.0
11
-0.031109
21
0.053654
31
0.0
0
LINE
8
0
6
CONTINUOUS
10
-0.032732
20
0.054384
30
0.0
11
-0.032732
21
0.052873
31
0.0
0
LINE
8
0
6
CONTINUOUS
10
-0.023722
20
0.050953
30
0.0
11
-0.021723
21
0.050543
31
0.0
0
LINE
8
0
6
CONTINUOUS
10
-0.025344
20
0.050172
30
0.0
11
-0.023722
21
0.050953
31
0.0
0
LINE
8
0
6
CONTINUOUS
10
-0.025344
20
0.051533
30
0.0
11
-0.025344
21
0.050172
31
0.0
0
LINE
8
0
6
CONTINUOUS
10
-0.014336
20
0.047975
30
0.0
11
-0.013960
21
0.046784
31
0.0
0
LINE
8
0
6
CONTINUOUS
10
-0.017957
20
0.047605
30
0.0
11
-0.016334
21
0.048385
31
0.0
0
LINE
8
0
6
CONTINUOUS
10
-0.017957
20
0.048989
30
0.0
11
-0.017957
21
0.047605
31
0.0
0
LINE
8
0
6
CONTINUOUS
10
-0.002865
20
0.072173
30
0.0
11
-0.001509
21
0.073104
31
0.0
0
LINE
8
0
6
CONTINUOUS
10
-0.002865
20
0.073405
30
0.0
11
-0.002865
21
0.072173
31
0.0
0
LINE
8
0
6
CONTINUOUS
10
0.000585
20
0.072900
30
0.0
11
0.001322
21
0.071766
31
0.0
0
LINE
8
0
6
CONTINUOUS
10
-0.001509
20
0.073104
30
0.0
11
0.000585
21
0.072900
31
0.0
0
LINE
8
0
6
CONTINUOUS
10
-0.021929
20
0.073620
30
0.0
11
-0.020948
21
0.074693
31
0.0
0
LINE
8
0
6
CONTINUOUS
10
-0.021929
20
0.074981
30
0.0
11
-0.021929
21
0.073620
31
0.0
0
LINE
8
0
6
CONTINUOUS
10
-0.018826
20
0.074745
30
0.0
11
-0.017685
21
0.073724
31
0.0
0
LINE
8
0
6
CONTINUOUS
10
-0.020948
20
0.074693
30
0.0
11
-0.018826
21
0.074745
31
0.0
0
LINE
8
0
6
CONTINUOUS
10
-0.015584
20
0.069559
30
0.0
11
-0.014603
21
0.070632
31
0.0
0
LINE
8
0
6
CONTINUOUS
10
-0.015584
20
0.070897
30
0.0
11
-0.015584
21
0.069559
31
0.0
0
LINE
8
0
6
CONTINUOUS
10
-0.012480
20
0.070685
30
0.0
11
-0.011340
21
0.069664
31
0.0
0
LINE
8
0
6
CONTINUOUS
10
-0.014603
20
0.070632
30
0.0
11
-0.012480
21
0.070685
31
0.0
0
LINE
8
0
6
CONTINUOUS
10
-0.002894
20
0.062532
30
0.0
11
-0.001912
21
0.063605
31
0.0
0
LINE
8
0
6
CONTINUOUS
10
0.001351
20
0.062637
30
0.0
11
0.001351
21
0.064813
31
0.0
0
LINE
8
0
6
CONTINUOUS
10
0.000210
20
0.063657
30
0.0
11
0.001351
21
0.062637
31
0.0
0
LINE
8
0
6
CONTINUOUS
10
-0.001912
20
0.063605
30
0.0
11
0.000210
21
0.063657
31
0.0
0
LINE
8
0
6
CONTINUOUS
10
-0.032010
20
0.069021
30
0.0
11
-0.031448
21
0.070188
31
0.0
0
LINE
8
0
6
CONTINUOUS
10
-0.032010
20
0.070494
30
0.0
11
-0.032010
21
0.069021
31
0.0
0
LINE
8
0
6
CONTINUOUS
10
-0.029392
20
0.070494
30
0.0
11
-0.027900
21
0.069633
31
0.0
0
LINE
8
0
6
CONTINUOUS
10
-0.031448
20
0.070188
30
0.0
11
-0.029392
21
0.070494
31
0.0
0
LINE
8
0
6
CONTINUOUS
10
-0.026050
20
0.065595
30
0.0
11
-0.025488
21
0.066761
31
0.0
0
LINE
8
0
6
CONTINUOUS
10
-0.026050
20
0.067020
30
0.0
11
-0.026050
21
0.065595
31
0.0
0
LINE
8
0
6
CONTINUOUS
10
-0.023432
20
0.067067
30
0.0
11
-0.021940
21
0.066206
31
0.0
0
LINE
8
0
6
CONTINUOUS
10
-0.025488
20
0.066761
30
0.0
11
-0.023432
21
0.067067
31
0.0
0
LINE
8
0
6
CONTINUOUS
10
-0.020090
20
0.062686
30
0.0
11
-0.019527
21
0.063853
31
0.0
0
LINE
8
0
6
CONTINUOUS
10
-0.020090
20
0.064014
30
0.0
11
-0.020090
21
0.062686
31
0.0
0
LINE
8
0
6
CONTINUOUS
10
-0.017472
20
0.064159
30
0.0
11
-0.015980
21
0.063298
31
0.0
0
LINE
8
0
6
CONTINUOUS
10
-0.019527
20
0.063853
30
0.0
11
-0.017472
21
0.064159
31
0.0
0
LINE
8
0
6
CONTINUOUS
10
-0.011512
20
0.061274
30
0.0
11
-0.010020
21
0.060413
31
0.0
0
LINE
8
0
6
CONTINUOUS
10
-0.008170
20
0.057150
30
0.0
11
-0.007607
21
0.058316
31
0.0
0
LINE
8
0
6
CONTINUOUS
10
-0.008170
20
0.058241
30
0.0
11
-0.008170
21
0.057150
31
0.0
0
LINE
8
0
6
CONTINUOUS
10
-0.007607
20
0.058316
30
0.0
11
-0.005552
21
0.058622
31
0.0
0
LINE
8
0
6
CONTINUOUS
10
-0.038260
20
0.062293
30
0.0
11
-0.038142
21
0.063502
31
0.0
0
LINE
8
0
6
CONTINUOUS
10
-0.038260
20
0.063841
30
0.0
11
-0.038260
21
0.062293
31
0.0
0
LINE
8
0
6
CONTINUOUS
10
-0.036246
20
0.064047
30
0.0
11
-0.034468
21
0.063384
31
0.0
0
LINE
8
0
6
CONTINUOUS
10
-0.038142
20
0.063502
30
0.0
11
-0.036246
21
0.064047
31
0.0
0
LINE
8
0
6
CONTINUOUS
10
-0.032104
20
0.059379
30
0.0
11
-0.031985
21
0.060587
31
0.0
0
LINE
8
0
6
CONTINUOUS
10
-0.032104
20
0.060890
30
0.0
11
-0.032104
21
0.059379
31
0.0
0
LINE
8
0
6
CONTINUOUS
10
-0.030089
20
0.061132
30
0.0
11
-0.028312
21
0.060470
31
0.0
0
LINE
8
0
6
CONTINUOUS
10
-0.031985
20
0.060587
30
0.0
11
-0.030089
21
0.061132
31
0.0
0
LINE
8
0
6
CONTINUOUS
10
-0.025948
20
0.056532
30
0.0
11
-0.025829
21
0.057740
31
0.0
0
LINE
8
0
6
CONTINUOUS
10
-0.025948
20
0.057819
30
0.0
11
-0.025948
21
0.056532
31
0.0
0
LINE
8
0
6
CONTINUOUS
10
-0.025829
20
0.057740
30
0.0
11
-0.023933
21
0.058286
31
0.0
0
LINE
8
0
6
CONTINUOUS
10
-0.019792
20
0.053906
30
0.0
11
-0.019673
21
0.055114
31
0.0
0
LINE
8
0
6
CONTINUOUS
10
-0.019792
20
0.055296
30
0.0
11
-0.019792
21
0.053906
31
0.0
0
LINE
8
0
6
CONTINUOUS
10
-0.019673
20
0.055114
30
0.0
11
-0.017777
21
0.055659
31
0.0
0
LINE
8
0
6
CONTINUOUS
10
-0.013636
20
0.051635
30
0.0
11
-0.013517
21
0.052843
31
0.0
0
LINE
8
0
6
CONTINUOUS
10
-0.013636
20
0.052787
30
0.0
11
-0.013636
21
0.051635
31
0.0
0
LINE
8
0
6
CONTINUOUS
10
-0.011621
20
0.053388
30
0.0
11
-0.009844
21
0.052726
31
0.0
0
LINE
8
0
6
CONTINUOUS
10
-0.013517
20
0.052843
30
0.0
11
-0.011621
21
0.053388
31
0.0
0
LINE
8
0
6
CONTINUOUS
10
-0.043885
20
0.059661
30
0.0
11
-0.043510
21
0.058470
31
0.0
0
LINE
8
0
6
CONTINUOUS
10
-0.047506
20
0.059290
30
0.0
11
-0.045884
21
0.060071
31
0.0
0
LINE
8
0
6
CONTINUOUS
10
-0.047506
20
0.060691
30
0.0
11
-0.047506
21
0.059290
31
0.0
0
LINE
8
0
6
CONTINUOUS
10
-0.015646
20
0.080897
30
0.0
11
-0.014290
21
0.081829
31
0.0
0
LINE
8
0
6
CONTINUOUS
10
-0.015646
20
0.082143
30
0.0
11
-0.015646
21
0.080897
31
0.0
0
LINE
8
0
6
CONTINUOUS
10
-0.012196
20
0.081625
30
0.0
11
-0.011459
21
0.080490
31
0.0
0
LINE
8
0
6
CONTINUOUS
10
-0.014290
20
0.081829
30
0.0
11
-0.012196
21
0.081625
31
0.0
0
LINE
8
0
6
CONTINUOUS
10
-0.025171
20
0.078749
30
0.0
11
-0.024030
21
0.077728
31
0.0
0
LINE
8
0
6
CONTINUOUS
10
-0.027293
20
0.078696
30
0.0
11
-0.025171
21
0.078749
31
0.0
0
LINE
8
0
6
CONTINUOUS
10
-0.002928
20
0.081988
30
0.0
11
-0.002293
21
0.083143
31
0.0
0
LINE
8
0
6
CONTINUOUS
10
-0.002928
20
0.082996
30
0.0
11
-0.002928
21
0.081988
31
0.0
0
LINE
8
0
6
CONTINUOUS
10
-0.000220
20
0.083407
30
0.0
11
0.001218
21
0.082516
31
0.0
0
LINE
8
0
6
CONTINUOUS
10
-0.037970
20
0.072259
30
0.0
11
-0.037408
21
0.073426
31
0.0
0
LINE
8
0
6
CONTINUOUS
10
-0.037970
20
0.073689
30
0.0
11
-0.037970
21
0.072259
31
0.0
0
LINE
8
0
6
CONTINUOUS
10
-0.037408
20
0.073426
30
0.0
11
-0.035352
21
0.073732
31
0.0
0
LINE
8
0
6
CONTINUOUS
10
-0.044417
20
0.065668
30
0.0
11
-0.044298
21
0.066876
31
0.0
0
LINE
8
0
6
CONTINUOUS
10
-0.044417
20
0.066901
30
0.0
11
-0.044417
21
0.065668
31
0.0
0
LINE
8
0
6
CONTINUOUS
10
-0.042402
20
0.067422
30
0.0
11
-0.040624
21
0.066759
31
0.0
0
LINE
8
0
6
CONTINUOUS
10
-0.044298
20
0.066876
30
0.0
11
-0.042402
21
0.067422
31
0.0
0
LINE
8
0
6
CONTINUOUS
10
-0.042666
20
0.051725
30
0.0
11
-0.042666
21
0.052242
31
0.0
0
LINE
8
0
6
CONTINUOUS
10
-0.044289
20
0.052506
30
0.0
11
-0.042666
21
0.051725
31
0.0
0
LINE
8
0
6
CONTINUOUS
10
-0.046663
20
0.050905
30
0.0
11
-0.046287
21
0.052096
31
0.0
0
LINE
8
0
6
CONTINUOUS
10
-0.046663
20
0.052269
30
0.0
11
-0.046663
21
0.050905
31
0.0
0
LINE
8
0
6
CONTINUOUS
10
0.042746
20
0.052367
30
0.0
11
0.041123
21
0.051587
31
0.0
0
LINE
8
0
6
CONTINUOUS
10
0.044744
20
0.051957
30
0.0
11
0.042746
21
0.052367
31
0.0
0
LINE
8
0
6
CONTINUOUS
10
0.045120
20
0.050766
30
0.0
11
0.044744
21
0.051957
31
0.0
0
LINE
8
0
6
CONTINUOUS
10
0.043497
20
0.049985
30
0.0
11
0.045120
21
0.050766
31
0.0
0
LINE
8
0
6
CONTINUOUS
10
0.041499
20
0.050396
30
0.0
11
0.043497
21
0.049985
31
0.0
0
LINE
8
0
6
CONTINUOUS
10
0.041123
20
0.051587
30
0.0
11
0.041499
21
0.050396
31
0.0
0
LINE
8
0
6
CONTINUOUS
10
0.039082
20
0.066622
30
0.0
11
0.039200
21
0.065414
31
0.0
0
LINE
8
0
6
CONTINUOUS
10
0.040859
20
0.067284
30
0.0
11
0.039082
21
0.066622
31
0.0
0
LINE
8
0
6
CONTINUOUS
10
0.042755
20
0.066739
30
0.0
11
0.040859
21
0.067284
31
0.0
0
LINE
8
0
6
CONTINUOUS
10
0.042874
20
0.065531
30
0.0
11
0.042755
21
0.066739
31
0.0
0
LINE
8
0
6
CONTINUOUS
10
0.041097
20
0.064868
30
0.0
11
0.042874
21
0.065531
31
0.0
0
LINE
8
0
6
CONTINUOUS
10
0.039200
20
0.065414
30
0.0
11
0.041097
21
0.064868
31
0.0
0
LINE
8
0
6
CONTINUOUS
10
0.032317
20
0.072772
30
0.0
11
0.032880
21
0.071605
31
0.0
0
LINE
8
0
6
CONTINUOUS
10
0.033810
20
0.073633
30
0.0
11
0.032317
21
0.072772
31
0.0
0
LINE
8
0
6
CONTINUOUS
10
0.035865
20
0.073327
30
0.0
11
0.033810
21
0.073633
31
0.0
0
LINE
8
0
6
CONTINUOUS
10
0.036428
20
0.072160
30
0.0
11
0.035865
21
0.073327
31
0.0
0
LINE
8
0
6
CONTINUOUS
10
0.034935
20
0.071299
30
0.0
11
0.036428
21
0.072160
31
0.0
0
LINE
8
0
6
CONTINUOUS
10
0.032880
20
0.071605
30
0.0
11
0.034935
21
0.071299
31
0.0
0
LINE
8
0
6
CONTINUOUS
10
0.022488
20
0.077653
30
0.0
11
0.023469
21
0.076580
31
0.0
0
LINE
8
0
6
CONTINUOUS
10
0.023628
20
0.078674
30
0.0
11
0.022488
21
0.077653
31
0.0
0
LINE
8
0
6
CONTINUOUS
10
0.025750
20
0.078622
30
0.0
11
0.023628
21
0.078674
31
0.0
0
LINE
8
0
6
CONTINUOUS
10
0.026732
20
0.077549
30
0.0
11
0.025750
21
0.078622
31
0.0
0
LINE
8
0
6
CONTINUOUS
10
0.025591
20
0.076528
30
0.0
11
0.026732
21
0.077549
31
0.0
0
LINE
8
0
6
CONTINUOUS
10
0.023469
20
0.076580
30
0.0
11
0.025591
21
0.076528
31
0.0
0
LINE
8
0
6
CONTINUOUS
10
0.009916
20
0.080457
30
0.0
11
0.011272
21
0.079525
31
0.0
0
LINE
8
0
6
CONTINUOUS
10
0.010653
20
0.081591
30
0.0
11
0.009916
21
0.080457
31
0.0
0
LINE
8
0
6
CONTINUOUS
10
0.012747
20
0.081795
30
0.0
11
0.010653
21
0.081591
31
0.0
0
LINE
8
0
6
CONTINUOUS
10
0.014103
20
0.080864
30
0.0
11
0.012747
21
0.081795
31
0.0
0
LINE
8
0
6
CONTINUOUS
10
0.013366
20
0.079729
30
0.0
11
0.014103
21
0.080864
31
0.0
0
LINE
8
0
6
CONTINUOUS
10
0.011272
20
0.079525
30
0.0
11
0.013366
21
0.079729
31
0.0
0
LINE
8
0
6
CONTINUOUS
10
0.042343
20
0.059516
30
0.0
11
0.041967
21
0.058325
31
0.0
0
LINE
8
0
6
CONTINUOUS
10
0.044341
20
0.059926
30
0.0
11
0.042343
21
0.059516
31
0.0
0
LINE
8
0
6
CONTINUOUS
10
0.045964
20
0.059145
30
0.0
11
0.044341
21
0.059926
31
0.0
0
LINE
8
0
6
CONTINUOUS
10
0.045588
20
0.057954
30
0.0
11
0.045964
21
0.059145
31
0.0
0
LINE
8
0
6
CONTINUOUS
10
0.043590
20
0.057544
30
0.0
11
0.045588
21
0.057954
31
0.0
0
LINE
8
0
6
CONTINUOUS
10
0.041967
20
0.058325
30
0.0
11
0.043590
21
0.057544
31
0.0
0
LINE
8
0
6
CONTINUOUS
10
0.008301
20
0.052695
30
0.0
11
0.008420
21
0.051487
31
0.0
0
LINE
8
0
6
CONTINUOUS
10
0.010078
20
0.053358
30
0.0
11
0.008301
21
0.052695
31
0.0
0
LINE
8
0
6
CONTINUOUS
10
0.011974
20
0.052812
30
0.0
11
0.010078
21
0.053358
31
0.0
0
LINE
8
0
6
CONTINUOUS
10
0.012093
20
0.051604
30
0.0
11
0.011974
21
0.052812
31
0.0
0
LINE
8
0
6
CONTINUOUS
10
0.010316
20
0.050941
30
0.0
11
0.012093
21
0.051604
31
0.0
0
LINE
8
0
6
CONTINUOUS
10
0.008420
20
0.051487
30
0.0
11
0.010316
21
0.050941
31
0.0
0
LINE
8
0
6
CONTINUOUS
10
0.014457
20
0.054941
30
0.0
11
0.014576
21
0.053733
31
0.0
0
LINE
8
0
6
CONTINUOUS
10
0.016234
20
0.055603
30
0.0
11
0.014457
21
0.054941
31
0.0
0
LINE
8
0
6
CONTINUOUS
10
0.018130
20
0.055058
30
0.0
11
0.016234
21
0.055603
31
0.0
0
LINE
8
0
6
CONTINUOUS
10
0.018249
20
0.053850
30
0.0
11
0.018130
21
0.055058
31
0.0
0
LINE
8
0
6
CONTINUOUS
10
0.016472
20
0.053187
30
0.0
11
0.018249
21
0.053850
31
0.0
0
LINE
8
0
6
CONTINUOUS
10
0.014576
20
0.053733
30
0.0
11
0.016472
21
0.053187
31
0.0
0
LINE
8
0
6
CONTINUOUS
10
0.020613
20
0.057551
30
0.0
11
0.020732
21
0.056343
31
0.0
0
LINE
8
0
6
CONTINUOUS
10
0.022390
20
0.058214
30
0.0
11
0.020613
21
0.057551
31
0.0
0
LINE
8
0
6
CONTINUOUS
10
0.024286
20
0.057669
30
0.0
11
0.022390
21
0.058214
31
0.0
0
LINE
8
0
6
CONTINUOUS
10
0.024405
20
0.056461
30
0.0
11
0.024286
21
0.057669
31
0.0
0
LINE
8
0
6
CONTINUOUS
10
0.022628
20
0.055798
30
0.0
11
0.024405
21
0.056461
31
0.0
0
LINE
8
0
6
CONTINUOUS
10
0.020732
20
0.056343
30
0.0
11
0.022628
21
0.055798
31
0.0
0
LINE
8
0
6
CONTINUOUS
10
0.026769
20
0.060372
30
0.0
11
0.026888
21
0.059164
31
0.0
0
LINE
8
0
6
CONTINUOUS
10
0.028547
20
0.061035
30
0.0
11
0.026769
21
0.060372
31
0.0
0
LINE
8
0
6
CONTINUOUS
10
0.030443
20
0.060489
30
0.0
11
0.028547
21
0.061035
31
0.0
0
LINE
8
0
6
CONTINUOUS
10
0.030561
20
0.059281
30
0.0
11
0.030443
21
0.060489
31
0.0
0
LINE
8
0
6
CONTINUOUS
10
0.028784
20
0.058619
30
0.0
11
0.030561
21
0.059281
31
0.0
0
LINE
8
0
6
CONTINUOUS
10
0.026888
20
0.059164
30
0.0
11
0.028784
21
0.058619
31
0.0
0
LINE
8
0
6
CONTINUOUS
10
0.032926
20
0.063278
30
0.0
11
0.033044
21
0.062070
31
0.0
0
LINE
8
0
6
CONTINUOUS
10
0.034703
20
0.063941
30
0.0
11
0.032926
21
0.063278
31
0.0
0
LINE
8
0
6
CONTINUOUS
10
0.036599
20
0.063395
30
0.0
11
0.034703
21
0.063941
31
0.0
0
LINE
8
0
6
CONTINUOUS
10
0.036718
20
0.062187
30
0.0
11
0.036599
21
0.063395
31
0.0
0
LINE
8
0
6
CONTINUOUS
10
0.034940
20
0.061525
30
0.0
11
0.036718
21
0.062187
31
0.0
0
LINE
8
0
6
CONTINUOUS
10
0.033044
20
0.062070
30
0.0
11
0.034940
21
0.061525
31
0.0
0
LINE
8
0
6
CONTINUOUS
10
0.002517
20
0.057743
30
0.0
11
0.003080
21
0.056577
31
0.0
0
LINE
8
0
6
CONTINUOUS
10
0.004009
20
0.058604
30
0.0
11
0.002517
21
0.057743
31
0.0
0
LINE
8
0
6
CONTINUOUS
10
0.006064
20
0.058299
30
0.0
11
0.004009
21
0.058604
31
0.0
0
LINE
8
0
6
CONTINUOUS
10
0.006627
20
0.057132
30
0.0
11
0.006064
21
0.058299
31
0.0
0
LINE
8
0
6
CONTINUOUS
10
0.005135
20
0.056271
30
0.0
11
0.006627
21
0.057132
31
0.0
0
LINE
8
0
6
CONTINUOUS
10
0.003080
20
0.056577
30
0.0
11
0.005135
21
0.056271
31
0.0
0
LINE
8
0
6
CONTINUOUS
10
0.008477
20
0.060383
30
0.0
11
0.009040
21
0.059216
31
0.0
0
LINE
8
0
6
CONTINUOUS
10
0.009969
20
0.061244
30
0.0
11
0.008477
21
0.060383
31
0.0
0
LINE
8
0
6
CONTINUOUS
10
0.012025
20
0.060938
30
0.0
11
0.009969
21
0.061244
31
0.0
0
LINE
8
0
6
CONTINUOUS
10
0.012587
20
0.059772
30
0.0
11
0.012025
21
0.060938
31
0.0
0
LINE
8
0
6
CONTINUOUS
10
0.011095
20
0.058911
30
0.0
11
0.012587
21
0.059772
31
0.0
0
LINE
8
0
6
CONTINUOUS
10
0.009040
20
0.059216
30
0.0
11
0.011095
21
0.058911
31
0.0
0
LINE
8
0
6
CONTINUOUS
10
0.014437
20
0.063238
30
0.0
11
0.015000
21
0.062071
31
0.0
0
LINE
8
0
6
CONTINUOUS
10
0.015929
20
0.064099
30
0.0
11
0.014437
21
0.063238
31
0.0
0
LINE
8
0
6
CONTINUOUS
10
0.017985
20
0.063793
30
0.0
11
0.015929
21
0.064099
31
0.0
0
LINE
8
0
6
CONTINUOUS
10
0.018547
20
0.062627
30
0.0
11
0.017985
21
0.063793
31
0.0
0
LINE
8
0
6
CONTINUOUS
10
0.017055
20
0.061766
30
0.0
11
0.018547
21
0.062627
31
0.0
0
LINE
8
0
6
CONTINUOUS
10
0.015000
20
0.062071
30
0.0
11
0.017055
21
0.061766
31
0.0
0
LINE
8
0
6
CONTINUOUS
10
0.020397
20
0.066136
30
0.0
11
0.020960
21
0.064969
31
0.0
0
LINE
8
0
6
CONTINUOUS
10
0.021889
20
0.066997
30
0.0
11
0.020397
21
0.066136
31
0.0
0
LINE
8
0
6
CONTINUOUS
10
0.023945
20
0.066691
30
0.0
11
0.021889
21
0.066997
31
0.0
0
LINE
8
0
6
CONTINUOUS
10
0.024507
20
0.065525
30
0.0
11
0.023945
21
0.066691
31
0.0
0
LINE
8
0
6
CONTINUOUS
10
0.023015
20
0.064664
30
0.0
11
0.024507
21
0.065525
31
0.0
0
LINE
8
0
6
CONTINUOUS
10
0.020960
20
0.064969
30
0.0
11
0.023015
21
0.064664
31
0.0
0
LINE
8
0
6
CONTINUOUS
10
0.026357
20
0.069533
30
0.0
11
0.026920
21
0.068367
31
0.0
0
LINE
8
0
6
CONTINUOUS
10
0.027850
20
0.070394
30
0.0
11
0.026357
21
0.069533
31
0.0
0
LINE
8
0
6
CONTINUOUS
10
0.029905
20
0.070089
30
0.0
11
0.027850
21
0.070394
31
0.0
0
LINE
8
0
6
CONTINUOUS
10
0.030468
20
0.068922
30
0.0
11
0.029905
21
0.070089
31
0.0
0
LINE
8
0
6
CONTINUOUS
10
0.028975
20
0.068061
30
0.0
11
0.030468
21
0.068922
31
0.0
0
LINE
8
0
6
CONTINUOUS
10
0.026920
20
0.068367
30
0.0
11
0.028975
21
0.068061
31
0.0
0
LINE
8
0
6
CONTINUOUS
10
-0.002894
20
0.062637
30
0.0
11
-0.001912
21
0.061564
31
0.0
0
LINE
8
0
6
CONTINUOUS
10
-0.001753
20
0.063657
30
0.0
11
-0.002894
21
0.062637
31
0.0
0
LINE
8
0
6
CONTINUOUS
10
0.000369
20
0.063605
30
0.0
11
0.000266
21
0.063608
31
0.0
0
LINE
8
0
6
CONTINUOUS
10
0.000266
20
0.063608
30
0.0
11
-0.000772
21
0.063633
31
0.0
0
LINE
8
0
6
CONTINUOUS
10
-0.000772
20
0.063633
30
0.0
11
-0.001753
21
0.063657
31
0.0
0
LINE
8
0
6
CONTINUOUS
10
0.001351
20
0.062532
30
0.0
11
0.000823
21
0.063109
31
0.0
0
LINE
8
0
6
CONTINUOUS
10
0.000823
20
0.063109
30
0.0
11
0.000369
21
0.063605
31
0.0
0
LINE
8
0
6
CONTINUOUS
10
0.000210
20
0.061511
30
0.0
11
0.001351
21
0.062532
31
0.0
0
LINE
8
0
6
CONTINUOUS
10
-0.001912
20
0.061564
30
0.0
11
0.000210
21
0.061511
31
0.0
0
LINE
8
0
6
CONTINUOUS
10
0.003452
20
0.066003
30
0.0
11
0.004433
21
0.064930
31
0.0
0
LINE
8
0
6
CONTINUOUS
10
0.004592
20
0.067024
30
0.0
11
0.003452
21
0.066003
31
0.0
0
LINE
8
0
6
CONTINUOUS
10
0.006714
20
0.066971
30
0.0
11
0.004592
21
0.067024
31
0.0
0
LINE
8
0
6
CONTINUOUS
10
0.007696
20
0.065898
30
0.0
11
0.006714
21
0.066971
31
0.0
0
LINE
8
0
6
CONTINUOUS
10
0.006555
20
0.064878
30
0.0
11
0.007696
21
0.065898
31
0.0
0
LINE
8
0
6
CONTINUOUS
10
0.004433
20
0.064930
30
0.0
11
0.006555
21
0.064878
31
0.0
0
LINE
8
0
6
CONTINUOUS
10
0.009797
20
0.069632
30
0.0
11
0.010778
21
0.068559
31
0.0
0
LINE
8
0
6
CONTINUOUS
10
0.010938
20
0.070652
30
0.0
11
0.009797
21
0.069632
31
0.0
0
LINE
8
0
6
CONTINUOUS
10
0.013060
20
0.070600
30
0.0
11
0.010938
21
0.070652
31
0.0
0
LINE
8
0
6
CONTINUOUS
10
0.014041
20
0.069527
30
0.0
11
0.013060
21
0.070600
31
0.0
0
LINE
8
0
6
CONTINUOUS
10
0.012901
20
0.068506
30
0.0
11
0.014041
21
0.069527
31
0.0
0
LINE
8
0
6
CONTINUOUS
10
0.010778
20
0.068559
30
0.0
11
0.012901
21
0.068506
31
0.0
0
LINE
8
0
6
CONTINUOUS
10
0.016142
20
0.073669
30
0.0
11
0.017124
21
0.072596
31
0.0
0
LINE
8
0
6
CONTINUOUS
10
0.017283
20
0.074689
30
0.0
11
0.016142
21
0.073669
31
0.0
0
LINE
8
0
6
CONTINUOUS
10
0.019405
20
0.074637
30
0.0
11
0.017283
21
0.074689
31
0.0
0
LINE
8
0
6
CONTINUOUS
10
0.020386
20
0.073564
30
0.0
11
0.019405
21
0.074637
31
0.0
0
LINE
8
0
6
CONTINUOUS
10
0.019246
20
0.072543
30
0.0
11
0.020386
21
0.073564
31
0.0
0
LINE
8
0
6
CONTINUOUS
10
0.017124
20
0.072596
30
0.0
11
0.019246
21
0.072543
31
0.0
0
LINE
8
0
6
CONTINUOUS
10
0.003525
20
0.075997
30
0.0
11
0.004881
21
0.075065
31
0.0
0
LINE
8
0
6
CONTINUOUS
10
0.004263
20
0.077131
30
0.0
11
0.003525
21
0.075997
31
0.0
0
LINE
8
0
6
CONTINUOUS
10
0.006357
20
0.077335
30
0.0
11
0.004263
21
0.077131
31
0.0
0
LINE
8
0
6
CONTINUOUS
10
0.007713
20
0.076404
30
0.0
11
0.006357
21
0.077335
31
0.0
0
LINE
8
0
6
CONTINUOUS
10
0.006975
20
0.075269
30
0.0
11
0.007713
21
0.076404
31
0.0
0
LINE
8
0
6
CONTINUOUS
10
0.004881
20
0.075065
30
0.0
11
0.006975
21
0.075269
31
0.0
0
LINE
8
0
6
CONTINUOUS
10
0.012793
20
0.047924
30
0.0
11
0.012417
21
0.046733
31
0.0
0
LINE
8
0
6
CONTINUOUS
10
0.014791
20
0.048334
30
0.0
11
0.012793
21
0.047924
31
0.0
0
LINE
8
0
6
CONTINUOUS
10
0.016414
20
0.047554
30
0.0
11
0.014791
21
0.048334
31
0.0
0
LINE
8
0
6
CONTINUOUS
10
0.016038
20
0.046363
30
0.0
11
0.016414
21
0.047554
31
0.0
0
LINE
8
0
6
CONTINUOUS
10
0.014040
20
0.045953
30
0.0
11
0.016038
21
0.046363
31
0.0
0
LINE
8
0
6
CONTINUOUS
10
0.012417
20
0.046733
30
0.0
11
0.014040
21
0.045953
31
0.0
0
LINE
8
0
6
CONTINUOUS
10
0.020180
20
0.050475
30
0.0
11
0.019805
21
0.049284
31
0.0
0
LINE
8
0
6
CONTINUOUS
10
0.022179
20
0.050885
30
0.0
11
0.020180
21
0.050475
31
0.0
0
LINE
8
0
6
CONTINUOUS
10
0.023801
20
0.050105
30
0.0
11
0.022179
21
0.050885
31
0.0
0
LINE
8
0
6
CONTINUOUS
10
0.023426
20
0.048914
30
0.0
11
0.023801
21
0.050105
31
0.0
0
LINE
8
0
6
CONTINUOUS
10
0.021427
20
0.048504
30
0.0
11
0.023426
21
0.048914
31
0.0
0
LINE
8
0
6
CONTINUOUS
10
0.019805
20
0.049284
30
0.0
11
0.021427
21
0.048504
31
0.0
0
LINE
8
0
6
CONTINUOUS
10
0.027568
20
0.053148
30
0.0
11
0.027192
21
0.051957
31
0.0
0
LINE
8
0
6
CONTINUOUS
10
0.029566
20
0.053558
30
0.0
11
0.027568
21
0.053148
31
0.0
0
LINE
8
0
6
CONTINUOUS
10
0.031189
20
0.052777
30
0.0
11
0.029566
21
0.053558
31
0.0
0
LINE
8
0
6
CONTINUOUS
10
0.030813
20
0.051586
30
0.0
11
0.031189
21
0.052777
31
0.0
0
LINE
8
0
6
CONTINUOUS
10
0.028815
20
0.051176
30
0.0
11
0.030813
21
0.051586
31
0.0
0
LINE
8
0
6
CONTINUOUS
10
0.027192
20
0.051957
30
0.0
11
0.028815
21
0.051176
31
0.0
0
LINE
8
0
6
CONTINUOUS
10
0.034955
20
0.055972
30
0.0
11
0.034580
21
0.054781
31
0.0
0
LINE
8
0
6
CONTINUOUS
10
0.036954
20
0.056382
30
0.0
11
0.034955
21
0.055972
31
0.0
0
LINE
8
0
6
CONTINUOUS
10
0.038576
20
0.055601
30
0.0
11
0.036954
21
0.056382
31
0.0
0
LINE
8
0
6
CONTINUOUS
10
0.038200
20
0.054410
30
0.0
11
0.038576
21
0.055601
31
0.0
0
LINE
8
0
6
CONTINUOUS
10
0.036202
20
0.054000
30
0.0
11
0.038200
21
0.054410
31
0.0
0
LINE
8
0
6
CONTINUOUS
10
0.034580
20
0.054781
30
0.0
11
0.036202
21
0.054000
31
0.0
0
LINE
8
0
6
CONTINUOUS
10
0.017574
20
0.033419
30
0.0
11
0.017199
21
0.032228
31
0.0
0
LINE
8
0
6
CONTINUOUS
10
0.019573
20
0.033829
30
0.0
11
0.017574
21
0.033419
31
0.0
0
LINE
8
0
6
CONTINUOUS
10
0.021195
20
0.033048
30
0.0
11
0.019573
21
0.033829
31
0.0
0
LINE
8
0
6
CONTINUOUS
10
0.020820
20
0.031857
30
0.0
11
0.021195
21
0.033048
31
0.0
0
LINE
8
0
6
CONTINUOUS
10
0.018821
20
0.031447
30
0.0
11
0.020820
21
0.031857
31
0.0
0
LINE
8
0
6
CONTINUOUS
10
0.017199
20
0.032228
30
0.0
11
0.018821
21
0.031447
31
0.0
0
LINE
8
0
6
CONTINUOUS
10
0.016379
20
0.036884
30
0.0
11
0.016003
21
0.035693
31
0.0
0
LINE
8
0
6
CONTINUOUS
10
0.018377
20
0.037294
30
0.0
11
0.016379
21
0.036884
31
0.0
0
LINE
8
0
6
CONTINUOUS
10
0.020000
20
0.036513
30
0.0
11
0.018377
21
0.037294
31
0.0
0
LINE
8
0
6
CONTINUOUS
10
0.019624
20
0.035322
30
0.0
11
0.020000
21
0.036513
31
0.0
0
LINE
8
0
6
CONTINUOUS
10
0.017626
20
0.034912
30
0.0
11
0.019624
21
0.035322
31
0.0
0
LINE
8
0
6
CONTINUOUS
10
0.016003
20
0.035693
30
0.0
11
0.017626
21
0.034912
31
0.0
0
LINE
8
0
6
CONTINUOUS
10
0.015184
20
0.040454
30
0.0
11
0.014808
21
0.039263
31
0.0
0
LINE
8
0
6
CONTINUOUS
10
0.017182
20
0.040864
30
0.0
11
0.015184
21
0.040454
31
0.0
0
LINE
8
0
6
CONTINUOUS
10
0.018805
20
0.040083
30
0.0
11
0.017182
21
0.040864
31
0.0
0
LINE
8
0
6
CONTINUOUS
10
0.018429
20
0.038892
30
0.0
11
0.018805
21
0.040083
31
0.0
0
LINE
8
0
6
CONTINUOUS
10
0.016431
20
0.038482
30
0.0
11
0.018429
21
0.038892
31
0.0
0
LINE
8
0
6
CONTINUOUS
10
0.014808
20
0.039263
30
0.0
11
0.016431
21
0.038482
31
0.0
0
LINE
8
0
6
CONTINUOUS
10
0.013988
20
0.044107
30
0.0
11
0.013613
21
0.042916
31
0.0
0
LINE
8
0
6
CONTINUOUS
10
0.015987
20
0.044517
30
0.0
11
0.013988
21
0.044107
31
0.0
0
LINE
8
0
6
CONTINUOUS
10
0.017609
20
0.043736
30
0.0
11
0.015987
21
0.044517
31
0.0
0
LINE
8
0
6
CONTINUOUS
10
0.017234
20
0.042545
30
0.0
11
0.017609
21
0.043736
31
0.0
0
LINE
8
0
6
CONTINUOUS
10
0.015235
20
0.042135
30
0.0
11
0.017234
21
0.042545
31
0.0
0
LINE
8
0
6
CONTINUOUS
10
0.013613
20
0.042916
30
0.0
11
0.015235
21
0.042135
31
0.0
0
LINE
8
0
6
CONTINUOUS
10
0.034309
20
0.048944
30
0.0
11
0.032686
21
0.048163
31
0.0
0
LINE
8
0
6
CONTINUOUS
10
0.036307
20
0.048534
30
0.0
11
0.034309
21
0.048944
31
0.0
0
LINE
8
0
6
CONTINUOUS
10
0.036683
20
0.047343
30
0.0
11
0.036307
21
0.048534
31
0.0
0
LINE
8
0
6
CONTINUOUS
10
0.035060
20
0.046562
30
0.0
11
0.036683
21
0.047343
31
0.0
0
LINE
8
0
6
CONTINUOUS
10
0.033062
20
0.046972
30
0.0
11
0.035060
21
0.046562
31
0.0
0
LINE
8
0
6
CONTINUOUS
10
0.032686
20
0.048163
30
0.0
11
0.033062
21
0.046972
31
0.0
0
LINE
8
0
6
CONTINUOUS
10
0.026434
20
0.046452
30
0.0
11
0.024811
21
0.045671
31
0.0
0
LINE
8
0
6
CONTINUOUS
10
0.028432
20
0.046042
30
0.0
11
0.026434
21
0.046452
31
0.0
0
LINE
8
0
6
CONTINUOUS
10
0.028808
20
0.044851
30
0.0
11
0.028432
21
0.046042
31
0.0
0
LINE
8
0
6
CONTINUOUS
10
0.027185
20
0.044070
30
0.0
11
0.028808
21
0.044851
31
0.0
0
LINE
8
0
6
CONTINUOUS
10
0.025187
20
0.044480
30
0.0
11
0.027185
21
0.044070
31
0.0
0
LINE
8
0
6
CONTINUOUS
10
0.024811
20
0.045671
30
0.0
11
0.025187
21
0.044480
31
0.0
0
LINE
8
0
6
CONTINUOUS
10
0.028403
20
0.042524
30
0.0
11
0.026780
21
0.041743
31
0.0
0
LINE
8
0
6
CONTINUOUS
10
0.030401
20
0.042114
30
0.0
11
0.028403
21
0.042524
31
0.0
0
LINE
8
0
6
CONTINUOUS
10
0.030777
20
0.040923
30
0.0
11
0.030401
21
0.042114
31
0.0
0
LINE
8
0
6
CONTINUOUS
10
0.029154
20
0.040142
30
0.0
11
0.030777
21
0.040923
31
0.0
0
LINE
8
0
6
CONTINUOUS
10
0.027156
20
0.040552
30
0.0
11
0.029154
21
0.040142
31
0.0
0
LINE
8
0
6
CONTINUOUS
10
0.026780
20
0.041743
30
0.0
11
0.027156
21
0.040552
31
0.0
0
LINE
8
0
6
CONTINUOUS
10
0.029246
20
0.038941
30
0.0
11
0.027624
21
0.038160
31
0.0
0
LINE
8
0
6
CONTINUOUS
10
0.031245
20
0.038531
30
0.0
11
0.029246
21
0.038941
31
0.0
0
LINE
8
0
6
CONTINUOUS
10
0.031620
20
0.037340
30
0.0
11
0.031245
21
0.038531
31
0.0
0
LINE
8
0
6
CONTINUOUS
10
0.029998
20
0.036559
30
0.0
11
0.031620
21
0.037340
31
0.0
0
LINE
8
0
6
CONTINUOUS
10
0.027999
20
0.036969
30
0.0
11
0.029998
21
0.036559
31
0.0
0
LINE
8
0
6
CONTINUOUS
10
0.027624
20
0.038160
30
0.0
11
0.027999
21
0.036969
31
0.0
0
LINE
8
0
6
CONTINUOUS
10
0.038105
20
0.045326
30
0.0
11
0.036483
21
0.044545
31
0.0
0
LINE
8
0
6
CONTINUOUS
10
0.040104
20
0.044916
30
0.0
11
0.038105
21
0.045326
31
0.0
0
LINE
8
0
6
CONTINUOUS
10
0.040479
20
0.043725
30
0.0
11
0.040104
21
0.044916
31
0.0
0
LINE
8
0
6
CONTINUOUS
10
0.038857
20
0.042944
30
0.0
11
0.040479
21
0.043725
31
0.0
0
LINE
8
0
6
CONTINUOUS
10
0.036859
20
0.043354
30
0.0
11
0.038857
21
0.042944
31
0.0
0
LINE
8
0
6
CONTINUOUS
10
0.036483
20
0.044545
30
0.0
11
0.036859
21
0.043354
31
0.0
0
LINE
8
0
6
CONTINUOUS
10
0.003184
20
0.047018
30
0.0
11
0.002808
21
0.045827
31
0.0
0
LINE
8
0
6
CONTINUOUS
10
0.005182
20
0.047428
30
0.0
11
0.003184
21
0.047018
31
0.0
0
LINE
8
0
6
CONTINUOUS
10
0.006805
20
0.046648
30
0.0
11
0.005182
21
0.047428
31
0.0
0
LINE
8
0
6
CONTINUOUS
10
0.006429
20
0.045457
30
0.0
11
0.006805
21
0.046648
31
0.0
0
LINE
8
0
6
CONTINUOUS
10
0.004431
20
0.045046
30
0.0
11
0.006429
21
0.045457
31
0.0
0
LINE
8
0
6
CONTINUOUS
10
0.002808
20
0.045827
30
0.0
11
0.004431
21
0.045046
31
0.0
0
LINE
8
0
6
CONTINUOUS
10
0.004499
20
0.033612
30
0.0
11
0.004123
21
0.032421
31
0.0
0
LINE
8
0
6
CONTINUOUS
10
0.006497
20
0.034022
30
0.0
11
0.004499
21
0.033612
31
0.0
0
LINE
8
0
6
CONTINUOUS
10
0.008120
20
0.033241
30
0.0
11
0.006497
21
0.034022
31
0.0
0
LINE
8
0
6
CONTINUOUS
10
0.007744
20
0.032050
30
0.0
11
0.008120
21
0.033241
31
0.0
0
LINE
8
0
6
CONTINUOUS
10
0.005746
20
0.031640
30
0.0
11
0.007744
21
0.032050
31
0.0
0
LINE
8
0
6
CONTINUOUS
10
0.004123
20
0.032421
30
0.0
11
0.005746
21
0.031640
31
0.0
0
LINE
8
0
6
CONTINUOUS
10
0.004170
20
0.036786
30
0.0
11
0.003795
21
0.035595
31
0.0
0
LINE
8
0
6
CONTINUOUS
10
0.006169
20
0.037196
30
0.0
11
0.004170
21
0.036786
31
0.0
0
LINE
8
0
6
CONTINUOUS
10
0.007791
20
0.036415
30
0.0
11
0.006169
21
0.037196
31
0.0
0
LINE
8
0
6
CONTINUOUS
10
0.007416
20
0.035224
30
0.0
11
0.007791
21
0.036415
31
0.0
0
LINE
8
0
6
CONTINUOUS
10
0.005417
20
0.034814
30
0.0
11
0.007416
21
0.035224
31
0.0
0
LINE
8
0
6
CONTINUOUS
10
0.003795
20
0.035595
30
0.0
11
0.005417
21
0.034814
31
0.0
0
LINE
8
0
6
CONTINUOUS
10
0.003842
20
0.040148
30
0.0
11
0.003466
21
0.038957
31
0.0
0
LINE
8
0
6
CONTINUOUS
10
0.005840
20
0.040558
30
0.0
11
0.003842
21
0.040148
31
0.0
0
LINE
8
0
6
CONTINUOUS
10
0.007463
20
0.039778
30
0.0
11
0.005840
21
0.040558
31
0.0
0
LINE
8
0
6
CONTINUOUS
10
0.007087
20
0.038587
30
0.0
11
0.007463
21
0.039778
31
0.0
0
LINE
8
0
6
CONTINUOUS
10
0.005088
20
0.038177
30
0.0
11
0.007087
21
0.038587
31
0.0
0
LINE
8
0
6
CONTINUOUS
10
0.003466
20
0.038957
30
0.0
11
0.005088
21
0.038177
31
0.0
0
LINE
8
0
6
CONTINUOUS
10
-0.006302
20
0.041634
30
0.0
11
-0.004680
21
0.042414
31
0.0
0
LINE
8
0
6
CONTINUOUS
10
-0.008301
20
0.042044
30
0.0
11
-0.006302
21
0.041634
31
0.0
0
LINE
8
0
6
CONTINUOUS
10
-0.008677
20
0.043235
30
0.0
11
-0.008301
21
0.042044
31
0.0
0
LINE
8
0
6
CONTINUOUS
10
-0.007054
20
0.044015
30
0.0
11
-0.008677
21
0.043235
31
0.0
0
LINE
8
0
6
CONTINUOUS
10
-0.005056
20
0.043605
30
0.0
11
-0.007054
21
0.044015
31
0.0
0
LINE
8
0
6
CONTINUOUS
10
-0.004680
20
0.042414
30
0.0
11
-0.005056
21
0.043605
31
0.0
0
LINE
8
0
6
CONTINUOUS
10
-0.006631
20
0.038185
30
0.0
11
-0.005009
21
0.038966
31
0.0
0
LINE
8
0
6
CONTINUOUS
10
-0.008630
20
0.038595
30
0.0
11
-0.006631
21
0.038185
31
0.0
0
LINE
8
0
6
CONTINUOUS
10
-0.009005
20
0.039786
30
0.0
11
-0.008630
21
0.038595
31
0.0
0
LINE
8
0
6
CONTINUOUS
10
-0.007383
20
0.040567
30
0.0
11
-0.009005
21
0.039786
31
0.0
0
LINE
8
0
6
CONTINUOUS
10
-0.005384
20
0.040157
30
0.0
11
-0.007383
21
0.040567
31
0.0
0
LINE
8
0
6
CONTINUOUS
10
-0.005009
20
0.038966
30
0.0
11
-0.005384
21
0.040157
31
0.0
0
LINE
8
0
6
CONTINUOUS
10
-0.006960
20
0.034796
30
0.0
11
-0.005337
21
0.035577
31
0.0
0
LINE
8
0
6
CONTINUOUS
10
-0.008958
20
0.035206
30
0.0
11
-0.006960
21
0.034796
31
0.0
0
LINE
8
0
6
CONTINUOUS
10
-0.009334
20
0.036397
30
0.0
11
-0.008958
21
0.035206
31
0.0
0
LINE
8
0
6
CONTINUOUS
10
-0.007711
20
0.037178
30
0.0
11
-0.009334
21
0.036397
31
0.0
0
LINE
8
0
6
CONTINUOUS
10
-0.005713
20
0.036768
30
0.0
11
-0.007711
21
0.037178
31
0.0
0
LINE
8
0
6
CONTINUOUS
10
-0.005337
20
0.035577
30
0.0
11
-0.005713
21
0.036768
31
0.0
0
LINE
8
0
6
CONTINUOUS
10
-0.007289
20
0.031754
30
0.0
11
-0.005666
21
0.032535
31
0.0
0
LINE
8
0
6
CONTINUOUS
10
-0.009287
20
0.032165
30
0.0
11
-0.007289
21
0.031754
31
0.0
0
LINE
8
0
6
CONTINUOUS
10
-0.009663
20
0.033356
30
0.0
11
-0.009287
21
0.032165
31
0.0
0
LINE
8
0
6
CONTINUOUS
10
-0.008040
20
0.034136
30
0.0
11
-0.009663
21
0.033356
31
0.0
0
LINE
8
0
6
CONTINUOUS
10
-0.006042
20
0.033726
30
0.0
11
-0.008040
21
0.034136
31
0.0
0
LINE
8
0
6
CONTINUOUS
10
-0.005666
20
0.032535
30
0.0
11
-0.006042
21
0.033726
31
0.0
0
LINE
8
0
6
CONTINUOUS
10
-0.005974
20
0.045065
30
0.0
11
-0.004351
21
0.045845
31
0.0
0
LINE
8
0
6
CONTINUOUS
10
-0.007972
20
0.045475
30
0.0
11
-0.005974
21
0.045065
31
0.0
0
LINE
8
0
6
CONTINUOUS
10
-0.008348
20
0.046666
30
0.0
11
-0.007972
21
0.045475
31
0.0
0
LINE
8
0
6
CONTINUOUS
10
-0.006725
20
0.047446
30
0.0
11
-0.008348
21
0.046666
31
0.0
0
LINE
8
0
6
CONTINUOUS
10
-0.004727
20
0.047036
30
0.0
11
-0.006725
21
0.047446
31
0.0
0
LINE
8
0
6
CONTINUOUS
10
-0.004351
20
0.045845
30
0.0
11
-0.004727
21
0.047036
31
0.0
0
LINE
8
0
6
CONTINUOUS
10
-0.038401
20
0.043480
30
0.0
11
-0.038025
21
0.044671
31
0.0
0
LINE
8
0
6
CONTINUOUS
10
-0.040399
20
0.043070
30
0.0
11
-0.038401
21
0.043480
31
0.0
0
LINE
8
0
6
CONTINUOUS
10
-0.042022
20
0.043851
30
0.0
11
-0.040399
21
0.043070
31
0.0
0
LINE
8
0
6
CONTINUOUS
10
-0.041646
20
0.045042
30
0.0
11
-0.042022
21
0.043851
31
0.0
0
LINE
8
0
6
CONTINUOUS
10
-0.039648
20
0.045452
30
0.0
11
-0.041646
21
0.045042
31
0.0
0
LINE
8
0
6
CONTINUOUS
10
-0.038025
20
0.044671
30
0.0
11
-0.039648
21
0.045452
31
0.0
0
LINE
8
0
6
CONTINUOUS
10
-0.029542
20
0.037142
30
0.0
11
-0.029166
21
0.038333
31
0.0
0
LINE
8
0
6
CONTINUOUS
10
-0.031540
20
0.036732
30
0.0
11
-0.029542
21
0.037142
31
0.0
0
LINE
8
0
6
CONTINUOUS
10
-0.033163
20
0.037513
30
0.0
11
-0.031540
21
0.036732
31
0.0
0
LINE
8
0
6
CONTINUOUS
10
-0.032787
20
0.038704
30
0.0
11
-0.033163
21
0.037513
31
0.0
0
LINE
8
0
6
CONTINUOUS
10
-0.030789
20
0.039114
30
0.0
11
-0.032787
21
0.038704
31
0.0
0
LINE
8
0
6
CONTINUOUS
10
-0.029166
20
0.038333
30
0.0
11
-0.030789
21
0.039114
31
0.0
0
LINE
8
0
6
CONTINUOUS
10
-0.028698
20
0.040601
30
0.0
11
-0.028323
21
0.041792
31
0.0
0
LINE
8
0
6
CONTINUOUS
10
-0.030697
20
0.040191
30
0.0
11
-0.028698
21
0.040601
31
0.0
0
LINE
8
0
6
CONTINUOUS
10
-0.032319
20
0.040972
30
0.0
11
-0.030697
21
0.040191
31
0.0
0
LINE
8
0
6
CONTINUOUS
10
-0.031944
20
0.042163
30
0.0
11
-0.032319
21
0.040972
31
0.0
0
LINE
8
0
6
CONTINUOUS
10
-0.029945
20
0.042573
30
0.0
11
-0.031944
21
0.042163
31
0.0
0
LINE
8
0
6
CONTINUOUS
10
-0.028323
20
0.041792
30
0.0
11
-0.029945
21
0.042573
31
0.0
0
LINE
8
0
6
CONTINUOUS
10
-0.026730
20
0.044553
30
0.0
11
-0.026354
21
0.045744
31
0.0
0
LINE
8
0
6
CONTINUOUS
10
-0.028728
20
0.044143
30
0.0
11
-0.026730
21
0.044553
31
0.0
0
LINE
8
0
6
CONTINUOUS
10
-0.030351
20
0.044924
30
0.0
11
-0.028728
21
0.044143
31
0.0
0
LINE
8
0
6
CONTINUOUS
10
-0.029975
20
0.046115
30
0.0
11
-0.030351
21
0.044924
31
0.0
0
LINE
8
0
6
CONTINUOUS
10
-0.027977
20
0.046525
30
0.0
11
-0.029975
21
0.046115
31
0.0
0
LINE
8
0
6
CONTINUOUS
10
-0.026354
20
0.045744
30
0.0
11
-0.027977
21
0.046525
31
0.0
0
LINE
8
0
6
CONTINUOUS
10
-0.034604
20
0.047078
30
0.0
11
-0.034229
21
0.048269
31
0.0
0
LINE
8
0
6
CONTINUOUS
10
-0.036603
20
0.046668
30
0.0
11
-0.034604
21
0.047078
31
0.0
0
LINE
8
0
6
CONTINUOUS
10
-0.038225
20
0.047449
30
0.0
11
-0.036603
21
0.046668
31
0.0
0
LINE
8
0
6
CONTINUOUS
10
-0.037850
20
0.048640
30
0.0
11
-0.038225
21
0.047449
31
0.0
0
LINE
8
0
6
CONTINUOUS
10
-0.035851
20
0.049050
30
0.0
11
-0.037850
21
0.048640
31
0.0
0
LINE
8
0
6
CONTINUOUS
10
-0.034229
20
0.048269
30
0.0
11
-0.035851
21
0.049050
31
0.0
0
LINE
8
0
6
CONTINUOUS
10
-0.016778
20
0.042186
30
0.0
11
-0.015155
21
0.042967
31
0.0
0
LINE
8
0
6
CONTINUOUS
10
-0.018776
20
0.042596
30
0.0
11
-0.016778
21
0.042186
31
0.0
0
LINE
8
0
6
CONTINUOUS
10
-0.019152
20
0.043787
30
0.0
11
-0.018776
21
0.042596
31
0.0
0
LINE
8
0
6
CONTINUOUS
10
-0.017529
20
0.044568
30
0.0
11
-0.019152
21
0.043787
31
0.0
0
LINE
8
0
6
CONTINUOUS
10
-0.015531
20
0.044158
30
0.0
11
-0.017529
21
0.044568
31
0.0
0
LINE
8
0
6
CONTINUOUS
10
-0.015155
20
0.042967
30
0.0
11
-0.015531
21
0.044158
31
0.0
0
LINE
8
0
6
CONTINUOUS
10
-0.017973
20
0.038472
30
0.0
11
-0.016351
21
0.039253
31
0.0
0
LINE
8
0
6
CONTINUOUS
10
-0.019972
20
0.038882
30
0.0
11
-0.017973
21
0.038472
31
0.0
0
LINE
8
0
6
CONTINUOUS
10
-0.020347
20
0.040073
30
0.0
11
-0.019972
21
0.038882
31
0.0
0
LINE
8
0
6
CONTINUOUS
10
-0.018725
20
0.040854
30
0.0
11
-0.020347
21
0.040073
31
0.0
0
LINE
8
0
6
CONTINUOUS
10
-0.016726
20
0.040444
30
0.0
11
-0.018725
21
0.040854
31
0.0
0
LINE
8
0
6
CONTINUOUS
10
-0.016351
20
0.039253
30
0.0
11
-0.016726
21
0.040444
31
0.0
0
LINE
8
0
6
CONTINUOUS
10
-0.019168
20
0.034896
30
0.0
11
-0.017546
21
0.035677
31
0.0
0
LINE
8
0
6
CONTINUOUS
10
-0.021167
20
0.035306
30
0.0
11
-0.019168
21
0.034896
31
0.0
0
LINE
8
0
6
CONTINUOUS
10
-0.021543
20
0.036497
30
0.0
11
-0.021167
21
0.035306
31
0.0
0
LINE
8
0
6
CONTINUOUS
10
-0.019920
20
0.037278
30
0.0
11
-0.021543
21
0.036497
31
0.0
0
LINE
8
0
6
CONTINUOUS
10
-0.017922
20
0.036868
30
0.0
11
-0.019920
21
0.037278
31
0.0
0
LINE
8
0
6
CONTINUOUS
10
-0.017546
20
0.035677
30
0.0
11
-0.017922
21
0.036868
31
0.0
0
LINE
8
0
6
CONTINUOUS
10
-0.020364
20
0.031886
30
0.0
11
-0.018741
21
0.032667
31
0.0
0
LINE
8
0
6
CONTINUOUS
10
-0.022362
20
0.032296
30
0.0
11
-0.020364
21
0.031886
31
0.0
0
LINE
8
0
6
CONTINUOUS
10
-0.022738
20
0.033487
30
0.0
11
-0.022362
21
0.032296
31
0.0
0
LINE
8
0
6
CONTINUOUS
10
-0.021115
20
0.034268
30
0.0
11
-0.022738
21
0.033487
31
0.0
0
LINE
8
0
6
CONTINUOUS
10
-0.019117
20
0.033858
30
0.0
11
-0.021115
21
0.034268
31
0.0
0
LINE
8
0
6
CONTINUOUS
10
-0.018741
20
0.032667
30
0.0
11
-0.019117
21
0.033858
31
0.0
0
LINE
8
0
6
CONTINUOUS
10
-0.037745
20
0.054114
30
0.0
11
-0.036122
21
0.054895
31
0.0
0
LINE
8
0
6
CONTINUOUS
10
-0.039743
20
0.054524
30
0.0
11
-0.037745
21
0.054114
31
0.0
0
LINE
8
0
6
CONTINUOUS
10
-0.040119
20
0.055715
30
0.0
11
-0.039743
21
0.054524
31
0.0
0
LINE
8
0
6
CONTINUOUS
10
-0.038496
20
0.056496
30
0.0
11
-0.040119
21
0.055715
31
0.0
0
LINE
8
0
6
CONTINUOUS
10
-0.036498
20
0.056086
30
0.0
11
-0.038496
21
0.056496
31
0.0
0
LINE
8
0
6
CONTINUOUS
10
-0.036122
20
0.054895
30
0.0
11
-0.036498
21
0.056086
31
0.0
0
LINE
8
0
6
CONTINUOUS
10
-0.030358
20
0.051272
30
0.0
11
-0.028735
21
0.052053
31
0.0
0
LINE
8
0
6
CONTINUOUS
10
-0.032356
20
0.051682
30
0.0
11
-0.030358
21
0.051272
31
0.0
0
LINE
8
0
6
CONTINUOUS
10
-0.032732
20
0.052873
30
0.0
11
-0.032356
21
0.051682
31
0.0
0
LINE
8
0
6
CONTINUOUS
10
-0.031109
20
0.053654
30
0.0
11
-0.032732
21
0.052873
31
0.0
0
LINE
8
0
6
CONTINUOUS
10
-0.029111
20
0.053244
30
0.0
11
-0.031109
21
0.053654
31
0.0
0
LINE
8
0
6
CONTINUOUS
10
-0.028735
20
0.052053
30
0.0
11
-0.029111
21
0.053244
31
0.0
0
LINE
8
0
6
CONTINUOUS
10
-0.022970
20
0.048571
30
0.0
11
-0.021348
21
0.049352
31
0.0
0
LINE
8
0
6
CONTINUOUS
10
-0.024968
20
0.048982
30
0.0
11
-0.022970
21
0.048571
31
0.0
0
LINE
8
0
6
CONTINUOUS
10
-0.025344
20
0.050172
30
0.0
11
-0.024968
21
0.048982
31
0.0
0
LINE
8
0
6
CONTINUOUS
10
-0.023722
20
0.050953
30
0.0
11
-0.025344
21
0.050172
31
0.0
0
LINE
8
0
6
CONTINUOUS
10
-0.021723
20
0.050543
30
0.0
11
-0.023722
21
0.050953
31
0.0
0
LINE
8
0
6
CONTINUOUS
10
-0.021348
20
0.049352
30
0.0
11
-0.021723
21
0.050543
31
0.0
0
LINE
8
0
6
CONTINUOUS
10
-0.015583
20
0.046003
30
0.0
11
-0.013960
21
0.046784
31
0.0
0
LINE
8
0
6
CONTINUOUS
10
-0.017581
20
0.046414
30
0.0
11
-0.015583
21
0.046003
31
0.0
0
LINE
8
0
6
CONTINUOUS
10
-0.017957
20
0.047605
30
0.0
11
-0.017581
21
0.046414
31
0.0
0
LINE
8
0
6
CONTINUOUS
10
-0.016334
20
0.048385
30
0.0
11
-0.017957
21
0.047605
31
0.0
0
LINE
8
0
6
CONTINUOUS
10
-0.014336
20
0.047975
30
0.0
11
-0.016334
21
0.048385
31
0.0
0
LINE
8
0
6
CONTINUOUS
10
-0.013960
20
0.046784
30
0.0
11
-0.014336
21
0.047975
31
0.0
0
LINE
8
0
6
CONTINUOUS
10
-0.008518
20
0.075288
30
0.0
11
-0.006424
21
0.075085
31
0.0
0
LINE
8
0
6
CONTINUOUS
10
-0.009256
20
0.076423
30
0.0
11
-0.008518
21
0.075288
31
0.0
0
LINE
8
0
6
CONTINUOUS
10
-0.007900
20
0.077354
30
0.0
11
-0.009256
21
0.076423
31
0.0
0
LINE
8
0
6
CONTINUOUS
10
-0.005806
20
0.077150
30
0.0
11
-0.007900
21
0.077354
31
0.0
0
LINE
8
0
6
CONTINUOUS
10
-0.005068
20
0.076016
30
0.0
11
-0.005806
21
0.077150
31
0.0
0
LINE
8
0
6
CONTINUOUS
10
-0.006424
20
0.075085
30
0.0
11
-0.005068
21
0.076016
31
0.0
0
LINE
8
0
6
CONTINUOUS
10
-0.002128
20
0.071038
30
0.0
11
-0.000034
21
0.070834
31
0.0
0
LINE
8
0
6
CONTINUOUS
10
-0.002865
20
0.072173
30
0.0
11
-0.002128
21
0.071038
31
0.0
0
LINE
8
0
6
CONTINUOUS
10
-0.001509
20
0.073104
30
0.0
11
-0.002865
21
0.072173
31
0.0
0
LINE
8
0
6
CONTINUOUS
10
0.000585
20
0.072900
30
0.0
11
-0.001509
21
0.073104
31
0.0
0
LINE
8
0
6
CONTINUOUS
10
0.001322
20
0.071766
30
0.0
11
0.000585
21
0.072900
31
0.0
0
LINE
8
0
6
CONTINUOUS
10
-0.000034
20
0.070834
30
0.0
11
0.001322
21
0.071766
31
0.0
0
LINE
8
0
6
CONTINUOUS
10
-0.020789
20
0.072599
30
0.0
11
-0.018667
21
0.072651
31
0.0
0
LINE
8
0
6
CONTINUOUS
10
-0.021929
20
0.073620
30
0.0
11
-0.020789
21
0.072599
31
0.0
0
LINE
8
0
6
CONTINUOUS
10
-0.020948
20
0.074693
30
0.0
11
-0.021929
21
0.073620
31
0.0
0
LINE
8
0
6
CONTINUOUS
10
-0.018826
20
0.074745
30
0.0
11
-0.020948
21
0.074693
31
0.0
0
LINE
8
0
6
CONTINUOUS
10
-0.017685
20
0.073724
30
0.0
11
-0.018826
21
0.074745
31
0.0
0
LINE
8
0
6
CONTINUOUS
10
-0.018667
20
0.072651
30
0.0
11
-0.017685
21
0.073724
31
0.0
0
LINE
8
0
6
CONTINUOUS
10
-0.014444
20
0.068539
30
0.0
11
-0.012321
21
0.068591
31
0.0
0
LINE
8
0
6
CONTINUOUS
10
-0.015584
20
0.069559
30
0.0
11
-0.014444
21
0.068539
31
0.0
0
LINE
8
0
6
CONTINUOUS
10
-0.014603
20
0.070632
30
0.0
11
-0.015584
21
0.069559
31
0.0
0
LINE
8
0
6
CONTINUOUS
10
-0.012480
20
0.070685
30
0.0
11
-0.014603
21
0.070632
31
0.0
0
LINE
8
0
6
CONTINUOUS
10
-0.011340
20
0.069664
30
0.0
11
-0.012480
21
0.070685
31
0.0
0
LINE
8
0
6
CONTINUOUS
10
-0.012321
20
0.068591
30
0.0
11
-0.011340
21
0.069664
31
0.0
0
LINE
8
0
6
CONTINUOUS
10
-0.008098
20
0.064897
30
0.0
11
-0.005976
21
0.064949
31
0.0
0
LINE
8
0
6
CONTINUOUS
10
-0.009239
20
0.065918
30
0.0
11
-0.008098
21
0.064897
31
0.0
0
LINE
8
0
6
CONTINUOUS
10
-0.008257
20
0.066991
30
0.0
11
-0.009239
21
0.065918
31
0.0
0
LINE
8
0
6
CONTINUOUS
10
-0.006135
20
0.067043
30
0.0
11
-0.008257
21
0.066991
31
0.0
0
LINE
8
0
6
CONTINUOUS
10
-0.004995
20
0.066022
30
0.0
11
-0.006135
21
0.067043
31
0.0
0
LINE
8
0
6
CONTINUOUS
10
-0.005976
20
0.064949
30
0.0
11
-0.004995
21
0.066022
31
0.0
0
LINE
8
0
6
CONTINUOUS
10
-0.001753
20
0.061511
30
0.0
11
0.000369
21
0.061564
31
0.0
0
LINE
8
0
6
CONTINUOUS
10
-0.002894
20
0.062532
30
0.0
11
-0.001753
21
0.061511
31
0.0
0
LINE
8
0
6
CONTINUOUS
10
-0.001912
20
0.063605
30
0.0
11
-0.002894
21
0.062532
31
0.0
0
LINE
8
0
6
CONTINUOUS
10
0.000210
20
0.063657
30
0.0
11
-0.001912
21
0.063605
31
0.0
0
LINE
8
0
6
CONTINUOUS
10
0.001351
20
0.062637
30
0.0
11
0.000210
21
0.063657
31
0.0
0
LINE
8
0
6
CONTINUOUS
10
0.000369
20
0.061564
30
0.0
11
0.001351
21
0.062637
31
0.0
0
LINE
8
0
6
CONTINUOUS
10
-0.030518
20
0.068160
30
0.0
11
-0.028463
21
0.068466
31
0.0
0
LINE
8
0
6
CONTINUOUS
10
-0.032010
20
0.069021
30
0.0
11
-0.030518
21
0.068160
31
0.0
0
LINE
8
0
6
CONTINUOUS
10
-0.031448
20
0.070188
30
0.0
11
-0.032010
21
0.069021
31
0.0
0
LINE
8
0
6
CONTINUOUS
10
-0.029392
20
0.070494
30
0.0
11
-0.031448
21
0.070188
31
0.0
0
LINE
8
0
6
CONTINUOUS
10
-0.027900
20
0.069633
30
0.0
11
-0.029392
21
0.070494
31
0.0
0
LINE
8
0
6
CONTINUOUS
10
-0.028463
20
0.068466
30
0.0
11
-0.027900
21
0.069633
31
0.0
0
LINE
8
0
6
CONTINUOUS
10
-0.024558
20
0.064733
30
0.0
11
-0.022503
21
0.065039
31
0.0
0
LINE
8
0
6
CONTINUOUS
10
-0.026050
20
0.065595
30
0.0
11
-0.024558
21
0.064733
31
0.0
0
LINE
8
0
6
CONTINUOUS
10
-0.025488
20
0.066761
30
0.0
11
-0.026050
21
0.065595
31
0.0
0
LINE
8
0
6
CONTINUOUS
10
-0.023432
20
0.067067
30
0.0
11
-0.025488
21
0.066761
31
0.0
0
LINE
8
0
6
CONTINUOUS
10
-0.021940
20
0.066206
30
0.0
11
-0.023432
21
0.067067
31
0.0
0
LINE
8
0
6
CONTINUOUS
10
-0.022503
20
0.065039
30
0.0
11
-0.021940
21
0.066206
31
0.0
0
LINE
8
0
6
CONTINUOUS
10
-0.018598
20
0.061825
30
0.0
11
-0.016543
21
0.062131
31
0.0
0
LINE
8
0
6
CONTINUOUS
10
-0.020090
20
0.062686
30
0.0
11
-0.018598
21
0.061825
31
0.0
0
LINE
8
0
6
CONTINUOUS
10
-0.019527
20
0.063853
30
0.0
11
-0.020090
21
0.062686
31
0.0
0
LINE
8
0
6
CONTINUOUS
10
-0.017472
20
0.064159
30
0.0
11
-0.019527
21
0.063853
31
0.0
0
LINE
8
0
6
CONTINUOUS
10
-0.015980
20
0.063298
30
0.0
11
-0.017472
21
0.064159
31
0.0
0
LINE
8
0
6
CONTINUOUS
10
-0.016543
20
0.062131
30
0.0
11
-0.015980
21
0.063298
31
0.0
0
LINE
8
0
6
CONTINUOUS
10
-0.012638
20
0.058941
30
0.0
11
-0.010583
21
0.059247
31
0.0
0
LINE
8
0
6
CONTINUOUS
10
-0.014130
20
0.059802
30
0.0
11
-0.012638
21
0.058941
31
0.0
0
LINE
8
0
6
CONTINUOUS
10
-0.013567
20
0.060969
30
0.0
11
-0.014130
21
0.059802
31
0.0
0
LINE
8
0
6
CONTINUOUS
10
-0.011512
20
0.061274
30
0.0
11
-0.013567
21
0.060969
31
0.0
0
LINE
8
0
6
CONTINUOUS
10
-0.010020
20
0.060413
30
0.0
11
-0.011512
21
0.061274
31
0.0
0
LINE
8
0
6
CONTINUOUS
10
-0.010583
20
0.059247
30
0.0
11
-0.010020
21
0.060413
31
0.0
0
LINE
8
0
6
CONTINUOUS
10
-0.006678
20
0.056289
30
0.0
11
-0.004623
21
0.056594
31
0.0
0
LINE
8
0
6
CONTINUOUS
10
-0.008170
20
0.057150
30
0.0
11
-0.006678
21
0.056289
31
0.0
0
LINE
8
0
6
CONTINUOUS
10
-0.007607
20
0.058316
30
0.0
11
-0.008170
21
0.057150
31
0.0
0
LINE
8
0
6
CONTINUOUS
10
-0.005552
20
0.058622
30
0.0
11
-0.007607
21
0.058316
31
0.0
0
LINE
8
0
6
CONTINUOUS
10
-0.004060
20
0.057761
30
0.0
11
-0.005552
21
0.058622
31
0.0
0
LINE
8
0
6
CONTINUOUS
10
-0.004623
20
0.056594
30
0.0
11
-0.004060
21
0.057761
31
0.0
0
LINE
8
0
6
CONTINUOUS
10
-0.036483
20
0.061631
30
0.0
11
-0.034587
21
0.062176
31
0.0
0
LINE
8
0
6
CONTINUOUS
10
-0.038260
20
0.062293
30
0.0
11
-0.036483
21
0.061631
31
0.0
0
LINE
8
0
6
CONTINUOUS
10
-0.038142
20
0.063502
30
0.0
11
-0.038260
21
0.062293
31
0.0
0
LINE
8
0
6
CONTINUOUS
10
-0.036246
20
0.064047
30
0.0
11
-0.038142
21
0.063502
31
0.0
0
LINE
8
0
6
CONTINUOUS
10
-0.034468
20
0.063384
30
0.0
11
-0.036246
21
0.064047
31
0.0
0
LINE
8
0
6
CONTINUOUS
10
-0.034587
20
0.062176
30
0.0
11
-0.034468
21
0.063384
31
0.0
0
LINE
8
0
6
CONTINUOUS
10
-0.030327
20
0.058716
30
0.0
11
-0.028431
21
0.059262
31
0.0
0
LINE
8
0
6
CONTINUOUS
10
-0.032104
20
0.059379
30
0.0
11
-0.030327
21
0.058716
31
0.0
0
LINE
8
0
6
CONTINUOUS
10
-0.031985
20
0.060587
30
0.0
11
-0.032104
21
0.059379
31
0.0
0
LINE
8
0
6
CONTINUOUS
10
-0.030089
20
0.061132
30
0.0
11
-0.031985
21
0.060587
31
0.0
0
LINE
8
0
6
CONTINUOUS
10
-0.028312
20
0.060470
30
0.0
11
-0.030089
21
0.061132
31
0.0
0
LINE
8
0
6
CONTINUOUS
10
-0.028431
20
0.059262
30
0.0
11
-0.028312
21
0.060470
31
0.0
0
LINE
8
0
6
CONTINUOUS
10
-0.024171
20
0.055870
30
0.0
11
-0.022275
21
0.056415
31
0.0
0
LINE
8
0
6
CONTINUOUS
10
-0.025948
20
0.056532
30
0.0
11
-0.024171
21
0.055870
31
0.0
0
LINE
8
0
6
CONTINUOUS
10
-0.025829
20
0.057740
30
0.0
11
-0.025948
21
0.056532
31
0.0
0
LINE
8
0
6
CONTINUOUS
10
-0.023933
20
0.058286
30
0.0
11
-0.025829
21
0.057740
31
0.0
0
LINE
8
0
6
CONTINUOUS
10
-0.022156
20
0.057623
30
0.0
11
-0.023933
21
0.058286
31
0.0
0
LINE
8
0
6
CONTINUOUS
10
-0.022275
20
0.056415
30
0.0
11
-0.022156
21
0.057623
31
0.0
0
LINE
8
0
6
CONTINUOUS
10
-0.018015
20
0.053243
30
0.0
11
-0.016119
21
0.053789
31
0.0
0
LINE
8
0
6
CONTINUOUS
10
-0.019792
20
0.053906
30
0.0
11
-0.018015
21
0.053243
31
0.0
0
LINE
8
0
6
CONTINUOUS
10
-0.019673
20
0.055114
30
0.0
11
-0.019792
21
0.053906
31
0.0
0
LINE
8
0
6
CONTINUOUS
10
-0.017777
20
0.055659
30
0.0
11
-0.019673
21
0.055114
31
0.0
0
LINE
8
0
6
CONTINUOUS
10
-0.016000
20
0.054997
30
0.0
11
-0.017777
21
0.055659
31
0.0
0
LINE
8
0
6
CONTINUOUS
10
-0.016119
20
0.053789
30
0.0
11
-0.016000
21
0.054997
31
0.0
0
LINE
8
0
6
CONTINUOUS
10
-0.011859
20
0.050972
30
0.0
11
-0.009963
21
0.051518
31
0.0
0
LINE
8
0
6
CONTINUOUS
10
-0.013636
20
0.051635
30
0.0
11
-0.011859
21
0.050972
31
0.0
0
LINE
8
0
6
CONTINUOUS
10
-0.013517
20
0.052843
30
0.0
11
-0.013636
21
0.051635
31
0.0
0
LINE
8
0
6
CONTINUOUS
10
-0.011621
20
0.053388
30
0.0
11
-0.013517
21
0.052843
31
0.0
0
LINE
8
0
6
CONTINUOUS
10
-0.009844
20
0.052726
30
0.0
11
-0.011621
21
0.053388
31
0.0
0
LINE
8
0
6
CONTINUOUS
10
-0.009963
20
0.051518
30
0.0
11
-0.009844
21
0.052726
31
0.0
0
LINE
8
0
6
CONTINUOUS
10
-0.045132
20
0.057689
30
0.0
11
-0.043510
21
0.058470
31
0.0
0
LINE
8
0
6
CONTINUOUS
10
-0.047131
20
0.058099
30
0.0
11
-0.045132
21
0.057689
31
0.0
0
LINE
8
0
6
CONTINUOUS
10
-0.047506
20
0.059290
30
0.0
11
-0.047131
21
0.058099
31
0.0
0
LINE
8
0
6
CONTINUOUS
10
-0.045884
20
0.060071
30
0.0
11
-0.047506
21
0.059290
31
0.0
0
LINE
8
0
6
CONTINUOUS
10
-0.043885
20
0.059661
30
0.0
11
-0.045884
21
0.060071
31
0.0
0
LINE
8
0
6
CONTINUOUS
10
-0.043510
20
0.058470
30
0.0
11
-0.043885
21
0.059661
31
0.0
0
LINE
8
0
6
CONTINUOUS
10
-0.014909
20
0.079763
30
0.0
11
-0.012815
21
0.079559
31
0.0
0
LINE
8
0
6
CONTINUOUS
10
-0.015646
20
0.080897
30
0.0
11
-0.014909
21
0.079763
31
0.0
0
LINE
8
0
6
CONTINUOUS
10
-0.014290
20
0.081829
30
0.0
11
-0.015646
21
0.080897
31
0.0
0
LINE
8
0
6
CONTINUOUS
10
-0.012196
20
0.081625
30
0.0
11
-0.014290
21
0.081829
31
0.0
0
LINE
8
0
6
CONTINUOUS
10
-0.011459
20
0.080490
30
0.0
11
-0.012196
21
0.081625
31
0.0
0
LINE
8
0
6
CONTINUOUS
10
-0.012815
20
0.079559
30
0.0
11
-0.011459
21
0.080490
31
0.0
0
LINE
8
0
6
CONTINUOUS
10
-0.027134
20
0.076603
30
0.0
11
-0.025012
21
0.076655
31
0.0
0
LINE
8
0
6
CONTINUOUS
10
-0.028275
20
0.077623
30
0.0
11
-0.027134
21
0.076603
31
0.0
0
LINE
8
0
6
CONTINUOUS
10
-0.027293
20
0.078696
30
0.0
11
-0.028275
21
0.077623
31
0.0
0
LINE
8
0
6
CONTINUOUS
10
-0.025171
20
0.078749
30
0.0
11
-0.027293
21
0.078696
31
0.0
0
LINE
8
0
6
CONTINUOUS
10
-0.024030
20
0.077728
30
0.0
11
-0.025171
21
0.078749
31
0.0
0
LINE
8
0
6
CONTINUOUS
10
-0.025012
20
0.076655
30
0.0
11
-0.024030
21
0.077728
31
0.0
0
LINE
8
0
6
CONTINUOUS
10
-0.002928
20
0.081988
30
0.0
11
-0.001490
21
0.081097
31
0.0
0
LINE
8
0
6
CONTINUOUS
10
-0.002293
20
0.083143
30
0.0
11
-0.002928
21
0.081988
31
0.0
0
LINE
8
0
6
CONTINUOUS
10
-0.000220
20
0.083407
30
0.0
11
-0.002293
21
0.083143
31
0.0
0
LINE
8
0
6
CONTINUOUS
10
0.001218
20
0.082516
30
0.0
11
-0.000220
21
0.083407
31
0.0
0
LINE
8
0
6
CONTINUOUS
10
0.000583
20
0.081362
30
0.0
11
0.001218
21
0.082516
31
0.0
0
LINE
8
0
6
CONTINUOUS
10
-0.001490
20
0.081097
30
0.0
11
0.000583
21
0.081362
31
0.0
0
LINE
8
0
6
CONTINUOUS
10
-0.036478
20
0.071398
30
0.0
11
-0.034423
21
0.071704
31
0.0
0
LINE
8
0
6
CONTINUOUS
10
-0.037970
20
0.072259
30
0.0
11
-0.036478
21
0.071398
31
0.0
0
LINE
8
0
6
CONTINUOUS
10
-0.037408
20
0.073426
30
0.0
11
-0.037970
21
0.072259
31
0.0
0
LINE
8
0
6
CONTINUOUS
10
-0.035352
20
0.073732
30
0.0
11
-0.037408
21
0.073426
31
0.0
0
LINE
8
0
6
CONTINUOUS
10
-0.033860
20
0.072870
30
0.0
11
-0.035352
21
0.073732
31
0.0
0
LINE
8
0
6
CONTINUOUS
10
-0.034423
20
0.071704
30
0.0
11
-0.033860
21
0.072870
31
0.0
0
LINE
8
0
6
CONTINUOUS
10
-0.042639
20
0.065005
30
0.0
11
-0.040743
21
0.065551
31
0.0
0
LINE
8
0
6
CONTINUOUS
10
-0.044417
20
0.065668
30
0.0
11
-0.042639
21
0.065005
31
0.0
0
LINE
8
0
6
CONTINUOUS
10
-0.044298
20
0.066876
30
0.0
11
-0.044417
21
0.065668
31
0.0
0
LINE
8
0
6
CONTINUOUS
10
-0.042402
20
0.067422
30
0.0
11
-0.044298
21
0.066876
31
0.0
0
LINE
8
0
6
CONTINUOUS
10
-0.040624
20
0.066759
30
0.0
11
-0.042402
21
0.067422
31
0.0
0
LINE
8
0
6
CONTINUOUS
10
-0.040743
20
0.065551
30
0.0
11
-0.040624
21
0.066759
31
0.0
0
LINE
8
0
6
CONTINUOUS
10
-0.043042
20
0.050534
30
0.0
11
-0.042666
21
0.051725
31
0.0
0
LINE
8
0
6
CONTINUOUS
10
-0.045040
20
0.050124
30
0.0
11
-0.043042
21
0.050534
31
0.0
0
LINE
8
0
6
CONTINUOUS
10
-0.046663
20
0.050905
30
0.0
11
-0.045040
21
0.050124
31
0.0
0
LINE
8
0
6
CONTINUOUS
10
-0.046287
20
0.052096
30
0.0
11
-0.046663
21
0.050905
31
0.0
0
LINE
8
0
6
CONTINUOUS
10
-0.044289
20
0.052506
30
0.0
11
-0.046287
21
0.052096
31
0.0
0
LINE
8
0
6
CONTINUOUS
10
-0.042666
20
0.051725
30
0.0
11
-0.044289
21
0.052506
31
0.0
0
LINE
8
0
6
CONTINUOUS
10
-0.025827
20
0.041045
30
0.0
11
-0.025097
21
0.040613
31
0.0
0
LINE
8
0
6
CONTINUOUS
10
-0.028822
20
0.042984
30
0.0
11
-0.025827
21
0.041045
31
0.0
0
LINE
8
0
6
CONTINUOUS
10
-0.025097
20
0.040613
30
0.0
11
-0.028006
21
0.042495
31
0.0
0
LINE
8
0
6
CONTINUOUS
10
-0.031368
20
0.045131
30
0.0
11
-0.028822
21
0.042984
31
0.0
0
LINE
8
0
6
CONTINUOUS
10
-0.028006
20
0.042495
30
0.0
11
-0.030477
21
0.044579
31
0.0
0
LINE
8
0
6
CONTINUOUS
10
-0.033422
20
0.047462
30
0.0
11
-0.031368
21
0.045131
31
0.0
0
LINE
8
0
6
CONTINUOUS
10
-0.030477
20
0.044579
30
0.0
11
-0.032471
21
0.046842
31
0.0
0
LINE
8
0
6
CONTINUOUS
10
-0.034942
20
0.049953
30
0.0
11
-0.033422
21
0.047462
31
0.0
0
LINE
8
0
6
CONTINUOUS
10
-0.032471
20
0.046842
30
0.0
11
-0.033946
21
0.049261
31
0.0
0
LINE
8
0
6
CONTINUOUS
10
-0.035884
20
0.052580
30
0.0
11
-0.034942
21
0.049953
31
0.0
0
LINE
8
0
6
CONTINUOUS
10
-0.033946
20
0.049261
30
0.0
11
-0.034862
21
0.051811
31
0.0
0
LINE
8
0
6
CONTINUOUS
10
-0.036208
20
0.055318
30
0.0
11
-0.035884
21
0.052580
31
0.0
0
LINE
8
0
6
CONTINUOUS
10
-0.034862
20
0.051811
30
0.0
11
-0.035176
21
0.054470
31
0.0
0
LINE
8
0
6
CONTINUOUS
10
-0.035884
20
0.058055
30
0.0
11
-0.036208
21
0.055318
31
0.0
0
LINE
8
0
6
CONTINUOUS
10
-0.035176
20
0.054470
30
0.0
11
-0.034862
21
0.057128
31
0.0
0
LINE
8
0
6
CONTINUOUS
10
-0.034942
20
0.060682
30
0.0
11
-0.035884
21
0.058055
31
0.0
0
LINE
8
0
6
CONTINUOUS
10
-0.034862
20
0.057128
30
0.0
11
-0.033947
21
0.059678
31
0.0
0
LINE
8
0
6
CONTINUOUS
10
-0.033422
20
0.063174
30
0.0
11
-0.034942
21
0.060682
31
0.0
0
LINE
8
0
6
CONTINUOUS
10
-0.033947
20
0.059678
30
0.0
11
-0.032471
21
0.062097
31
0.0
0
LINE
8
0
6
CONTINUOUS
10
-0.031368
20
0.065505
30
0.0
11
-0.033422
21
0.063174
31
0.0
0
LINE
8
0
6
CONTINUOUS
10
-0.032471
20
0.062097
30
0.0
11
-0.030478
21
0.064360
31
0.0
0
LINE
8
0
6
CONTINUOUS
10
-0.028822
20
0.067652
30
0.0
11
-0.031368
21
0.065505
31
0.0
0
LINE
8
0
6
CONTINUOUS
10
-0.030478
20
0.064360
30
0.0
11
-0.028006
21
0.066444
31
0.0
0
LINE
8
0
6
CONTINUOUS
10
-0.025827
20
0.069590
30
0.0
11
-0.028822
21
0.067652
31
0.0
0
LINE
8
0
6
CONTINUOUS
10
-0.028006
20
0.066444
30
0.0
11
-0.025097
21
0.068326
31
0.0
0
LINE
8
0
6
CONTINUOUS
10
-0.022424
20
0.071297
30
0.0
11
-0.025827
21
0.069590
31
0.0
0
LINE
8
0
6
CONTINUOUS
10
-0.025097
20
0.068326
30
0.0
11
-0.021793
21
0.069983
31
0.0
0
LINE
8
0
6
CONTINUOUS
10
-0.018656
20
0.072747
30
0.0
11
-0.022424
21
0.071297
31
0.0
0
LINE
8
0
6
CONTINUOUS
10
-0.021793
20
0.069983
30
0.0
11
-0.018134
21
0.071391
31
0.0
0
LINE
8
0
6
CONTINUOUS
10
-0.014563
20
0.073917
30
0.0
11
-0.018656
21
0.072747
31
0.0
0
LINE
8
0
6
CONTINUOUS
10
-0.018134
20
0.071391
30
0.0
11
-0.014162
21
0.072527
31
0.0
0
LINE
8
0
6
CONTINUOUS
10
-0.010190
20
0.074782
30
0.0
11
-0.014563
21
0.073917
31
0.0
0
LINE
8
0
6
CONTINUOUS
10
-0.014162
20
0.072527
30
0.0
11
-0.009916
21
0.073367
31
0.0
0
LINE
8
0
6
CONTINUOUS
10
-0.005578
20
0.075319
30
0.0
11
-0.010190
21
0.074782
31
0.0
0
LINE
8
0
6
CONTINUOUS
10
-0.009916
20
0.073367
30
0.0
11
-0.005440
21
0.073889
31
0.0
0
LINE
8
0
6
CONTINUOUS
10
-0.000773
20
0.075504
30
0.0
11
-0.005578
21
0.075319
31
0.0
0
LINE
8
0
6
CONTINUOUS
10
-0.005440
20
0.073889
30
0.0
11
-0.000773
21
0.074067
31
0.0
0
LINE
8
0
6
CONTINUOUS
10
0.004033
20
0.075319
30
0.0
11
-0.000773
21
0.075504
31
0.0
0
LINE
8
0
6
CONTINUOUS
10
-0.000773
20
0.074067
30
0.0
11
0.003895
21
0.073888
31
0.0
0
LINE
8
0
6
CONTINUOUS
10
0.008645
20
0.074782
30
0.0
11
0.004033
21
0.075319
31
0.0
0
LINE
8
0
6
CONTINUOUS
10
0.003895
20
0.073888
30
0.0
11
0.008371
21
0.073367
31
0.0
0
LINE
8
0
6
CONTINUOUS
10
0.013018
20
0.073917
30
0.0
11
0.008645
21
0.074782
31
0.0
0
LINE
8
0
6
CONTINUOUS
10
0.008371
20
0.073367
30
0.0
11
0.012616
21
0.072527
31
0.0
0
LINE
8
0
6
CONTINUOUS
10
0.017111
20
0.072747
30
0.0
11
0.013018
21
0.073917
31
0.0
0
LINE
8
0
6
CONTINUOUS
10
0.012616
20
0.072527
30
0.0
11
0.016589
21
0.071391
31
0.0
0
LINE
8
0
6
CONTINUOUS
10
0.020879
20
0.071296
30
0.0
11
0.017111
21
0.072747
31
0.0
0
LINE
8
0
6
CONTINUOUS
10
0.016589
20
0.071391
30
0.0
11
0.020248
21
0.069983
31
0.0
0
LINE
8
0
6
CONTINUOUS
10
0.024282
20
0.069590
30
0.0
11
0.020879
21
0.071296
31
0.0
0
LINE
8
0
6
CONTINUOUS
10
0.020248
20
0.069983
30
0.0
11
0.023552
21
0.068326
31
0.0
0
LINE
8
0
6
CONTINUOUS
10
0.027277
20
0.067652
30
0.0
11
0.024282
21
0.069590
31
0.0
0
LINE
8
0
6
CONTINUOUS
10
0.023552
20
0.068326
30
0.0
11
0.026461
21
0.066444
31
0.0
0
LINE
8
0
6
CONTINUOUS
10
0.029823
20
0.065505
30
0.0
11
0.027277
21
0.067652
31
0.0
0
LINE
8
0
6
CONTINUOUS
10
0.026461
20
0.066444
30
0.0
11
0.028933
21
0.064359
31
0.0
0
LINE
8
0
6
CONTINUOUS
10
0.031877
20
0.063173
30
0.0
11
0.029823
21
0.065505
31
0.0
0
LINE
8
0
6
CONTINUOUS
10
0.028933
20
0.064359
30
0.0
11
0.030927
21
0.062096
31
0.0
0
LINE
8
0
6
CONTINUOUS
10
0.033397
20
0.060682
30
0.0
11
0.031877
21
0.063173
31
0.0
0
LINE
8
0
6
CONTINUOUS
10
0.030927
20
0.062096
30
0.0
11
0.032402
21
0.059678
31
0.0
0
LINE
8
0
6
CONTINUOUS
10
0.034340
20
0.058055
30
0.0
11
0.033397
21
0.060682
31
0.0
0
LINE
8
0
6
CONTINUOUS
10
0.032402
20
0.059678
30
0.0
11
0.033317
21
0.057128
31
0.0
0
LINE
8
0
6
CONTINUOUS
10
0.034663
20
0.055318
30
0.0
11
0.034340
21
0.058055
31
0.0
0
LINE
8
0
6
CONTINUOUS
10
0.033317
20
0.057128
30
0.0
11
0.033631
21
0.054469
31
0.0
0
LINE
8
0
6
CONTINUOUS
10
0.034340
20
0.052580
30
0.0
11
0.034663
21
0.055318
31
0.0
0
LINE
8
0
6
CONTINUOUS
10
0.033631
20
0.054469
30
0.0
11
0.033317
21
0.051811
31
0.0
0
LINE
8
0
6
CONTINUOUS
10
0.033397
20
0.049953
30
0.0
11
0.034340
21
0.052580
31
0.0
0
LINE
8
0
6
CONTINUOUS
10
0.033317
20
0.051811
30
0.0
11
0.032402
21
0.049260
31
0.0
0
LINE
8
0
6
CONTINUOUS
10
0.031877
20
0.047462
30
0.0
11
0.033397
21
0.049953
31
0.0
0
LINE
8
0
6
CONTINUOUS
10
0.032402
20
0.049260
30
0.0
11
0.030927
21
0.046842
31
0.0
0
LINE
8
0
6
CONTINUOUS
10
0.029823
20
0.045130
30
0.0
11
0.031877
21
0.047462
31
0.0
0
LINE
8
0
6
CONTINUOUS
10
0.030927
20
0.046842
30
0.0
11
0.028933
21
0.044579
31
0.0
0
LINE
8
0
6
CONTINUOUS
10
0.027278
20
0.042984
30
0.0
11
0.029823
21
0.045130
31
0.0
0
LINE
8
0
6
CONTINUOUS
10
0.028933
20
0.044579
30
0.0
11
0.026461
21
0.042495
31
0.0
0
LINE
8
0
6
CONTINUOUS
10
0.024282
20
0.041045
30
0.0
11
0.027278
21
0.042984
31
0.0
0
LINE
8
0
6
CONTINUOUS
10
0.023552
20
0.040613
30
0.0
11
0.024282
21
0.041045
31
0.0
0
LINE
8
0
6
CONTINUOUS
10
0.026461
20
0.042495
30
0.0
11
0.023552
21
0.040613
31
0.0
0
LINE
8
0
6
CONTINUOUS
10
-0.052128
20
0.052010
30
0.0
11
-0.051847
21
0.050936
31
0.0
0
LINE
8
0
6
CONTINUOUS
10
-0.053152
20
0.057678
30
0.0
11
-0.052128
21
0.052010
31
0.0
0
LINE
8
0
6
CONTINUOUS
10
-0.015138
20
-0.026331
30
0.0
11
-0.013609
21
-0.056418
31
0.0
0
LINE
8
0
6
CONTINUOUS
10
-0.016272
20
-0.003332
30
0.0
11
-0.015138
21
-0.026331
31
0.0
0
LINE
8
0
6
CONTINUOUS
10
-0.017344
20
0.014762
30
0.0
11
-0.016272
21
-0.003332
31
0.0
0
LINE
8
0
6
CONTINUOUS
10
-0.017994
20
0.022864
30
0.0
11
-0.017344
21
0.014762
31
0.0
0
LINE
8
0
6
CONTINUOUS
10
-0.019505
20
0.025982
30
0.0
11
-0.016801
21
0.020473
31
0.0
0
LINE
8
0
6
CONTINUOUS
10
-0.047042
20
0.093202
30
0.0
11
-0.049597
21
0.090062
31
0.0
0
LINE
8
0
6
CONTINUOUS
10
-0.049597
20
0.090062
30
0.0
11
-0.050499
21
0.088837
31
0.0
0
LINE
8
0
6
CONTINUOUS
10
-0.053685
20
0.079733
30
0.0
11
-0.054239
21
0.074762
31
0.0
0
LINE
8
0
6
CONTINUOUS
10
-0.000000
20
0.104782
30
0.0
11
-0.012607
21
0.104449
31
0.0
0
LINE
8
0
6
CONTINUOUS
10
-0.012607
20
0.104449
30
0.0
11
-0.024976
21
0.103187
31
0.0
0
LINE
8
0
6
CONTINUOUS
10
-0.024976
20
0.103187
30
0.0
11
-0.033937
21
0.101376
31
0.0
0
LINE
8
0
6
CONTINUOUS
10
-0.046125
20
0.094289
30
0.0
11
-0.047042
21
0.093202
31
0.0
0
LINE
8
0
6
CONTINUOUS
10
-0.040733
20
0.098249
30
0.0
11
-0.046125
21
0.094289
31
0.0
0
LINE
8
0
6
CONTINUOUS
10
-0.033937
20
0.101376
30
0.0
11
-0.040733
21
0.098249
31
0.0
0
LINE
8
0
6
CONTINUOUS
10
-0.023903
20
0.030071
30
0.0
11
-0.019505
21
0.025982
31
0.0
0
LINE
8
0
6
CONTINUOUS
10
-0.044026
20
0.039824
30
0.0
11
-0.046961
21
0.042420
31
0.0
0
LINE
8
0
6
CONTINUOUS
10
-0.047510
20
0.042429
30
0.0
11
-0.044527
21
0.039835
31
0.0
0
LINE
8
0
6
CONTINUOUS
10
-0.036858
20
0.036141
30
0.0
11
-0.040513
21
0.037721
31
0.0
0
LINE
8
0
6
CONTINUOUS
10
-0.040985
20
0.037745
30
0.0
11
-0.037300
21
0.036178
31
0.0
0
LINE
8
0
6
CONTINUOUS
10
-0.025481
20
0.087984
30
0.0
11
-0.012752
21
0.089413
31
0.0
0
LINE
8
0
6
CONTINUOUS
10
-0.037300
20
0.036178
30
0.0
11
-0.028753
21
0.033042
31
0.0
0
LINE
8
0
6
CONTINUOUS
10
-0.028401
20
0.032955
30
0.0
11
-0.036858
21
0.036141
31
0.0
0
LINE
8
0
6
CONTINUOUS
10
-0.049396
20
0.045742
30
0.0
11
-0.051080
21
0.050886
31
0.0
0
LINE
8
0
6
CONTINUOUS
10
-0.051847
20
0.050936
30
0.0
11
-0.049992
21
0.045747
31
0.0
0
LINE
8
0
6
CONTINUOUS
10
-0.028753
20
0.033042
30
0.0
11
-0.023903
21
0.030071
31
0.0
0
LINE
8
0
6
CONTINUOUS
10
-0.013609
20
-0.056418
30
0.0
11
-0.012350
21
-0.070427
31
0.0
0
LINE
8
0
6
CONTINUOUS
10
-0.017994
20
0.022864
30
0.0
11
-0.017379
21
0.021529
31
0.0
0
LINE
8
0
6
CONTINUOUS
10
-0.002608
20
-0.078841
30
0.0
11
0.000000
21
-0.079040
31
0.0
0
LINE
8
0
6
CONTINUOUS
10
-0.005426
20
-0.078258
30
0.0
11
-0.002608
21
-0.078841
31
0.0
0
LINE
8
0
6
CONTINUOUS
10
-0.007833
20
-0.077332
30
0.0
11
-0.005426
21
-0.078258
31
0.0
0
LINE
8
0
6
CONTINUOUS
10
-0.011676
20
-0.073623
30
0.0
11
-0.011228
21
-0.074469
31
0.0
0
LINE
8
0
6
CONTINUOUS
10
-0.011228
20
-0.074469
30
0.0
11
-0.010598
21
-0.075203
31
0.0
0
LINE
8
0
6
CONTINUOUS
10
-0.012142
20
-0.072746
30
0.0
11
-0.011676
21
-0.073623
31
0.0
0
LINE
8
0
6
CONTINUOUS
10
-0.010598
20
-0.075203
30
0.0
11
-0.009969
21
-0.075936
31
0.0
0
LINE
8
0
6
CONTINUOUS
10
-0.012350
20
-0.070427
30
0.0
11
-0.012343
21
-0.070554
31
0.0
0
LINE
8
0
6
CONTINUOUS
10
-0.012343
20
-0.070554
30
0.0
11
-0.012142
21
-0.072746
31
0.0
0
LINE
8
0
6
CONTINUOUS
10
-0.008121
20
0.007764
30
0.0
11
-0.011243
21
0.009885
31
0.0
0
LINE
8
0
6
CONTINUOUS
10
-0.003834
20
0.006783
30
0.0
11
-0.008121
21
0.007764
31
0.0
0
LINE
8
0
6
CONTINUOUS
10
0.000000
20
0.006502
30
0.0
11
-0.003834
21
0.006783
31
0.0
0
LINE
8
0
6
CONTINUOUS
10
-0.011243
20
0.009885
30
0.0
11
-0.013498
21
0.018142
31
0.0
0
LINE
8
0
6
CONTINUOUS
10
-0.013498
20
0.018142
30
0.0
11
-0.017214
21
0.025540
31
0.0
0
LINE
8
0
6
CONTINUOUS
10
-0.023533
20
0.030209
30
0.0
11
-0.028401
21
0.032955
31
0.0
0
LINE
8
0
6
CONTINUOUS
10
-0.023748
20
0.030310
30
0.0
11
-0.023533
21
0.030209
31
0.0
0
LINE
8
0
6
CONTINUOUS
10
-0.040066
20
0.083478
30
0.0
11
-0.034395
21
0.085860
31
0.0
0
LINE
8
0
6
CONTINUOUS
10
-0.034395
20
0.085860
30
0.0
11
-0.025481
21
0.087984
31
0.0
0
LINE
8
0
6
CONTINUOUS
10
-0.012752
20
0.089413
30
0.0
11
-0.000000
21
0.089838
31
0.0
0
LINE
8
0
6
CONTINUOUS
10
-0.052058
20
0.061814
30
0.0
11
-0.051413
21
0.066663
31
0.0
0
LINE
8
0
6
CONTINUOUS
10
-0.044921
20
0.080094
30
0.0
11
-0.040066
21
0.083478
31
0.0
0
LINE
8
0
6
CONTINUOUS
10
-0.048257
20
0.075688
30
0.0
11
-0.044921
21
0.080094
31
0.0
0
LINE
8
0
6
CONTINUOUS
10
-0.051080
20
0.050886
30
0.0
11
-0.052037
21
0.056514
31
0.0
0
LINE
8
0
6
CONTINUOUS
10
-0.017214
20
0.025540
30
0.0
11
-0.019966
21
0.028691
31
0.0
0
LINE
8
0
6
CONTINUOUS
10
-0.019966
20
0.028691
30
0.0
11
-0.020295
21
0.028831
31
0.0
0
LINE
8
0
6
CONTINUOUS
10
-0.046961
20
0.042420
30
0.0
11
-0.049396
21
0.045742
31
0.0
0
LINE
8
0
6
CONTINUOUS
10
-0.049992
20
0.045747
30
0.0
11
-0.047510
21
0.042429
31
0.0
0
LINE
8
0
6
CONTINUOUS
10
-0.040513
20
0.037721
30
0.0
11
-0.044026
21
0.039824
31
0.0
0
LINE
8
0
6
CONTINUOUS
10
-0.044527
20
0.039835
30
0.0
11
-0.040985
21
0.037745
31
0.0
0
LINE
8
0
6
CONTINUOUS
10
-0.054015
20
0.069415
30
0.0
11
-0.053994
21
0.068917
31
0.0
0
LINE
8
0
6
CONTINUOUS
10
-0.054239
20
0.074762
30
0.0
11
-0.054015
21
0.069415
31
0.0
0
LINE
8
0
6
CONTINUOUS
10
-0.053771
20
0.062890
30
0.0
11
-0.053174
21
0.057864
31
0.0
0
LINE
8
0
6
CONTINUOUS
10
-0.053994
20
0.068917
30
0.0
11
-0.053771
21
0.062890
31
0.0
0
LINE
8
0
6
CONTINUOUS
10
-0.053174
20
0.057864
30
0.0
11
-0.053152
21
0.057678
31
0.0
0
LINE
8
0
6
CONTINUOUS
10
-0.052037
20
0.056514
30
0.0
11
-0.052058
21
0.061814
31
0.0
0
LINE
8
0
6
CONTINUOUS
10
-0.050499
20
0.088837
30
0.0
11
-0.052410
21
0.084472
31
0.0
0
LINE
8
0
6
CONTINUOUS
10
-0.050047
20
0.071281
30
0.0
11
-0.048257
21
0.075688
31
0.0
0
LINE
8
0
6
CONTINUOUS
10
-0.052410
20
0.084472
30
0.0
11
-0.053685
21
0.079733
31
0.0
0
LINE
8
0
6
CONTINUOUS
10
-0.051413
20
0.066663
30
0.0
11
-0.050047
21
0.071281
31
0.0
0
LINE
8
0
6
CONTINUOUS
10
0.052128
20
0.052010
30
0.0
11
0.053152
21
0.057678
31
0.0
0
LINE
8
0
6
CONTINUOUS
10
0.051847
20
0.050935
30
0.0
11
0.052128
21
0.052010
31
0.0
0
LINE
8
0
6
CONTINUOUS
10
0.013610
20
-0.056419
30
0.0
11
0.015139
21
-0.026331
31
0.0
0
LINE
8
0
6
CONTINUOUS
10
0.015139
20
-0.026331
30
0.0
11
0.016273
21
-0.003332
31
0.0
0
LINE
8
0
6
CONTINUOUS
10
0.016273
20
-0.003332
30
0.0
11
0.017345
21
0.014762
31
0.0
0
LINE
8
0
6
CONTINUOUS
10
0.017345
20
0.014762
30
0.0
11
0.017994
21
0.022864
31
0.0
0
LINE
8
0
6
CONTINUOUS
10
0.016802
20
0.020472
30
0.0
11
0.019505
21
0.025982
31
0.0
0
LINE
8
0
6
CONTINUOUS
10
0.049596
20
0.090061
30
0.0
11
0.047042
21
0.093202
31
0.0
0
LINE
8
0
6
CONTINUOUS
10
0.050499
20
0.088837
30
0.0
11
0.049596
21
0.090061
31
0.0
0
LINE
8
0
6
CONTINUOUS
10
0.054239
20
0.074761
30
0.0
11
0.053685
21
0.079733
31
0.0
0
LINE
8
0
6
CONTINUOUS
10
0.012607
20
0.104449
30
0.0
11
-0.000000
21
0.104782
31
0.0
0
LINE
8
0
6
CONTINUOUS
10
0.024976
20
0.103187
30
0.0
11
0.012607
21
0.104449
31
0.0
0
LINE
8
0
6
CONTINUOUS
10
0.033937
20
0.101376
30
0.0
11
0.024976
21
0.103187
31
0.0
0
LINE
8
0
6
CONTINUOUS
10
0.046125
20
0.094289
30
0.0
11
0.040732
21
0.098249
31
0.0
0
LINE
8
0
6
CONTINUOUS
10
0.047042
20
0.093202
30
0.0
11
0.046125
21
0.094289
31
0.0
0
LINE
8
0
6
CONTINUOUS
10
0.040732
20
0.098249
30
0.0
11
0.033937
21
0.101376
31
0.0
0
LINE
8
0
6
CONTINUOUS
10
0.019505
20
0.025982
30
0.0
11
0.023903
21
0.030071
31
0.0
0
LINE
8
0
6
CONTINUOUS
10
0.044527
20
0.039835
30
0.0
11
0.047510
21
0.042428
31
0.0
0
LINE
8
0
6
CONTINUOUS
10
0.046961
20
0.042420
30
0.0
11
0.044026
21
0.039823
31
0.0
0
LINE
8
0
6
CONTINUOUS
10
0.037300
20
0.036177
30
0.0
11
0.040985
21
0.037744
31
0.0
0
LINE
8
0
6
CONTINUOUS
10
0.040514
20
0.037720
30
0.0
11
0.036859
21
0.036141
31
0.0
0
LINE
8
0
6
CONTINUOUS
10
0.012751
20
0.089413
30
0.0
11
0.025481
21
0.087984
31
0.0
0
LINE
8
0
6
CONTINUOUS
10
0.036859
20
0.036141
30
0.0
11
0.028401
21
0.032955
31
0.0
0
LINE
8
0
6
CONTINUOUS
10
0.028753
20
0.033041
30
0.0
11
0.037300
21
0.036177
31
0.0
0
LINE
8
0
6
CONTINUOUS
10
0.049992
20
0.045746
30
0.0
11
0.051847
21
0.050935
31
0.0
0
LINE
8
0
6
CONTINUOUS
10
0.051080
20
0.050886
30
0.0
11
0.049396
21
0.045741
31
0.0
0
LINE
8
0
6
CONTINUOUS
10
0.023903
20
0.030071
30
0.0
11
0.028753
21
0.033041
31
0.0
0
LINE
8
0
6
CONTINUOUS
10
0.012351
20
-0.070427
30
0.0
11
0.013610
21
-0.056419
31
0.0
0
LINE
8
0
6
CONTINUOUS
10
0.017380
20
0.021529
30
0.0
11
0.017994
21
0.022864
31
0.0
0
LINE
8
0
6
CONTINUOUS
10
0.000000
20
-0.079040
30
0.0
11
0.002608
21
-0.078841
31
0.0
0
LINE
8
0
6
CONTINUOUS
10
0.002608
20
-0.078841
30
0.0
11
0.005426
21
-0.078258
31
0.0
0
LINE
8
0
6
CONTINUOUS
10
0.005426
20
-0.078258
30
0.0
11
0.007834
21
-0.077332
31
0.0
0
LINE
8
0
6
CONTINUOUS
10
0.011229
20
-0.074469
30
0.0
11
0.011677
21
-0.073624
31
0.0
0
LINE
8
0
6
CONTINUOUS
10
0.010598
20
-0.075204
30
0.0
11
0.011229
21
-0.074469
31
0.0
0
LINE
8
0
6
CONTINUOUS
10
0.011677
20
-0.073624
30
0.0
11
0.012143
21
-0.072746
31
0.0
0
LINE
8
0
6
CONTINUOUS
10
0.009969
20
-0.075936
30
0.0
11
0.010598
21
-0.075204
31
0.0
0
LINE
8
0
6
CONTINUOUS
10
0.012143
20
-0.072746
30
0.0
11
0.012344
21
-0.070554
31
0.0
0
LINE
8
0
6
CONTINUOUS
10
0.012344
20
-0.070554
30
0.0
11
0.012351
21
-0.070427
31
0.0
0
LINE
8
0
6
CONTINUOUS
10
0.011243
20
0.009885
30
0.0
11
0.008122
21
0.007764
31
0.0
0
LINE
8
0
6
CONTINUOUS
10
0.008122
20
0.007764
30
0.0
11
0.003834
21
0.006783
31
0.0
0
LINE
8
0
6
CONTINUOUS
10
0.003834
20
0.006783
30
0.0
11
0.000000
21
0.006502
31
0.0
0
LINE
8
0
6
CONTINUOUS
10
0.013499
20
0.018142
30
0.0
11
0.011243
21
0.009885
31
0.0
0
LINE
8
0
6
CONTINUOUS
10
0.017226
20
0.025540
30
0.0
11
0.013499
21
0.018142
31
0.0
0
LINE
8
0
6
CONTINUOUS
10
0.023533
20
0.030208
30
0.0
11
0.023748
21
0.030310
31
0.0
0
LINE
8
0
6
CONTINUOUS
10
0.028401
20
0.032955
30
0.0
11
0.023533
21
0.030208
31
0.0
0
LINE
8
0
6
CONTINUOUS
10
0.034394
20
0.085860
30
0.0
11
0.040065
21
0.083477
31
0.0
0
LINE
8
0
6
CONTINUOUS
10
0.025481
20
0.087984
30
0.0
11
0.034394
21
0.085860
31
0.0
0
LINE
8
0
6
CONTINUOUS
10
-0.000000
20
0.089838
30
0.0
11
0.012751
21
0.089413
31
0.0
0
LINE
8
0
6
CONTINUOUS
10
0.051413
20
0.066663
30
0.0
11
0.052057
21
0.061813
31
0.0
0
LINE
8
0
6
CONTINUOUS
10
0.040065
20
0.083477
30
0.0
11
0.044920
21
0.080094
31
0.0
0
LINE
8
0
6
CONTINUOUS
10
0.044920
20
0.080094
30
0.0
11
0.048256
21
0.075687
31
0.0
0
LINE
8
0
6
CONTINUOUS
10
0.052037
20
0.056514
30
0.0
11
0.051080
21
0.050886
31
0.0
0
LINE
8
0
6
CONTINUOUS
10
0.020290
20
0.028829
30
0.0
11
0.019966
21
0.028691
31
0.0
0
LINE
8
0
6
CONTINUOUS
10
0.019966
20
0.028691
30
0.0
11
0.017226
21
0.025540
31
0.0
0
LINE
8
0
6
CONTINUOUS
10
0.047510
20
0.042428
30
0.0
11
0.049992
21
0.045746
31
0.0
0
LINE
8
0
6
CONTINUOUS
10
0.049396
20
0.045741
30
0.0
11
0.046961
21
0.042420
31
0.0
0
LINE
8
0
6
CONTINUOUS
10
0.040985
20
0.037744
30
0.0
11
0.044527
21
0.039835
31
0.0
0
LINE
8
0
6
CONTINUOUS
10
0.044026
20
0.039823
30
0.0
11
0.040514
21
0.037720
31
0.0
0
LINE
8
0
6
CONTINUOUS
10
0.054015
20
0.069415
30
0.0
11
0.054239
21
0.074761
31
0.0
0
LINE
8
0
6
CONTINUOUS
10
0.053994
20
0.068916
30
0.0
11
0.054015
21
0.069415
31
0.0
0
LINE
8
0
6
CONTINUOUS
10
0.053174
20
0.057863
30
0.0
11
0.053771
21
0.062890
31
0.0
0
LINE
8
0
6
CONTINUOUS
10
0.053771
20
0.062890
30
0.0
11
0.053994
21
0.068916
31
0.0
0
LINE
8
0
6
CONTINUOUS
10
0.053152
20
0.057678
30
0.0
11
0.053174
21
0.057863
31
0.0
0
LINE
8
0
6
CONTINUOUS
10
0.052057
20
0.061813
30
0.0
11
0.052037
21
0.056514
31
0.0
0
LINE
8
0
6
CONTINUOUS
10
0.052410
20
0.084472
30
0.0
11
0.050499
21
0.088837
31
0.0
0
LINE
8
0
6
CONTINUOUS
10
0.048256
20
0.075687
30
0.0
11
0.050047
21
0.071281
31
0.0
0
LINE
8
0
6
CONTINUOUS
10
0.053685
20
0.079733
30
0.0
11
0.052410
21
0.084472
31
0.0
0
LINE
8
0
6
CONTINUOUS
10
0.050047
20
0.071281
30
0.0
11
0.051413
21
0.066663
31
0.0
0
LINE
8
0
6
CONTINUOUS
10
0.010202
20
-0.099254
30
0.0
11
0.011721
21
-0.075023
31
0.0
0
LINE
8
0
6
CONTINUOUS
10
-0.011720
20
-0.075023
30
0.0
11
-0.010201
21
-0.099254
31
0.0
0
LINE
8
0
6
CONTINUOUS
10
-0.011720
20
-0.073289
30
0.0
11
-0.011720
21
-0.075023
31
0.0
0
LINE
8
0
6
CONTINUOUS
10
0.011721
20
-0.075023
30
0.0
11
0.011721
21
-0.073289
31
0.0
0
LINE
8
0
6
CONTINUOUS
10
0.008812
20
-0.102230
30
0.0
11
0.009828
21
-0.100999
31
0.0
0
LINE
8
0
6
CONTINUOUS
10
0.000000
20
-0.104782
30
0.0
11
0.002634
21
-0.104608
31
0.0
0
LINE
8
0
6
CONTINUOUS
10
-0.008811
20
-0.102230
30
0.0
11
-0.007194
21
-0.103287
31
0.0
0
LINE
8
0
6
CONTINUOUS
10
0.010175
20
-0.099678
30
0.0
11
0.010202
21
-0.099254
31
0.0
0
LINE
8
0
6
CONTINUOUS
10
0.009828
20
-0.100999
30
0.0
11
0.010175
21
-0.099678
31
0.0
0
LINE
8
0
6
CONTINUOUS
10
0.002634
20
-0.104608
30
0.0
11
0.005088
21
-0.104098
31
0.0
0
LINE
8
0
6
CONTINUOUS
10
-0.007194
20
-0.103287
30
0.0
11
-0.005087
21
-0.104098
31
0.0
0
LINE
8
0
6
CONTINUOUS
10
-0.010201
20
-0.099254
30
0.0
11
-0.010174
21
-0.099678
31
0.0
0
LINE
8
0
6
CONTINUOUS
10
-0.010174
20
-0.099678
30
0.0
11
-0.009828
21
-0.100999
31
0.0
0
LINE
8
0
6
CONTINUOUS
10
0.005088
20
-0.104098
30
0.0
11
0.007195
21
-0.103287
31
0.0
0
LINE
8
0
6
CONTINUOUS
10
-0.005087
20
-0.104098
30
0.0
11
-0.002633
21
-0.104608
31
0.0
0
LINE
8
0
6
CONTINUOUS
10
-0.002633
20
-0.104608
30
0.0
11
0.000000
21
-0.104782
31
0.0
0
LINE
8
0
6
CONTINUOUS
10
-0.009828
20
-0.100999
30
0.0
11
-0.008811
21
-0.102230
31
0.0
0
LINE
8
0
6
CONTINUOUS
10
0.007195
20
-0.103287
30
0.0
11
0.008812
21
-0.102230
31
0.0
0
LINE
8
0
6
CONTINUOUS
10
-0.036858
20
0.036141
30
0.0
11
-0.028401
21
0.032955
31
0.0
0
LINE
8
0
6
CONTINUOUS
10
-0.012752
20
0.089413
30
0.0
11
-0.025481
21
0.087984
31
0.0
0
LINE
8
0
6
CONTINUOUS
10
-0.013771
20
0.029812
30
0.0
11
-0.006974
21
0.029912
31
0.0
0
LINE
8
0
6
CONTINUOUS
10
-0.023533
20
0.030209
30
0.0
11
-0.020295
21
0.028831
31
0.0
0
LINE
8
0
6
CONTINUOUS
10
-0.028401
20
0.032955
30
0.0
11
-0.023533
21
0.030209
31
0.0
0
LINE
8
0
6
CONTINUOUS
10
-0.048257
20
0.075688
30
0.0
11
-0.050047
21
0.071281
31
0.0
0
LINE
8
0
6
CONTINUOUS
10
-0.034395
20
0.085860
30
0.0
11
-0.040066
21
0.083478
31
0.0
0
LINE
8
0
6
CONTINUOUS
10
-0.040066
20
0.083478
30
0.0
11
-0.044921
21
0.080094
31
0.0
0
LINE
8
0
6
CONTINUOUS
10
-0.025481
20
0.087984
30
0.0
11
-0.034395
21
0.085860
31
0.0
0
LINE
8
0
6
CONTINUOUS
10
-0.000000
20
0.089838
30
0.0
11
-0.012752
21
0.089413
31
0.0
0
LINE
8
0
6
CONTINUOUS
10
-0.051413
20
0.066663
30
0.0
11
-0.052058
21
0.061814
31
0.0
0
LINE
8
0
6
CONTINUOUS
10
-0.052037
20
0.056514
30
0.0
11
-0.051080
21
0.050886
31
0.0
0
LINE
8
0
6
CONTINUOUS
10
-0.051080
20
0.050886
30
0.0
11
-0.049396
21
0.045742
31
0.0
0
LINE
8
0
6
CONTINUOUS
10
-0.046961
20
0.042420
30
0.0
11
-0.044026
21
0.039824
31
0.0
0
LINE
8
0
6
CONTINUOUS
10
-0.044026
20
0.039824
30
0.0
11
-0.040513
21
0.037721
31
0.0
0
LINE
8
0
6
CONTINUOUS
10
-0.006974
20
0.029912
30
0.0
11
0.000000
21
0.029934
31
0.0
0
LINE
8
0
6
CONTINUOUS
10
-0.019966
20
0.028691
30
0.0
11
-0.013771
21
0.029812
31
0.0
0
LINE
8
0
6
CONTINUOUS
10
-0.020295
20
0.028831
30
0.0
11
-0.019966
21
0.028691
31
0.0
0
LINE
8
0
6
CONTINUOUS
10
-0.049396
20
0.045742
30
0.0
11
-0.046961
21
0.042420
31
0.0
0
LINE
8
0
6
CONTINUOUS
10
-0.040513
20
0.037721
30
0.0
11
-0.036858
21
0.036141
31
0.0
0
LINE
8
0
6
CONTINUOUS
10
-0.052058
20
0.061814
30
0.0
11
-0.052037
21
0.056514
31
0.0
0
LINE
8
0
6
CONTINUOUS
10
-0.044921
20
0.080094
30
0.0
11
-0.048257
21
0.075688
31
0.0
0
LINE
8
0
6
CONTINUOUS
10
-0.050047
20
0.071281
30
0.0
11
-0.051413
21
0.066663
31
0.0
0
LINE
8
0
6
CONTINUOUS
10
0.028401
20
0.032955
30
0.0
11
0.036859
21
0.036141
31
0.0
0
LINE
8
0
6
CONTINUOUS
10
0.025481
20
0.087984
30
0.0
11
0.012751
21
0.089413
31
0.0
0
LINE
8
0
6
CONTINUOUS
10
0.006974
20
0.029911
30
0.0
11
0.013771
21
0.029812
31
0.0
0
LINE
8
0
6
CONTINUOUS
10
0.023533
20
0.030208
30
0.0
11
0.028401
21
0.032955
31
0.0
0
LINE
8
0
6
CONTINUOUS
10
0.020290
20
0.028829
30
0.0
11
0.023533
21
0.030208
31
0.0
0
LINE
8
0
6
CONTINUOUS
10
0.050047
20
0.071281
30
0.0
11
0.048256
21
0.075687
31
0.0
0
LINE
8
0
6
CONTINUOUS
10
0.044920
20
0.080094
30
0.0
11
0.040065
21
0.083477
31
0.0
0
LINE
8
0
6
CONTINUOUS
10
0.040065
20
0.083477
30
0.0
11
0.034394
21
0.085860
31
0.0
0
LINE
8
0
6
CONTINUOUS
10
0.034394
20
0.085860
30
0.0
11
0.025481
21
0.087984
31
0.0
0
LINE
8
0
6
CONTINUOUS
10
0.012751
20
0.089413
30
0.0
11
-0.000000
21
0.089838
31
0.0
0
LINE
8
0
6
CONTINUOUS
10
0.052057
20
0.061813
30
0.0
11
0.051413
21
0.066663
31
0.0
0
LINE
8
0
6
CONTINUOUS
10
0.051080
20
0.050886
30
0.0
11
0.052037
21
0.056514
31
0.0
0
LINE
8
0
6
CONTINUOUS
10
0.049396
20
0.045741
30
0.0
11
0.051080
21
0.050886
31
0.0
0
LINE
8
0
6
CONTINUOUS
10
0.044026
20
0.039823
30
0.0
11
0.046961
21
0.042420
31
0.0
0
LINE
8
0
6
CONTINUOUS
10
0.040514
20
0.037720
30
0.0
11
0.044026
21
0.039823
31
0.0
0
LINE
8
0
6
CONTINUOUS
10
0.000000
20
0.029934
30
0.0
11
0.006974
21
0.029911
31
0.0
0
LINE
8
0
6
CONTINUOUS
10
0.019966
20
0.028691
30
0.0
11
0.020290
21
0.028829
31
0.0
0
LINE
8
0
6
CONTINUOUS
10
0.013771
20
0.029812
30
0.0
11
0.019966
21
0.028691
31
0.0
0
LINE
8
0
6
CONTINUOUS
10
0.046961
20
0.042420
30
0.0
11
0.049396
21
0.045741
31
0.0
0
LINE
8
0
6
CONTINUOUS
10
0.036859
20
0.036141
30
0.0
11
0.040514
21
0.037720
31
0.0
0
LINE
8
0
6
CONTINUOUS
10
0.052037
20
0.056514
30
0.0
11
0.052057
21
0.061813
31
0.0
0
LINE
8
0
6
CONTINUOUS
10
0.048256
20
0.075687
30
0.0
11
0.044920
21
0.080094
31
0.0
0
LINE
8
0
6
CONTINUOUS
10
0.051413
20
0.066663
30
0.0
11
0.050047
21
0.071281
31
0.0
0
LINE
8
0
6
CONTINUOUS
10
-0.003834
20
0.006783
30
0.0
11
0.000000
21
0.006502
31
0.0
0
LINE
8
0
6
CONTINUOUS
10
-0.019307
20
0.028481
30
0.0
11
-0.013636
21
0.029503
31
0.0
0
LINE
8
0
6
CONTINUOUS
10
-0.019637
20
0.028935
30
0.0
11
-0.019307
21
0.028481
31
0.0
0
LINE
8
0
6
CONTINUOUS
10
0.008122
20
0.007764
30
0.0
11
0.011243
21
0.009885
31
0.0
0
LINE
8
0
6
CONTINUOUS
10
0.003834
20
0.006783
30
0.0
11
0.008122
21
0.007764
31
0.0
0
LINE
8
0
6
CONTINUOUS
10
0.000000
20
0.006502
30
0.0
11
0.003834
21
0.006783
31
0.0
0
LINE
8
0
6
CONTINUOUS
10
0.011243
20
0.009885
30
0.0
11
0.013499
21
0.018142
31
0.0
0
LINE
8
0
6
CONTINUOUS
10
0.013499
20
0.018142
30
0.0
11
0.017226
21
0.025540
31
0.0
0
LINE
8
0
6
CONTINUOUS
10
0.017226
20
0.025540
30
0.0
11
0.019966
21
0.028691
31
0.0
0
LINE
8
0
6
CONTINUOUS
10
-0.008121
20
0.007764
30
0.0
11
-0.003834
21
0.006783
31
0.0
0
LINE
8
0
6
CONTINUOUS
10
-0.017214
20
0.025540
30
0.0
11
-0.013498
21
0.018142
31
0.0
0
LINE
8
0
6
CONTINUOUS
10
-0.011243
20
0.009885
30
0.0
11
-0.008121
21
0.007764
31
0.0
0
LINE
8
0
6
CONTINUOUS
10
-0.019966
20
0.028691
30
0.0
11
-0.017214
21
0.025540
31
0.0
0
LINE
8
0
6
CONTINUOUS
10
-0.013498
20
0.018142
30
0.0
11
-0.011243
21
0.009885
31
0.0
0
LINE
8
0
6
CONTINUOUS
10
-0.006903
20
0.029601
30
0.0
11
0.000006
21
0.029620
31
0.0
0
LINE
8
0
6
CONTINUOUS
10
-0.010845
20
0.010080
30
0.0
11
-0.012991
21
0.018011
31
0.0
0
LINE
8
0
6
CONTINUOUS
10
-0.011044
20
0.010331
30
0.0
11
-0.010845
21
0.010080
31
0.0
0
LINE
8
0
6
CONTINUOUS
10
-0.012991
20
0.018011
30
0.0
11
-0.016556
21
0.025349
31
0.0
0
LINE
8
0
6
CONTINUOUS
10
0.010857
20
0.010080
30
0.0
11
0.011056
21
0.010331
31
0.0
0
LINE
8
0
6
CONTINUOUS
10
0.013003
20
0.018011
30
0.0
11
0.010857
21
0.010080
31
0.0
0
LINE
8
0
6
CONTINUOUS
10
0.016568
20
0.025349
30
0.0
11
0.013003
21
0.018011
31
0.0
0
LINE
8
0
6
CONTINUOUS
10
0.006914
20
0.029601
30
0.0
11
0.013648
21
0.029503
31
0.0
0
LINE
8
0
6
CONTINUOUS
10
0.000006
20
0.029620
30
0.0
11
0.006914
21
0.029601
31
0.0
0
LINE
8
0
6
CONTINUOUS
10
0.019319
20
0.028481
30
0.0
11
0.019648
21
0.028934
31
0.0
0
LINE
8
0
6
CONTINUOUS
10
0.013648
20
0.029503
30
0.0
11
0.019319
21
0.028481
31
0.0
0
LINE
8
0
6
CONTINUOUS
10
-0.013636
20
0.029503
30
0.0
11
-0.006903
21
0.029601
31
0.0
0
LINE
8
0
6
CONTINUOUS
10
0.003859
20
0.007199
30
0.0
11
0.008178
21
0.008263
31
0.0
0
LINE
8
0
6
CONTINUOUS
10
-0.003847
20
0.007199
30
0.0
11
-0.000007
21
0.006908
31
0.0
0
LINE
8
0
6
CONTINUOUS
10
0.013648
20
0.029503
30
0.0
11
0.006914
21
0.029601
31
0.0
0
LINE
8
0
6
CONTINUOUS
10
0.006914
20
0.029601
30
0.0
11
0.000006
21
0.029620
31
0.0
0
LINE
8
0
6
CONTINUOUS
10
0.013003
20
0.018011
30
0.0
11
0.016568
21
0.025349
31
0.0
0
LINE
8
0
6
CONTINUOUS
10
0.016568
20
0.025349
30
0.0
11
0.019319
21
0.028481
31
0.0
0
LINE
8
0
6
CONTINUOUS
10
0.019319
20
0.028481
30
0.0
11
0.013648
21
0.029503
31
0.0
0
LINE
8
0
6
CONTINUOUS
10
-0.008166
20
0.008263
30
0.0
11
-0.003847
21
0.007199
31
0.0
0
LINE
8
0
6
CONTINUOUS
10
-0.016556
20
0.025349
30
0.0
11
-0.012991
21
0.018011
31
0.0
0
LINE
8
0
6
CONTINUOUS
10
0.010857
20
0.010080
30
0.0
11
0.013003
21
0.018011
31
0.0
0
LINE
8
0
6
CONTINUOUS
10
0.008178
20
0.008263
30
0.0
11
0.010857
21
0.010080
31
0.0
0
LINE
8
0
6
CONTINUOUS
10
-0.013636
20
0.029503
30
0.0
11
-0.019307
21
0.028481
31
0.0
0
LINE
8
0
6
CONTINUOUS
10
-0.019307
20
0.028481
30
0.0
11
-0.016556
21
0.025349
31
0.0
0
LINE
8
0
6
CONTINUOUS
10
-0.000007
20
0.006908
30
0.0
11
0.003859
21
0.007199
31
0.0
0
LINE
8
0
6
CONTINUOUS
10
-0.010845
20
0.010080
30
0.0
11
-0.008166
21
0.008263
31
0.0
0
LINE
8
0
6
CONTINUOUS
10
-0.012991
20
0.018011
30
0.0
11
-0.010845
21
0.010080
31
0.0
0
LINE
8
0
6
CONTINUOUS
10
-0.006903
20
0.029601
30
0.0
11
-0.013636
21
0.029503
31
0.0
0
LINE
8
0
6
CONTINUOUS
10
0.000006
20
0.029620
30
0.0
11
-0.006903
21
0.029601
31
0.0
0
LINE
8
0
6
CONTINUOUS
10
-0.015646
20
0.082143
30
0.0
11
-0.014290
21
0.083362
31
0.0
0
LINE
8
0
6
CONTINUOUS
10
-0.007607
20
0.059562
30
0.0
11
-0.008170
21
0.058241
31
0.0
0
LINE
8
0
6
CONTINUOUS
10
-0.031985
20
0.062196
30
0.0
11
-0.032076
21
0.061187
31
0.0
0
LINE
8
0
6
CONTINUOUS
10
-0.025829
20
0.059148
30
0.0
11
-0.025948
21
0.057819
31
0.0
0
LINE
8
0
6
CONTINUOUS
10
-0.019673
20
0.056459
30
0.0
11
-0.019792
21
0.055296
31
0.0
0
LINE
8
0
6
CONTINUOUS
10
-0.044298
20
0.068174
30
0.0
11
-0.044326
21
0.067850
31
0.0
0
LINE
8
0
6
CONTINUOUS
10
-0.044289
20
0.053322
30
0.0
11
-0.042666
21
0.052242
31
0.0
0
LINE
8
0
6
CONTINUOUS
10
-0.046287
20
0.053335
30
0.0
11
-0.046663
21
0.052269
31
0.0
0
LINE
8
0
6
CONTINUOUS
10
0.014437
20
0.064094
30
0.0
11
0.015929
21
0.065240
31
0.0
0
LINE
8
0
6
CONTINUOUS
10
0.015929
20
0.065240
30
0.0
11
0.017985
21
0.065116
31
0.0
0
LINE
8
0
6
CONTINUOUS
10
0.028547
20
0.062213
30
0.0
11
0.030443
21
0.061932
31
0.0
0
LINE
8
0
6
CONTINUOUS
10
0.017283
20
0.075955
30
0.0
11
0.019311
21
0.076096
31
0.0
0
LINE
8
0
6
CONTINUOUS
10
0.019311
20
0.076096
30
0.0
11
0.019405
21
0.076100
31
0.0
0
LINE
8
0
6
CONTINUOUS
10
0.009107
20
0.054013
30
0.0
11
0.010078
21
0.054405
31
0.0
0
LINE
8
0
6
CONTINUOUS
10
0.010078
20
0.054405
30
0.0
11
0.011974
21
0.053921
31
0.0
0
LINE
8
0
6
CONTINUOUS
10
0.014457
20
0.055808
30
0.0
11
0.015834
21
0.056468
31
0.0
0
LINE
8
0
6
CONTINUOUS
10
0.016234
20
0.056652
30
0.0
11
0.018130
21
0.056308
31
0.0
0
LINE
8
0
6
CONTINUOUS
10
0.027568
20
0.053905
30
0.0
11
0.029566
21
0.054625
31
0.0
0
LINE
8
0
6
CONTINUOUS
10
0.016134
20
0.036904
30
0.0
11
0.016003
21
0.036553
31
0.0
0
LINE
8
0
6
CONTINUOUS
10
0.003842
20
0.040980
30
0.0
11
0.003466
21
0.039937
31
0.0
0
LINE
8
0
6
CONTINUOUS
10
0.003842
20
0.040980
30
0.0
11
0.005418
21
0.041317
31
0.0
0
LINE
8
0
6
CONTINUOUS
10
0.006029
20
0.041336
30
0.0
11
0.007463
21
0.040795
31
0.0
0
LINE
8
0
6
CONTINUOUS
10
0.015184
20
0.041174
30
0.0
11
0.014808
21
0.040140
31
0.0
0
LINE
8
0
6
CONTINUOUS
10
0.015184
20
0.041174
30
0.0
11
0.017182
21
0.041721
31
0.0
0
LINE
8
0
6
CONTINUOUS
10
0.017182
20
0.041721
30
0.0
11
0.018805
21
0.041232
31
0.0
0
LINE
8
0
6
CONTINUOUS
10
0.003927
20
0.036942
30
0.0
11
0.003795
21
0.036583
31
0.0
0
LINE
8
0
6
CONTINUOUS
10
0.004170
20
0.037584
30
0.0
11
0.003927
21
0.036942
31
0.0
0
LINE
8
0
6
CONTINUOUS
10
0.006341
20
0.037936
30
0.0
11
0.007463
21
0.037535
31
0.0
0
LINE
8
0
6
CONTINUOUS
10
0.016379
20
0.037589
30
0.0
11
0.016134
21
0.036904
31
0.0
0
LINE
8
0
6
CONTINUOUS
10
0.016379
20
0.037589
30
0.0
11
0.018377
21
0.038133
31
0.0
0
LINE
8
0
6
CONTINUOUS
10
0.006169
20
0.038002
30
0.0
11
0.006341
21
0.037936
31
0.0
0
LINE
8
0
6
CONTINUOUS
10
0.027624
20
0.038717
30
0.0
11
0.029246
21
0.039573
31
0.0
0
LINE
8
0
6
CONTINUOUS
10
0.003083
20
0.047600
30
0.0
11
0.002808
21
0.046830
31
0.0
0
LINE
8
0
6
CONTINUOUS
10
0.012456
20
0.047699
30
0.0
11
0.012417
21
0.047595
31
0.0
0
LINE
8
0
6
CONTINUOUS
10
0.005840
20
0.041411
30
0.0
11
0.006029
21
0.041336
31
0.0
0
LINE
8
0
6
CONTINUOUS
10
0.003513
20
0.044432
30
0.0
11
0.003137
21
0.043376
31
0.0
0
LINE
8
0
6
CONTINUOUS
10
0.013988
20
0.044888
30
0.0
11
0.015987
21
0.045450
31
0.0
0
LINE
8
0
6
CONTINUOUS
10
0.015987
20
0.045450
30
0.0
11
0.017609
21
0.044939
31
0.0
0
LINE
8
0
6
CONTINUOUS
10
0.025422
20
0.046710
30
0.0
11
0.026434
21
0.047276
31
0.0
0
LINE
8
0
6
CONTINUOUS
10
0.027165
20
0.047252
30
0.0
11
0.028432
21
0.047221
31
0.0
0
LINE
8
0
6
CONTINUOUS
10
0.036541
20
0.044819
30
0.0
11
0.038105
21
0.045726
31
0.0
0
LINE
8
0
6
CONTINUOUS
10
0.003184
20
0.047929
30
0.0
11
0.003083
21
0.047600
31
0.0
0
LINE
8
0
6
CONTINUOUS
10
0.012518
20
0.047899
30
0.0
11
0.012456
21
0.047699
31
0.0
0
LINE
8
0
6
CONTINUOUS
10
0.012793
20
0.048782
30
0.0
11
0.012518
21
0.047899
31
0.0
0
LINE
8
0
6
CONTINUOUS
10
0.012793
20
0.048782
30
0.0
11
0.013128
21
0.048862
31
0.0
0
LINE
8
0
6
CONTINUOUS
10
0.013128
20
0.048862
30
0.0
11
0.014791
21
0.049396
31
0.0
0
LINE
8
0
6
CONTINUOUS
10
0.004009
20
0.059783
30
0.0
11
0.006064
21
0.059506
31
0.0
0
LINE
8
0
6
CONTINUOUS
10
0.022390
20
0.059394
30
0.0
11
0.024286
21
0.058987
31
0.0
0
LINE
8
0
6
CONTINUOUS
10
0.026769
20
0.061179
30
0.0
11
0.026872
21
0.061232
31
0.0
0
LINE
8
0
6
CONTINUOUS
10
0.026872
20
0.061232
30
0.0
11
0.027304
21
0.061493
31
0.0
0
LINE
8
0
6
CONTINUOUS
10
0.036449
20
0.057436
30
0.0
11
0.036954
21
0.057624
31
0.0
0
LINE
8
0
6
CONTINUOUS
10
0.036954
20
0.057624
30
0.0
11
0.038576
21
0.057057
31
0.0
0
LINE
8
0
6
CONTINUOUS
10
0.042343
20
0.060039
30
0.0
11
0.044341
21
0.060875
31
0.0
0
LINE
8
0
6
CONTINUOUS
10
0.010938
20
0.071988
30
0.0
11
0.013060
21
0.071992
31
0.0
0
LINE
8
0
6
CONTINUOUS
10
0.021889
20
0.068389
30
0.0
11
0.023397
21
0.068286
31
0.0
0
LINE
8
0
6
CONTINUOUS
10
0.026357
20
0.070357
30
0.0
11
0.026427
21
0.070412
31
0.0
0
LINE
8
0
6
CONTINUOUS
10
0.026427
20
0.070412
30
0.0
11
0.027417
21
0.071284
31
0.0
0
LINE
8
0
6
CONTINUOUS
10
0.039082
20
0.067242
30
0.0
11
0.040859
21
0.068269
31
0.0
0
LINE
8
0
6
CONTINUOUS
10
0.017574
20
0.034056
30
0.0
11
0.017486
21
0.033831
31
0.0
0
LINE
8
0
6
CONTINUOUS
10
0.034309
20
0.049897
30
0.0
11
0.036307
21
0.049826
31
0.0
0
LINE
8
0
6
CONTINUOUS
10
0.004378
20
0.034047
30
0.0
11
0.004123
21
0.033391
31
0.0
0
LINE
8
0
6
CONTINUOUS
10
0.004499
20
0.034347
30
0.0
11
0.004378
21
0.034047
31
0.0
0
LINE
8
0
6
CONTINUOUS
10
0.006497
20
0.034722
30
0.0
11
0.006856
21
0.034599
31
0.0
0
LINE
8
0
6
CONTINUOUS
10
-0.001753
20
0.064933
30
0.0
11
-0.000000
21
0.064824
31
0.0
0
LINE
8
0
6
CONTINUOUS
10
-0.019527
20
0.065278
30
0.0
11
-0.019665
21
0.064974
31
0.0
0
LINE
8
0
6
CONTINUOUS
10
-0.020948
20
0.076205
30
0.0
11
-0.021929
21
0.074981
31
0.0
0
LINE
8
0
6
CONTINUOUS
10
-0.031448
20
0.071812
30
0.0
11
-0.031935
21
0.070662
31
0.0
0
LINE
8
0
6
CONTINUOUS
10
-0.033141
20
0.038873
30
0.0
11
-0.033163
21
0.038815
31
0.0
0
LINE
8
0
6
CONTINUOUS
10
-0.032171
20
0.039746
30
0.0
11
-0.030789
21
0.039784
31
0.0
0
LINE
8
0
6
CONTINUOUS
10
-0.032787
20
0.039731
30
0.0
11
-0.032171
21
0.039746
31
0.0
0
LINE
8
0
6
CONTINUOUS
10
-0.027977
20
0.047509
30
0.0
11
-0.027350
21
0.047149
31
0.0
0
LINE
8
0
6
CONTINUOUS
10
-0.029975
20
0.047460
30
0.0
11
-0.030351
21
0.046478
31
0.0
0
LINE
8
0
6
CONTINUOUS
10
-0.029945
20
0.043510
30
0.0
11
-0.028323
21
0.042603
31
0.0
0
LINE
8
0
6
CONTINUOUS
10
-0.031944
20
0.043446
30
0.0
11
-0.032318
21
0.042480
31
0.0
0
LINE
8
0
6
CONTINUOUS
10
-0.041646
20
0.045941
30
0.0
11
-0.042022
21
0.044966
31
0.0
0
LINE
8
0
6
CONTINUOUS
10
-0.008257
20
0.068313
30
0.0
11
-0.008578
21
0.067879
31
0.0
0
LINE
8
0
6
CONTINUOUS
10
-0.025488
20
0.068375
30
0.0
11
-0.026050
21
0.067020
31
0.0
0
LINE
8
0
6
CONTINUOUS
10
-0.027293
20
0.080110
30
0.0
11
-0.027809
21
0.079412
31
0.0
0
ENDSEC
0
EOF
