999
unknown String-ID: 20550
0
SECTION
2
HEADER
9
$ACADVER
1
AC1009
9
$DWGCODEPAGE
3
unknown String-ID: 20561
0
ENDSEC
0
SECTION
2
TABLES
0
TABLE
2
LAYER
70
1
0
LAYER
2
0
70
0
62
7
6
CONTINUOUS
0
ENDTAB
0
ENDSEC
0
SECTION
2
ENTITIES
0
LINE
8
0
6
CONTINUOUS
10
-0.012753
20
-0.091876
30
0.0
11
-0.000000
21
-0.092533
31
0.0
0
LINE
8
0
6
CONTINUOUS
10
-0.025502
20
-0.089776
30
0.0
11
-0.012753
21
-0.091876
31
0.0
0
LINE
8
0
6
CONTINUOUS
10
-0.034449
20
-0.086953
30
0.0
11
-0.025502
21
-0.089776
31
0.0
0
LINE
8
0
6
CONTINUOUS
10
-0.045616
20
-0.077885
30
0.0
11
-0.040485
21
-0.083163
31
0.0
0
LINE
8
0
6
CONTINUOUS
10
-0.040485
20
-0.083163
30
0.0
11
-0.034449
21
-0.086953
31
0.0
0
LINE
8
0
6
CONTINUOUS
10
-0.041402
20
-0.006052
30
0.0
11
-0.045164
21
-0.009255
31
0.0
0
LINE
8
0
6
CONTINUOUS
10
-0.006578
20
0.077165
30
0.0
11
-0.009555
21
0.075524
31
0.0
0
LINE
8
0
6
CONTINUOUS
10
-0.011960
20
0.073317
30
0.0
11
-0.012283
21
0.072941
31
0.0
0
LINE
8
0
6
CONTINUOUS
10
-0.013609
20
0.064196
30
0.0
11
-0.015138
21
0.046834
31
0.0
0
LINE
8
0
6
CONTINUOUS
10
-0.013533
20
0.064757
30
0.0
11
-0.013609
21
0.064196
31
0.0
0
LINE
8
0
6
CONTINUOUS
10
-0.015138
20
0.046834
30
0.0
11
-0.016272
21
0.032991
31
0.0
0
LINE
8
0
6
CONTINUOUS
10
-0.016272
20
0.032991
30
0.0
11
-0.017344
21
0.022094
31
0.0
0
LINE
8
0
6
CONTINUOUS
10
-0.017344
20
0.022094
30
0.0
11
-0.018371
21
0.014399
31
0.0
0
LINE
8
0
6
CONTINUOUS
10
-0.020193
20
0.009976
30
0.0
11
-0.024213
21
0.004561
31
0.0
0
LINE
8
0
6
CONTINUOUS
10
-0.023235
20
0.005528
30
0.0
11
-0.027432
21
0.002082
31
0.0
0
LINE
8
0
6
CONTINUOUS
10
-0.052854
20
-0.025527
30
0.0
11
-0.054015
21
-0.033874
31
0.0
0
LINE
8
0
6
CONTINUOUS
10
-0.050534
20
-0.017666
30
0.0
11
-0.052854
21
-0.025527
31
0.0
0
LINE
8
0
6
CONTINUOUS
10
-0.024213
20
0.004561
30
0.0
11
-0.028986
21
0.001106
31
0.0
0
LINE
8
0
6
CONTINUOUS
10
-0.028986
20
0.001106
30
0.0
11
-0.037496
21
-0.003617
31
0.0
0
LINE
8
0
6
CONTINUOUS
10
-0.018179
20
0.015338
30
0.0
11
-0.020193
21
0.009976
31
0.0
0
LINE
8
0
6
CONTINUOUS
10
-0.049007
20
-0.071717
30
0.0
11
-0.045616
21
-0.077885
31
0.0
0
LINE
8
0
6
CONTINUOUS
10
-0.049397
20
-0.070962
30
0.0
11
-0.049007
21
-0.071717
31
0.0
0
LINE
8
0
6
CONTINUOUS
10
-0.053906
20
-0.046944
30
0.0
11
-0.053321
21
-0.054149
31
0.0
0
LINE
8
0
6
CONTINUOUS
10
-0.054211
20
-0.042148
30
0.0
11
-0.053906
21
-0.046944
31
0.0
0
LINE
8
0
6
CONTINUOUS
10
-0.003139
20
0.078196
30
0.0
11
-0.006578
21
0.077165
31
0.0
0
LINE
8
0
6
CONTINUOUS
10
0.000001
20
0.078546
30
0.0
11
-0.003139
21
0.078196
31
0.0
0
LINE
8
0
6
CONTINUOUS
10
-0.012290
20
0.072869
30
0.0
11
-0.013533
21
0.064757
31
0.0
0
LINE
8
0
6
CONTINUOUS
10
-0.009555
20
0.075524
30
0.0
11
-0.011960
21
0.073317
31
0.0
0
LINE
8
0
6
CONTINUOUS
10
-0.045164
20
-0.009255
30
0.0
11
-0.048084
21
-0.012998
31
0.0
0
LINE
8
0
6
CONTINUOUS
10
-0.048084
20
-0.012998
30
0.0
11
-0.050534
21
-0.017666
31
0.0
0
LINE
8
0
6
CONTINUOUS
10
-0.037496
20
-0.003617
30
0.0
11
-0.041402
21
-0.006052
31
0.0
0
LINE
8
0
6
CONTINUOUS
10
-0.054015
20
-0.033874
30
0.0
11
-0.054239
21
-0.041738
31
0.0
0
LINE
8
0
6
CONTINUOUS
10
-0.051293
20
-0.064706
30
0.0
11
-0.049397
21
-0.070962
31
0.0
0
LINE
8
0
6
CONTINUOUS
10
-0.052015
20
-0.061013
30
0.0
11
-0.051319
21
-0.064574
31
0.0
0
LINE
8
0
6
CONTINUOUS
10
-0.053321
20
-0.054149
30
0.0
11
-0.052652
21
-0.057913
31
0.0
0
LINE
8
0
6
CONTINUOUS
10
-0.053321
20
-0.054149
30
0.0
11
-0.052015
21
-0.061013
31
0.0
0
LINE
8
0
6
CONTINUOUS
10
-0.052627
20
-0.058052
30
0.0
11
-0.051293
21
-0.064706
31
0.0
0
LINE
8
0
6
CONTINUOUS
10
-0.052652
20
-0.057913
30
0.0
11
-0.052627
21
-0.058052
31
0.0
0
LINE
8
0
6
CONTINUOUS
10
-0.000000
20
-0.092533
30
0.0
11
0.012752
21
-0.091876
31
0.0
0
LINE
8
0
6
CONTINUOUS
10
0.012752
20
-0.091876
30
0.0
11
0.025501
21
-0.089777
31
0.0
0
LINE
8
0
6
CONTINUOUS
10
0.025501
20
-0.089777
30
0.0
11
0.034448
21
-0.086953
31
0.0
0
LINE
8
0
6
CONTINUOUS
10
0.040484
20
-0.083163
30
0.0
11
0.045615
21
-0.077886
31
0.0
0
LINE
8
0
6
CONTINUOUS
10
0.034448
20
-0.086953
30
0.0
11
0.040484
21
-0.083163
31
0.0
0
LINE
8
0
6
CONTINUOUS
10
0.045165
20
-0.009256
30
0.0
11
0.041402
21
-0.006052
31
0.0
0
LINE
8
0
6
CONTINUOUS
10
0.009556
20
0.075524
30
0.0
11
0.006579
21
0.077165
31
0.0
0
LINE
8
0
6
CONTINUOUS
10
0.012284
20
0.072941
30
0.0
11
0.011960
21
0.073316
31
0.0
0
LINE
8
0
6
CONTINUOUS
10
0.013610
20
0.064195
30
0.0
11
0.013534
21
0.064757
31
0.0
0
LINE
8
0
6
CONTINUOUS
10
0.015139
20
0.046834
30
0.0
11
0.013610
21
0.064195
31
0.0
0
LINE
8
0
6
CONTINUOUS
10
0.016273
20
0.032991
30
0.0
11
0.015139
21
0.046834
31
0.0
0
LINE
8
0
6
CONTINUOUS
10
0.017345
20
0.022093
30
0.0
11
0.016273
21
0.032991
31
0.0
0
LINE
8
0
6
CONTINUOUS
10
0.018372
20
0.014399
30
0.0
11
0.017345
21
0.022093
31
0.0
0
LINE
8
0
6
CONTINUOUS
10
0.024213
20
0.004561
30
0.0
11
0.020193
21
0.009975
31
0.0
0
LINE
8
0
6
CONTINUOUS
10
0.027433
20
0.002081
30
0.0
11
0.023236
21
0.005527
31
0.0
0
LINE
8
0
6
CONTINUOUS
10
0.054015
20
-0.033875
30
0.0
11
0.052854
21
-0.025528
31
0.0
0
LINE
8
0
6
CONTINUOUS
10
0.052854
20
-0.025528
30
0.0
11
0.050534
21
-0.017667
31
0.0
0
LINE
8
0
6
CONTINUOUS
10
0.028986
20
0.001105
30
0.0
11
0.024213
21
0.004561
31
0.0
0
LINE
8
0
6
CONTINUOUS
10
0.037496
20
-0.003618
30
0.0
11
0.028986
21
0.001105
31
0.0
0
LINE
8
0
6
CONTINUOUS
10
0.020193
20
0.009975
30
0.0
11
0.018179
21
0.015337
31
0.0
0
LINE
8
0
6
CONTINUOUS
10
0.049006
20
-0.071718
30
0.0
11
0.049396
21
-0.070963
31
0.0
0
LINE
8
0
6
CONTINUOUS
10
0.045615
20
-0.077886
30
0.0
11
0.049006
21
-0.071718
31
0.0
0
LINE
8
0
6
CONTINUOUS
10
0.053906
20
-0.046945
30
0.0
11
0.054211
21
-0.042150
31
0.0
0
LINE
8
0
6
CONTINUOUS
10
0.053321
20
-0.054150
30
0.0
11
0.053906
21
-0.046945
31
0.0
0
LINE
8
0
6
CONTINUOUS
10
0.006579
20
0.077165
30
0.0
11
0.003140
21
0.078196
31
0.0
0
LINE
8
0
6
CONTINUOUS
10
0.003140
20
0.078196
30
0.0
11
0.000001
21
0.078546
31
0.0
0
LINE
8
0
6
CONTINUOUS
10
0.013534
20
0.064757
30
0.0
11
0.012291
21
0.072869
31
0.0
0
LINE
8
0
6
CONTINUOUS
10
0.011960
20
0.073316
30
0.0
11
0.009556
21
0.075524
31
0.0
0
LINE
8
0
6
CONTINUOUS
10
0.048084
20
-0.012999
30
0.0
11
0.045165
21
-0.009256
31
0.0
0
LINE
8
0
6
CONTINUOUS
10
0.050534
20
-0.017667
30
0.0
11
0.048084
21
-0.012999
31
0.0
0
LINE
8
0
6
CONTINUOUS
10
0.041402
20
-0.006052
30
0.0
11
0.037496
21
-0.003618
31
0.0
0
LINE
8
0
6
CONTINUOUS
10
0.054239
20
-0.041739
30
0.0
11
0.054015
21
-0.033875
31
0.0
0
LINE
8
0
6
CONTINUOUS
10
0.049396
20
-0.070963
30
0.0
11
0.051293
21
-0.064707
31
0.0
0
LINE
8
0
6
CONTINUOUS
10
0.051319
20
-0.064575
30
0.0
11
0.052014
21
-0.061014
31
0.0
0
LINE
8
0
6
CONTINUOUS
10
0.052651
20
-0.057914
30
0.0
11
0.053321
21
-0.054150
31
0.0
0
LINE
8
0
6
CONTINUOUS
10
0.052014
20
-0.061014
30
0.0
11
0.053321
21
-0.054150
31
0.0
0
LINE
8
0
6
CONTINUOUS
10
0.052627
20
-0.058053
30
0.0
11
0.052651
21
-0.057914
31
0.0
0
LINE
8
0
6
CONTINUOUS
10
0.051293
20
-0.064707
30
0.0
11
0.052627
21
-0.058053
31
0.0
0
LINE
8
0
6
CONTINUOUS
10
-0.010201
20
0.083485
30
0.0
11
-0.011228
21
0.073988
31
0.0
0
LINE
8
0
6
CONTINUOUS
10
0.011229
20
0.073988
30
0.0
11
0.010202
21
0.083485
31
0.0
0
LINE
8
0
6
CONTINUOUS
10
0.008812
20
0.088132
30
0.0
11
0.007195
21
0.089955
31
0.0
0
LINE
8
0
6
CONTINUOUS
10
-0.008811
20
0.088132
30
0.0
11
-0.009828
21
0.086010
31
0.0
0
LINE
8
0
6
CONTINUOUS
10
0.000001
20
0.092533
30
0.0
11
-0.002633
21
0.092233
31
0.0
0
LINE
8
0
6
CONTINUOUS
10
0.007195
20
0.089955
30
0.0
11
0.005088
21
0.091354
31
0.0
0
LINE
8
0
6
CONTINUOUS
10
-0.002633
20
0.092233
30
0.0
11
-0.005087
21
0.091354
31
0.0
0
LINE
8
0
6
CONTINUOUS
10
-0.010174
20
0.083731
30
0.0
11
-0.010201
21
0.083485
31
0.0
0
LINE
8
0
6
CONTINUOUS
10
-0.009828
20
0.086010
30
0.0
11
-0.010174
21
0.083731
31
0.0
0
LINE
8
0
6
CONTINUOUS
10
0.005088
20
0.091354
30
0.0
11
0.002634
21
0.092233
31
0.0
0
LINE
8
0
6
CONTINUOUS
10
0.010202
20
0.083485
30
0.0
11
0.010175
21
0.083731
31
0.0
0
LINE
8
0
6
CONTINUOUS
10
0.010175
20
0.083731
30
0.0
11
0.009829
21
0.086009
31
0.0
0
LINE
8
0
6
CONTINUOUS
10
-0.005087
20
0.091354
30
0.0
11
-0.007194
21
0.089955
31
0.0
0
LINE
8
0
6
CONTINUOUS
10
0.002634
20
0.092233
30
0.0
11
0.000001
21
0.092533
31
0.0
0
LINE
8
0
6
CONTINUOUS
10
0.009829
20
0.086009
30
0.0
11
0.008812
21
0.088132
31
0.0
0
LINE
8
0
6
CONTINUOUS
10
-0.007194
20
0.089955
30
0.0
11
-0.008811
21
0.088132
31
0.0
0
ENDSEC
0
EOF
