999
unknown String-ID: 20550
0
SECTION
2
HEADER
9
$ACADVER
1
AC1009
9
$DWGCODEPAGE
3
unknown String-ID: 20561
0
ENDSEC
0
SECTION
2
TABLES
0
TABLE
2
LAYER
70
1
0
LAYER
2
0
70
0
62
7
6
CONTINUOUS
0
ENDTAB
0
ENDSEC
0
SECTION
2
ENTITIES
0
LINE
8
0
6
CONTINUOUS
10
0.031793
20
0.040814
30
0.0
11
0.029948
21
0.039537
31
0.0
0
LINE
8
0
6
CONTINUOUS
10
0.031111
20
0.039236
30
0.0
11
0.032902
21
0.040476
31
0.0
0
LINE
8
0
6
CONTINUOUS
10
0.033964
20
0.042317
30
0.0
11
0.031793
21
0.040814
31
0.0
0
LINE
8
0
6
CONTINUOUS
10
0.032902
20
0.040476
30
0.0
11
0.035011
21
0.041935
31
0.0
0
LINE
8
0
6
CONTINUOUS
10
0.036430
20
0.044024
30
0.0
11
0.033964
21
0.042317
31
0.0
0
LINE
8
0
6
CONTINUOUS
10
0.035011
20
0.041935
30
0.0
11
0.037405
21
0.043592
31
0.0
0
LINE
8
0
6
CONTINUOUS
10
0.039162
20
0.045914
30
0.0
11
0.036430
21
0.044024
31
0.0
0
LINE
8
0
6
CONTINUOUS
10
0.037405
20
0.043592
30
0.0
11
0.040057
21
0.045428
31
0.0
0
LINE
8
0
6
CONTINUOUS
10
0.042128
20
0.047967
30
0.0
11
0.039162
21
0.045914
31
0.0
0
LINE
8
0
6
CONTINUOUS
10
0.040057
20
0.045428
30
0.0
11
0.042937
21
0.047421
31
0.0
0
LINE
8
0
6
CONTINUOUS
10
0.045298
20
0.050161
30
0.0
11
0.042128
21
0.047967
31
0.0
0
LINE
8
0
6
CONTINUOUS
10
0.042937
20
0.047421
30
0.0
11
0.046013
21
0.049550
31
0.0
0
LINE
8
0
6
CONTINUOUS
10
0.048640
20
0.052475
30
0.0
11
0.045298
21
0.050161
31
0.0
0
LINE
8
0
6
CONTINUOUS
10
0.046013
20
0.049550
30
0.0
11
0.049258
21
0.051796
31
0.0
0
LINE
8
0
6
CONTINUOUS
10
0.052123
20
0.054885
30
0.0
11
0.048640
21
0.052475
31
0.0
0
LINE
8
0
6
CONTINUOUS
10
0.049258
20
0.051796
30
0.0
11
0.052641
21
0.054137
31
0.0
0
LINE
8
0
6
CONTINUOUS
10
0.055606
20
0.057296
30
0.0
11
0.052123
21
0.054885
31
0.0
0
LINE
8
0
6
CONTINUOUS
10
0.052641
20
0.054137
30
0.0
11
0.056024
21
0.056478
31
0.0
0
LINE
8
0
6
CONTINUOUS
10
0.058949
20
0.059609
30
0.0
11
0.055606
21
0.057296
31
0.0
0
LINE
8
0
6
CONTINUOUS
10
0.056024
20
0.056478
30
0.0
11
0.059268
21
0.058724
31
0.0
0
LINE
8
0
6
CONTINUOUS
10
0.060205
20
0.060479
30
0.0
11
0.058949
21
0.059609
31
0.0
0
LINE
8
0
6
CONTINUOUS
10
0.059268
20
0.058724
30
0.0
11
0.062345
21
0.060854
31
0.0
0
LINE
8
0
6
CONTINUOUS
10
0.065085
20
0.063856
30
0.0
11
0.063486
21
0.062749
31
0.0
0
LINE
8
0
6
CONTINUOUS
10
0.062345
20
0.060854
30
0.0
11
0.065224
21
0.062846
31
0.0
0
LINE
8
0
6
CONTINUOUS
10
0.067816
20
0.065746
30
0.0
11
0.065085
21
0.063856
31
0.0
0
LINE
8
0
6
CONTINUOUS
10
0.065224
20
0.062846
30
0.0
11
0.067876
21
0.064682
31
0.0
0
LINE
8
0
6
CONTINUOUS
10
0.068718
20
0.066370
30
0.0
11
0.067816
21
0.065746
31
0.0
0
LINE
8
0
6
CONTINUOUS
10
0.067876
20
0.064682
30
0.0
11
0.070249
21
0.066324
31
0.0
0
LINE
8
0
6
CONTINUOUS
10
0.070271
20
0.066339
30
0.0
11
0.072379
21
0.067798
31
0.0
0
LINE
8
0
6
CONTINUOUS
10
0.074299
20
0.070233
30
0.0
11
0.072454
21
0.068956
31
0.0
0
LINE
8
0
6
CONTINUOUS
10
0.072379
20
0.067798
30
0.0
11
0.074171
21
0.069038
31
0.0
0
LINE
8
0
6
CONTINUOUS
10
0.074171
20
0.069038
30
0.0
11
0.075616
21
0.070038
31
0.0
0
LINE
8
0
6
CONTINUOUS
10
0.075616
20
0.070038
30
0.0
11
0.076685
21
0.070778
31
0.0
0
LINE
8
0
6
CONTINUOUS
10
0.076685
20
0.070778
30
0.0
11
0.077349
21
0.071237
31
0.0
0
LINE
8
0
6
CONTINUOUS
10
0.029666
20
0.038236
30
0.0
11
0.031111
21
0.039236
31
0.0
0
LINE
8
0
6
CONTINUOUS
10
0.028597
20
0.037496
30
0.0
11
0.029666
21
0.038236
31
0.0
0
LINE
8
0
6
CONTINUOUS
10
0.027934
20
0.037037
30
0.0
11
0.028597
21
0.037496
31
0.0
0
LINE
8
0
6
CONTINUOUS
10
0.077807
20
0.072661
30
0.0
11
0.077572
21
0.072499
31
0.0
0
LINE
8
0
6
CONTINUOUS
10
0.077576
20
0.071395
30
0.0
11
0.077807
21
0.072661
31
0.0
0
LINE
8
0
6
CONTINUOUS
10
0.077349
20
0.071237
30
0.0
11
0.077576
21
0.071395
31
0.0
0
LINE
8
0
6
CONTINUOUS
10
0.027128
20
0.036984
30
0.0
11
0.027706
21
0.036879
31
0.0
0
LINE
8
0
6
CONTINUOUS
10
0.027706
20
0.036879
30
0.0
11
0.027934
21
0.037037
31
0.0
0
LINE
8
0
6
CONTINUOUS
10
0.072967
20
0.067734
30
0.0
11
0.073148
21
0.067858
31
0.0
0
LINE
8
0
6
CONTINUOUS
10
0.073148
20
0.067858
30
0.0
11
0.073330
21
0.068860
31
0.0
0
LINE
8
0
6
CONTINUOUS
10
0.072443
20
0.067370
30
0.0
11
0.072967
21
0.067734
31
0.0
0
LINE
8
0
6
CONTINUOUS
10
0.071596
20
0.066785
30
0.0
11
0.072443
21
0.067370
31
0.0
0
LINE
8
0
6
CONTINUOUS
10
0.070453
20
0.065993
30
0.0
11
0.071596
21
0.066785
31
0.0
0
LINE
8
0
6
CONTINUOUS
10
0.069035
20
0.065012
30
0.0
11
0.070453
21
0.065993
31
0.0
0
LINE
8
0
6
CONTINUOUS
10
0.065472
20
0.062546
30
0.0
11
0.067367
21
0.063858
31
0.0
0
LINE
8
0
6
CONTINUOUS
10
0.063373
20
0.061093
30
0.0
11
0.065472
21
0.062546
31
0.0
0
LINE
8
0
6
CONTINUOUS
10
0.061331
20
0.059680
30
0.0
11
0.063373
21
0.061093
31
0.0
0
LINE
8
0
6
CONTINUOUS
10
0.058660
20
0.057831
30
0.0
11
0.058997
21
0.058065
31
0.0
0
LINE
8
0
6
CONTINUOUS
10
0.056092
20
0.056054
30
0.0
11
0.058660
21
0.057831
31
0.0
0
LINE
8
0
6
CONTINUOUS
10
0.053415
20
0.054201
30
0.0
11
0.056092
21
0.056054
31
0.0
0
LINE
8
0
6
CONTINUOUS
10
0.050738
20
0.052349
30
0.0
11
0.053415
21
0.054201
31
0.0
0
LINE
8
0
6
CONTINUOUS
10
0.048170
20
0.050571
30
0.0
11
0.050738
21
0.052349
31
0.0
0
LINE
8
0
6
CONTINUOUS
10
0.047227
20
0.049919
30
0.0
11
0.048170
21
0.050571
31
0.0
0
LINE
8
0
6
CONTINUOUS
10
0.044282
20
0.047880
30
0.0
11
0.044979
21
0.048363
31
0.0
0
LINE
8
0
6
CONTINUOUS
10
0.035234
20
0.041618
30
0.0
11
0.036377
21
0.042409
31
0.0
0
LINE
8
0
6
CONTINUOUS
10
0.034388
20
0.041032
30
0.0
11
0.035234
21
0.041618
31
0.0
0
LINE
8
0
6
CONTINUOUS
10
0.033863
20
0.040669
30
0.0
11
0.034388
21
0.041032
31
0.0
0
LINE
8
0
6
CONTINUOUS
10
0.033683
20
0.040544
30
0.0
11
0.033863
21
0.040669
31
0.0
0
LINE
8
0
6
CONTINUOUS
10
0.039487
20
0.044355
30
0.0
11
0.039782
21
0.044560
31
0.0
0
LINE
8
0
6
CONTINUOUS
10
0.074929
20
0.069005
30
0.0
11
0.076096
21
0.069813
31
0.0
0
LINE
8
0
6
CONTINUOUS
10
0.063588
20
0.059247
30
0.0
11
0.064198
21
0.059670
31
0.0
0
LINE
8
0
6
CONTINUOUS
10
0.064198
20
0.059670
30
0.0
11
0.063262
21
0.061021
31
0.0
0
LINE
8
0
6
CONTINUOUS
10
0.062367
20
0.058401
30
0.0
11
0.063588
21
0.059247
31
0.0
0
LINE
8
0
6
CONTINUOUS
10
0.052115
20
0.052741
30
0.0
11
0.052726
21
0.053164
31
0.0
0
LINE
8
0
6
CONTINUOUS
10
0.044670
20
0.046109
30
0.0
11
0.045891
21
0.046954
31
0.0
0
LINE
8
0
6
CONTINUOUS
10
0.045891
20
0.046954
30
0.0
11
0.046501
21
0.047377
31
0.0
0
LINE
8
0
6
CONTINUOUS
10
0.046501
20
0.047377
30
0.0
11
0.045886
21
0.048266
31
0.0
0
LINE
8
0
6
CONTINUOUS
10
0.072297
20
0.069939
30
0.0
11
0.073784
21
0.070969
31
0.0
0
LINE
8
0
6
CONTINUOUS
10
0.073784
20
0.070969
30
0.0
11
0.072455
21
0.072887
31
0.0
0
LINE
8
0
6
CONTINUOUS
10
0.070804
20
0.068905
30
0.0
11
0.072297
21
0.069939
31
0.0
0
LINE
8
0
6
CONTINUOUS
10
0.064327
20
0.064270
30
0.0
11
0.065597
21
0.065150
31
0.0
0
LINE
8
0
6
CONTINUOUS
10
0.065597
20
0.065150
30
0.0
11
0.064339
21
0.066967
31
0.0
0
LINE
8
0
6
CONTINUOUS
10
0.062687
20
0.063134
30
0.0
11
0.064327
21
0.064270
31
0.0
0
LINE
8
0
6
CONTINUOUS
10
0.078980
20
0.073434
30
0.0
11
0.080692
21
0.074620
31
0.0
0
LINE
8
0
6
CONTINUOUS
10
0.051218
20
0.054660
30
0.0
11
0.052934
21
0.055849
31
0.0
0
LINE
8
0
6
CONTINUOUS
10
0.033644
20
0.044346
30
0.0
11
0.035284
21
0.045482
31
0.0
0
LINE
8
0
6
CONTINUOUS
10
0.035284
20
0.045482
30
0.0
11
0.036554
21
0.046362
31
0.0
0
LINE
8
0
6
CONTINUOUS
10
0.036554
20
0.046362
30
0.0
11
0.036326
21
0.046691
31
0.0
0
LINE
8
0
6
CONTINUOUS
10
0.076536
20
0.070021
30
0.0
11
0.077120
21
0.070425
31
0.0
0
LINE
8
0
6
CONTINUOUS
10
0.059029
20
0.058020
30
0.0
11
0.059612
21
0.058424
31
0.0
0
LINE
8
0
6
CONTINUOUS
10
0.058777
20
0.058384
30
0.0
11
0.059029
21
0.058020
31
0.0
0
LINE
8
0
6
CONTINUOUS
10
0.027741
20
0.042239
30
0.0
11
0.028659
21
0.042876
31
0.0
0
LINE
8
0
6
CONTINUOUS
10
0.045020
20
0.048304
30
0.0
11
0.045315
21
0.048509
31
0.0
0
LINE
8
0
6
CONTINUOUS
10
0.070618
20
0.064911
30
0.0
11
0.071839
21
0.065756
31
0.0
0
LINE
8
0
6
CONTINUOUS
10
0.082609
20
0.076776
30
0.0
11
0.084320
21
0.077961
31
0.0
0
LINE
8
0
6
CONTINUOUS
10
0.084320
20
0.077961
30
0.0
11
0.085023
21
0.078448
31
0.0
0
LINE
8
0
6
CONTINUOUS
10
0.071839
20
0.065756
30
0.0
11
0.072449
21
0.066179
31
0.0
0
LINE
8
0
6
CONTINUOUS
10
0.072449
20
0.066179
30
0.0
11
0.071525
21
0.067513
31
0.0
0
LINE
8
0
6
CONTINUOUS
10
0.032382
20
0.038980
30
0.0
11
0.031762
21
0.039874
31
0.0
0
LINE
8
0
6
CONTINUOUS
10
0.031552
20
0.038405
30
0.0
11
0.032382
21
0.038980
31
0.0
0
LINE
8
0
6
CONTINUOUS
10
0.075370
20
0.069213
30
0.0
11
0.076536
21
0.070021
31
0.0
0
LINE
8
0
6
CONTINUOUS
10
0.076096
20
0.069813
30
0.0
11
0.076679
21
0.070218
31
0.0
0
LINE
8
0
6
CONTINUOUS
10
0.074567
20
0.072978
30
0.0
11
0.075838
21
0.073858
31
0.0
0
LINE
8
0
6
CONTINUOUS
10
0.075838
20
0.073858
30
0.0
11
0.074646
21
0.075579
31
0.0
0
LINE
8
0
6
CONTINUOUS
10
0.086568
20
0.081695
30
0.0
11
0.087270
21
0.082182
31
0.0
0
LINE
8
0
6
CONTINUOUS
10
0.087270
20
0.082182
30
0.0
11
0.086216
21
0.083704
31
0.0
0
LINE
8
0
6
CONTINUOUS
10
0.084857
20
0.080510
30
0.0
11
0.086568
21
0.081695
31
0.0
0
LINE
8
0
6
CONTINUOUS
10
0.087072
20
0.082476
30
0.0
11
0.088782
21
0.083661
31
0.0
0
LINE
8
0
6
CONTINUOUS
10
0.058975
20
0.055502
30
0.0
11
0.059585
21
0.055925
31
0.0
0
LINE
8
0
6
CONTINUOUS
10
0.058358
20
0.056393
30
0.0
11
0.058975
21
0.055502
31
0.0
0
LINE
8
0
6
CONTINUOUS
10
0.050895
20
0.051896
30
0.0
11
0.052115
21
0.052741
31
0.0
0
LINE
8
0
6
CONTINUOUS
10
0.050284
20
0.051473
30
0.0
11
0.050895
21
0.051896
31
0.0
0
LINE
8
0
6
CONTINUOUS
10
0.050021
20
0.051853
30
0.0
11
0.050284
21
0.051473
31
0.0
0
LINE
8
0
6
CONTINUOUS
10
0.051244
20
0.051114
30
0.0
11
0.051855
21
0.051537
31
0.0
0
LINE
8
0
6
CONTINUOUS
10
0.051855
20
0.051537
30
0.0
11
0.051246
21
0.052415
31
0.0
0
LINE
8
0
6
CONTINUOUS
10
0.043410
20
0.046384
30
0.0
11
0.044020
21
0.046807
31
0.0
0
LINE
8
0
6
CONTINUOUS
10
0.084115
20
0.078257
30
0.0
11
0.084817
21
0.078744
31
0.0
0
LINE
8
0
6
CONTINUOUS
10
0.084817
20
0.078744
30
0.0
11
0.083949
21
0.079997
31
0.0
0
LINE
8
0
6
CONTINUOUS
10
0.082404
20
0.077072
30
0.0
11
0.084115
21
0.078257
31
0.0
0
LINE
8
0
6
CONTINUOUS
10
0.080172
20
0.075471
30
0.0
11
0.080528
21
0.075718
31
0.0
0
LINE
8
0
6
CONTINUOUS
10
0.080528
20
0.075718
30
0.0
11
0.080200
21
0.076192
31
0.0
0
LINE
8
0
6
CONTINUOUS
10
0.078536
20
0.074339
30
0.0
11
0.080172
21
0.075471
31
0.0
0
LINE
8
0
6
CONTINUOUS
10
0.077257
20
0.073452
30
0.0
11
0.078536
21
0.074339
31
0.0
0
LINE
8
0
6
CONTINUOUS
10
0.023811
20
0.034353
30
0.0
11
0.024820
21
0.035052
31
0.0
0
LINE
8
0
6
CONTINUOUS
10
0.023356
20
0.035009
30
0.0
11
0.023811
21
0.034353
31
0.0
0
LINE
8
0
6
CONTINUOUS
10
0.024820
20
0.035052
30
0.0
11
0.026531
21
0.036238
31
0.0
0
LINE
8
0
6
CONTINUOUS
10
0.052934
20
0.055849
30
0.0
11
0.053902
21
0.056519
31
0.0
0
LINE
8
0
6
CONTINUOUS
10
0.053902
20
0.056519
30
0.0
11
0.053324
21
0.057354
31
0.0
0
LINE
8
0
6
CONTINUOUS
10
0.033275
20
0.044090
30
0.0
11
0.033644
21
0.044346
31
0.0
0
LINE
8
0
6
CONTINUOUS
10
0.026454
20
0.038701
30
0.0
11
0.027947
21
0.039735
31
0.0
0
LINE
8
0
6
CONTINUOUS
10
0.019659
20
0.032454
30
0.0
11
0.021371
21
0.033639
31
0.0
0
LINE
8
0
6
CONTINUOUS
10
0.066555
20
0.063355
30
0.0
11
0.067138
21
0.063759
31
0.0
0
LINE
8
0
6
CONTINUOUS
10
0.022314
20
0.037732
30
0.0
11
0.022535
21
0.037885
31
0.0
0
LINE
8
0
6
CONTINUOUS
10
0.026101
20
0.041104
30
0.0
11
0.027741
21
0.042239
31
0.0
0
LINE
8
0
6
CONTINUOUS
10
0.036399
20
0.048305
30
0.0
11
0.037367
21
0.048975
31
0.0
0
LINE
8
0
6
CONTINUOUS
10
0.037367
20
0.048975
30
0.0
11
0.037271
21
0.049114
31
0.0
0
LINE
8
0
6
CONTINUOUS
10
0.031150
20
0.037964
30
0.0
11
0.031980
21
0.038539
31
0.0
0
LINE
8
0
6
CONTINUOUS
10
0.021429
20
0.033555
30
0.0
11
0.022132
21
0.034041
31
0.0
0
LINE
8
0
6
CONTINUOUS
10
0.019718
20
0.032369
30
0.0
11
0.021429
21
0.033555
31
0.0
0
LINE
8
0
6
CONTINUOUS
10
0.018709
20
0.031670
30
0.0
11
0.019718
21
0.032369
31
0.0
0
LINE
8
0
6
CONTINUOUS
10
0.081600
20
0.076077
30
0.0
11
0.082609
21
0.076776
31
0.0
0
LINE
8
0
6
CONTINUOUS
10
0.056269
20
0.053731
30
0.0
11
0.056880
21
0.054154
31
0.0
0
LINE
8
0
6
CONTINUOUS
10
0.056846
20
0.054370
30
0.0
11
0.058067
21
0.055215
31
0.0
0
LINE
8
0
6
CONTINUOUS
10
0.058067
20
0.055215
30
0.0
11
0.058677
21
0.055638
31
0.0
0
LINE
8
0
6
CONTINUOUS
10
0.064345
20
0.060502
30
0.0
11
0.064955
21
0.060925
31
0.0
0
LINE
8
0
6
CONTINUOUS
10
0.086821
20
0.081358
30
0.0
11
0.087514
21
0.081838
31
0.0
0
LINE
8
0
6
CONTINUOUS
10
0.067166
20
0.063626
30
0.0
11
0.067749
21
0.064030
31
0.0
0
LINE
8
0
6
CONTINUOUS
10
0.067104
20
0.063715
30
0.0
11
0.067166
21
0.063626
31
0.0
0
LINE
8
0
6
CONTINUOUS
10
0.066602
20
0.063287
30
0.0
11
0.067185
21
0.063691
31
0.0
0
LINE
8
0
6
CONTINUOUS
10
0.056798
20
0.061493
30
0.0
11
0.057444
21
0.061941
31
0.0
0
LINE
8
0
6
CONTINUOUS
10
0.057444
20
0.061941
30
0.0
11
0.056665
21
0.063065
31
0.0
0
LINE
8
0
6
CONTINUOUS
10
0.061820
20
0.060058
30
0.0
11
0.062403
21
0.060462
31
0.0
0
LINE
8
0
6
CONTINUOUS
10
0.061617
20
0.060350
30
0.0
11
0.061820
21
0.060058
31
0.0
0
LINE
8
0
6
CONTINUOUS
10
0.055094
20
0.060313
30
0.0
11
0.056798
21
0.061493
31
0.0
0
LINE
8
0
6
CONTINUOUS
10
0.088782
20
0.083661
30
0.0
11
0.089800
21
0.084365
31
0.0
0
LINE
8
0
6
CONTINUOUS
10
0.089800
20
0.084365
30
0.0
11
0.088731
21
0.085907
31
0.0
0
LINE
8
0
6
CONTINUOUS
10
0.066849
20
0.061625
30
0.0
11
0.067460
21
0.062047
31
0.0
0
LINE
8
0
6
CONTINUOUS
10
0.067460
20
0.062047
30
0.0
11
0.066603
21
0.063285
31
0.0
0
LINE
8
0
6
CONTINUOUS
10
0.064941
20
0.060946
30
0.0
11
0.066161
21
0.061791
31
0.0
0
LINE
8
0
6
CONTINUOUS
10
0.058011
20
0.055296
30
0.0
11
0.058621
21
0.055719
31
0.0
0
LINE
8
0
6
CONTINUOUS
10
0.058621
20
0.055719
30
0.0
11
0.058221
21
0.056297
31
0.0
0
LINE
8
0
6
CONTINUOUS
10
0.056790
20
0.054450
30
0.0
11
0.058011
21
0.055296
31
0.0
0
LINE
8
0
6
CONTINUOUS
10
0.056229
20
0.053789
30
0.0
11
0.056840
21
0.054211
31
0.0
0
LINE
8
0
6
CONTINUOUS
10
0.059720
20
0.057326
30
0.0
11
0.060330
21
0.057749
31
0.0
0
LINE
8
0
6
CONTINUOUS
10
0.060330
20
0.057749
30
0.0
11
0.059333
21
0.059188
31
0.0
0
LINE
8
0
6
CONTINUOUS
10
0.045241
20
0.047652
30
0.0
11
0.045851
21
0.048075
31
0.0
0
LINE
8
0
6
CONTINUOUS
10
0.045851
20
0.048075
30
0.0
11
0.045246
21
0.048949
31
0.0
0
LINE
8
0
6
CONTINUOUS
10
0.040632
20
0.043414
30
0.0
11
0.041242
21
0.043836
31
0.0
0
LINE
8
0
6
CONTINUOUS
10
0.040048
20
0.044257
30
0.0
11
0.040632
21
0.043414
31
0.0
0
LINE
8
0
6
CONTINUOUS
10
0.036989
20
0.041590
30
0.0
11
0.037600
21
0.042013
31
0.0
0
LINE
8
0
6
CONTINUOUS
10
0.037600
20
0.042013
30
0.0
11
0.037182
21
0.042616
31
0.0
0
LINE
8
0
6
CONTINUOUS
10
0.085074
20
0.078977
30
0.0
11
0.086091
21
0.079681
31
0.0
0
LINE
8
0
6
CONTINUOUS
10
0.086091
20
0.079681
30
0.0
11
0.085024
21
0.081222
31
0.0
0
LINE
8
0
6
CONTINUOUS
10
0.055276
20
0.058096
30
0.0
11
0.056244
21
0.058766
31
0.0
0
LINE
8
0
6
CONTINUOUS
10
0.056244
20
0.058766
30
0.0
11
0.055183
21
0.060297
31
0.0
0
LINE
8
0
6
CONTINUOUS
10
0.053560
20
0.056907
30
0.0
11
0.055276
21
0.058096
31
0.0
0
LINE
8
0
6
CONTINUOUS
10
0.052812
20
0.056389
30
0.0
11
0.053560
21
0.056907
31
0.0
0
LINE
8
0
6
CONTINUOUS
10
0.070467
20
0.067003
30
0.0
11
0.071954
21
0.068033
31
0.0
0
LINE
8
0
6
CONTINUOUS
10
0.071954
20
0.068033
30
0.0
11
0.070646
21
0.069921
31
0.0
0
LINE
8
0
6
CONTINUOUS
10
0.030122
20
0.039470
30
0.0
11
0.030478
21
0.039717
31
0.0
0
LINE
8
0
6
CONTINUOUS
10
0.030478
20
0.039717
30
0.0
11
0.030273
21
0.040012
31
0.0
0
LINE
8
0
6
CONTINUOUS
10
0.050470
20
0.054142
30
0.0
11
0.051218
21
0.054660
31
0.0
0
LINE
8
0
6
CONTINUOUS
10
0.042344
20
0.050518
30
0.0
11
0.043092
21
0.051036
31
0.0
0
LINE
8
0
6
CONTINUOUS
10
0.015106
20
0.031361
30
0.0
11
0.016115
21
0.032060
31
0.0
0
LINE
8
0
6
CONTINUOUS
10
0.016115
20
0.032060
30
0.0
11
0.017826
21
0.033245
31
0.0
0
LINE
8
0
6
CONTINUOUS
10
0.026689
20
0.036010
30
0.0
11
0.027391
21
0.036497
31
0.0
0
LINE
8
0
6
CONTINUOUS
10
0.024977
20
0.034825
30
0.0
11
0.026689
21
0.036010
31
0.0
0
LINE
8
0
6
CONTINUOUS
10
0.079182
20
0.073143
30
0.0
11
0.080893
21
0.074329
31
0.0
0
LINE
8
0
6
CONTINUOUS
10
0.080893
20
0.074329
30
0.0
11
0.081595
21
0.074815
31
0.0
0
LINE
8
0
6
CONTINUOUS
10
0.050960
20
0.050153
30
0.0
11
0.051570
21
0.050575
31
0.0
0
LINE
8
0
6
CONTINUOUS
10
0.046594
20
0.046920
30
0.0
11
0.047815
21
0.047766
31
0.0
0
LINE
8
0
6
CONTINUOUS
10
0.045984
20
0.046498
30
0.0
11
0.046594
21
0.046920
31
0.0
0
LINE
8
0
6
CONTINUOUS
10
0.054438
20
0.052463
30
0.0
11
0.055049
21
0.052886
31
0.0
0
LINE
8
0
6
CONTINUOUS
10
0.087514
20
0.081838
30
0.0
11
0.089225
21
0.083022
31
0.0
0
LINE
8
0
6
CONTINUOUS
10
0.089225
20
0.083022
30
0.0
11
0.090242
21
0.083727
31
0.0
0
LINE
8
0
6
CONTINUOUS
10
0.080544
20
0.077089
30
0.0
11
0.079264
21
0.076203
31
0.0
0
LINE
8
0
6
CONTINUOUS
10
0.082179
20
0.078222
30
0.0
11
0.080544
21
0.077089
31
0.0
0
LINE
8
0
6
CONTINUOUS
10
0.082535
20
0.078469
30
0.0
11
0.082179
21
0.078222
31
0.0
0
LINE
8
0
6
CONTINUOUS
10
0.070008
20
0.064488
30
0.0
11
0.070618
21
0.064911
31
0.0
0
LINE
8
0
6
CONTINUOUS
10
0.042146
20
0.046156
30
0.0
11
0.042442
21
0.046360
31
0.0
0
LINE
8
0
6
CONTINUOUS
10
0.042442
20
0.046360
30
0.0
11
0.043567
21
0.047140
31
0.0
0
LINE
8
0
6
CONTINUOUS
10
0.043567
20
0.047140
30
0.0
11
0.044396
21
0.047715
31
0.0
0
LINE
8
0
6
CONTINUOUS
10
0.039782
20
0.044560
30
0.0
11
0.040907
21
0.045339
31
0.0
0
LINE
8
0
6
CONTINUOUS
10
0.040907
20
0.045339
30
0.0
11
0.041737
21
0.045914
31
0.0
0
LINE
8
0
6
CONTINUOUS
10
0.029385
20
0.038499
30
0.0
11
0.030131
21
0.037421
31
0.0
0
LINE
8
0
6
CONTINUOUS
10
0.030131
20
0.037421
30
0.0
11
0.030427
21
0.037626
31
0.0
0
LINE
8
0
6
CONTINUOUS
10
0.030427
20
0.037626
30
0.0
11
0.031552
21
0.038405
31
0.0
0
LINE
8
0
6
CONTINUOUS
10
0.028982
20
0.038060
30
0.0
11
0.029730
21
0.036980
31
0.0
0
LINE
8
0
6
CONTINUOUS
10
0.029730
20
0.036980
30
0.0
11
0.030025
21
0.037185
31
0.0
0
LINE
8
0
6
CONTINUOUS
10
0.030025
20
0.037185
30
0.0
11
0.031150
21
0.037964
31
0.0
0
LINE
8
0
6
CONTINUOUS
10
0.045315
20
0.048509
30
0.0
11
0.046440
21
0.049288
31
0.0
0
LINE
8
0
6
CONTINUOUS
10
0.046440
20
0.049288
30
0.0
11
0.047270
21
0.049863
31
0.0
0
LINE
8
0
6
CONTINUOUS
10
0.060779
20
0.059232
30
0.0
11
0.061362
21
0.059636
31
0.0
0
LINE
8
0
6
CONTINUOUS
10
0.059612
20
0.058424
30
0.0
11
0.060779
21
0.059232
31
0.0
0
LINE
8
0
6
CONTINUOUS
10
0.065388
20
0.062546
30
0.0
11
0.066555
21
0.063355
31
0.0
0
LINE
8
0
6
CONTINUOUS
10
0.064805
20
0.062142
30
0.0
11
0.065388
21
0.062546
31
0.0
0
LINE
8
0
6
CONTINUOUS
10
0.064611
20
0.062422
30
0.0
11
0.064805
21
0.062142
31
0.0
0
LINE
8
0
6
CONTINUOUS
10
0.068874
20
0.064898
30
0.0
11
0.069458
21
0.065302
31
0.0
0
LINE
8
0
6
CONTINUOUS
10
0.069458
20
0.065302
30
0.0
11
0.069269
21
0.065575
31
0.0
0
LINE
8
0
6
CONTINUOUS
10
0.067708
20
0.064090
30
0.0
11
0.068874
21
0.064898
31
0.0
0
LINE
8
0
6
CONTINUOUS
10
0.067124
20
0.063686
30
0.0
11
0.067708
21
0.064090
31
0.0
0
LINE
8
0
6
CONTINUOUS
10
0.074787
20
0.068809
30
0.0
11
0.075370
21
0.069213
31
0.0
0
LINE
8
0
6
CONTINUOUS
10
0.063569
20
0.061270
30
0.0
11
0.064153
21
0.061674
31
0.0
0
LINE
8
0
6
CONTINUOUS
10
0.062403
20
0.060462
30
0.0
11
0.063569
21
0.061270
31
0.0
0
LINE
8
0
6
CONTINUOUS
10
0.074346
20
0.068601
30
0.0
11
0.074929
21
0.069005
31
0.0
0
LINE
8
0
6
CONTINUOUS
10
0.054036
20
0.059580
30
0.0
11
0.055094
21
0.060313
31
0.0
0
LINE
8
0
6
CONTINUOUS
10
0.066482
20
0.067705
30
0.0
11
0.067449
21
0.068375
31
0.0
0
LINE
8
0
6
CONTINUOUS
10
0.067449
20
0.068375
30
0.0
11
0.066405
21
0.069882
31
0.0
0
LINE
8
0
6
CONTINUOUS
10
0.064766
20
0.066517
30
0.0
11
0.066482
21
0.067705
31
0.0
0
LINE
8
0
6
CONTINUOUS
10
0.064018
20
0.065998
30
0.0
11
0.064766
21
0.066517
31
0.0
0
LINE
8
0
6
CONTINUOUS
10
0.072927
20
0.071842
30
0.0
11
0.074567
21
0.072978
31
0.0
0
LINE
8
0
6
CONTINUOUS
10
0.072558
20
0.071586
30
0.0
11
0.072927
21
0.071842
31
0.0
0
LINE
8
0
6
CONTINUOUS
10
0.082179
20
0.078222
30
0.0
11
0.082535
21
0.078469
31
0.0
0
LINE
8
0
6
CONTINUOUS
10
0.082535
20
0.078469
30
0.0
11
0.081458
21
0.080024
31
0.0
0
LINE
8
0
6
CONTINUOUS
10
0.080544
20
0.077089
30
0.0
11
0.082179
21
0.078222
31
0.0
0
LINE
8
0
6
CONTINUOUS
10
0.079264
20
0.076203
30
0.0
11
0.080544
21
0.077089
31
0.0
0
LINE
8
0
6
CONTINUOUS
10
0.083848
20
0.079811
30
0.0
11
0.084857
21
0.080510
31
0.0
0
LINE
8
0
6
CONTINUOUS
10
0.083814
20
0.079859
30
0.0
11
0.083848
21
0.079811
31
0.0
0
LINE
8
0
6
CONTINUOUS
10
0.070353
20
0.064870
30
0.0
11
0.070964
21
0.065293
31
0.0
0
LINE
8
0
6
CONTINUOUS
10
0.070964
20
0.065293
30
0.0
11
0.070209
21
0.066382
31
0.0
0
LINE
8
0
6
CONTINUOUS
10
0.069133
20
0.064025
30
0.0
11
0.070353
21
0.064870
31
0.0
0
LINE
8
0
6
CONTINUOUS
10
0.068522
20
0.063602
30
0.0
11
0.069133
21
0.064025
31
0.0
0
LINE
8
0
6
CONTINUOUS
10
0.067944
20
0.064437
30
0.0
11
0.068522
21
0.063602
31
0.0
0
LINE
8
0
6
CONTINUOUS
10
0.065629
20
0.060779
30
0.0
11
0.066849
21
0.061625
31
0.0
0
LINE
8
0
6
CONTINUOUS
10
0.065018
20
0.060356
30
0.0
11
0.065629
21
0.060779
31
0.0
0
LINE
8
0
6
CONTINUOUS
10
0.060806
20
0.056771
30
0.0
11
0.061416
21
0.057194
31
0.0
0
LINE
8
0
6
CONTINUOUS
10
0.061416
20
0.057194
30
0.0
11
0.060554
21
0.058438
31
0.0
0
LINE
8
0
6
CONTINUOUS
10
0.059585
20
0.055925
30
0.0
11
0.060806
21
0.056771
31
0.0
0
LINE
8
0
6
CONTINUOUS
10
0.061757
20
0.057979
30
0.0
11
0.062367
21
0.058401
31
0.0
0
LINE
8
0
6
CONTINUOUS
10
0.060822
20
0.059328
30
0.0
11
0.061757
21
0.057979
31
0.0
0
LINE
8
0
6
CONTINUOUS
10
0.066161
20
0.061791
30
0.0
11
0.066772
21
0.062214
31
0.0
0
LINE
8
0
6
CONTINUOUS
10
0.066772
20
0.062214
30
0.0
11
0.066244
21
0.062976
31
0.0
0
LINE
8
0
6
CONTINUOUS
10
0.064330
20
0.060523
30
0.0
11
0.064941
21
0.060946
31
0.0
0
LINE
8
0
6
CONTINUOUS
10
0.063979
20
0.061031
30
0.0
11
0.064330
21
0.060523
31
0.0
0
LINE
8
0
6
CONTINUOUS
10
0.056180
20
0.054028
30
0.0
11
0.056790
21
0.054450
31
0.0
0
LINE
8
0
6
CONTINUOUS
10
0.055203
20
0.055439
30
0.0
11
0.056180
21
0.054028
31
0.0
0
LINE
8
0
6
CONTINUOUS
10
0.055009
20
0.052943
30
0.0
11
0.056229
21
0.053789
31
0.0
0
LINE
8
0
6
CONTINUOUS
10
0.054398
20
0.052520
30
0.0
11
0.055009
21
0.052943
31
0.0
0
LINE
8
0
6
CONTINUOUS
10
0.053894
20
0.053249
30
0.0
11
0.054398
21
0.052520
31
0.0
0
LINE
8
0
6
CONTINUOUS
10
0.058499
20
0.056481
30
0.0
11
0.059720
21
0.057326
31
0.0
0
LINE
8
0
6
CONTINUOUS
10
0.057889
20
0.056058
30
0.0
11
0.058499
21
0.056481
31
0.0
0
LINE
8
0
6
CONTINUOUS
10
0.057308
20
0.056896
30
0.0
11
0.057887
21
0.056061
31
0.0
0
LINE
8
0
6
CONTINUOUS
10
0.046583
20
0.046936
30
0.0
11
0.047804
21
0.047782
31
0.0
0
LINE
8
0
6
CONTINUOUS
10
0.045973
20
0.046513
30
0.0
11
0.046583
21
0.046936
31
0.0
0
LINE
8
0
6
CONTINUOUS
10
0.047804
20
0.047782
30
0.0
11
0.048415
21
0.048204
31
0.0
0
LINE
8
0
6
CONTINUOUS
10
0.048415
20
0.048204
30
0.0
11
0.047767
21
0.049139
31
0.0
0
LINE
8
0
6
CONTINUOUS
10
0.050024
20
0.050269
30
0.0
11
0.051244
21
0.051114
31
0.0
0
LINE
8
0
6
CONTINUOUS
10
0.049413
20
0.049846
30
0.0
11
0.050024
21
0.050269
31
0.0
0
LINE
8
0
6
CONTINUOUS
10
0.048671
20
0.050918
30
0.0
11
0.049413
21
0.049846
31
0.0
0
LINE
8
0
6
CONTINUOUS
10
0.044020
20
0.046807
30
0.0
11
0.045241
21
0.047652
31
0.0
0
LINE
8
0
6
CONTINUOUS
10
0.044060
20
0.045686
30
0.0
11
0.044670
21
0.046109
31
0.0
0
LINE
8
0
6
CONTINUOUS
10
0.043629
20
0.046309
30
0.0
11
0.044060
21
0.045686
31
0.0
0
LINE
8
0
6
CONTINUOUS
10
0.049698
20
0.049366
30
0.0
11
0.050919
21
0.050212
31
0.0
0
LINE
8
0
6
CONTINUOUS
10
0.049088
20
0.048944
30
0.0
11
0.049698
21
0.049366
31
0.0
0
LINE
8
0
6
CONTINUOUS
10
0.048659
20
0.049563
30
0.0
11
0.049088
21
0.048944
31
0.0
0
LINE
8
0
6
CONTINUOUS
10
0.050919
20
0.050212
30
0.0
11
0.051529
21
0.050635
31
0.0
0
LINE
8
0
6
CONTINUOUS
10
0.041242
20
0.043836
30
0.0
11
0.042463
21
0.044682
31
0.0
0
LINE
8
0
6
CONTINUOUS
10
0.042463
20
0.044682
30
0.0
11
0.043073
21
0.045105
31
0.0
0
LINE
8
0
6
CONTINUOUS
10
0.043073
20
0.045105
30
0.0
11
0.042524
21
0.045898
31
0.0
0
LINE
8
0
6
CONTINUOUS
10
0.038363
20
0.042777
30
0.0
11
0.039584
21
0.043622
31
0.0
0
LINE
8
0
6
CONTINUOUS
10
0.037753
20
0.042354
30
0.0
11
0.038363
21
0.042777
31
0.0
0
LINE
8
0
6
CONTINUOUS
10
0.037461
20
0.042775
30
0.0
11
0.037753
21
0.042354
31
0.0
0
LINE
8
0
6
CONTINUOUS
10
0.039584
20
0.043622
30
0.0
11
0.040194
21
0.044045
31
0.0
0
LINE
8
0
6
CONTINUOUS
10
0.040194
20
0.044045
30
0.0
11
0.039710
21
0.044744
31
0.0
0
LINE
8
0
6
CONTINUOUS
10
0.035769
20
0.040745
30
0.0
11
0.036989
21
0.041590
31
0.0
0
LINE
8
0
6
CONTINUOUS
10
0.035158
20
0.040322
30
0.0
11
0.035769
21
0.040745
31
0.0
0
LINE
8
0
6
CONTINUOUS
10
0.034596
20
0.041134
30
0.0
11
0.035158
21
0.040322
31
0.0
0
LINE
8
0
6
CONTINUOUS
10
0.036901
20
0.042526
30
0.0
11
0.037196
21
0.042731
31
0.0
0
LINE
8
0
6
CONTINUOUS
10
0.037196
20
0.042731
30
0.0
11
0.038321
21
0.043510
31
0.0
0
LINE
8
0
6
CONTINUOUS
10
0.038321
20
0.043510
30
0.0
11
0.039151
21
0.044085
31
0.0
0
LINE
8
0
6
CONTINUOUS
10
0.081395
20
0.076373
30
0.0
11
0.082404
21
0.077072
31
0.0
0
LINE
8
0
6
CONTINUOUS
10
0.080975
20
0.076979
30
0.0
11
0.081395
21
0.076373
31
0.0
0
LINE
8
0
6
CONTINUOUS
10
0.062318
20
0.062878
30
0.0
11
0.062687
21
0.063134
31
0.0
0
LINE
8
0
6
CONTINUOUS
10
0.062409
20
0.061589
30
0.0
11
0.063679
21
0.062469
31
0.0
0
LINE
8
0
6
CONTINUOUS
10
0.063679
20
0.062469
30
0.0
11
0.062487
21
0.064190
31
0.0
0
LINE
8
0
6
CONTINUOUS
10
0.060769
20
0.060453
30
0.0
11
0.062409
21
0.061589
31
0.0
0
LINE
8
0
6
CONTINUOUS
10
0.060400
20
0.060198
30
0.0
11
0.060769
21
0.060453
31
0.0
0
LINE
8
0
6
CONTINUOUS
10
0.060205
20
0.060479
30
0.0
11
0.060400
21
0.060198
31
0.0
0
LINE
8
0
6
CONTINUOUS
10
0.068974
20
0.065969
30
0.0
11
0.070467
21
0.067003
31
0.0
0
LINE
8
0
6
CONTINUOUS
10
0.068696
20
0.066355
30
0.0
11
0.068967
21
0.065964
31
0.0
0
LINE
8
0
6
CONTINUOUS
10
0.077474
20
0.072004
30
0.0
11
0.077830
21
0.072251
31
0.0
0
LINE
8
0
6
CONTINUOUS
10
0.077830
20
0.072251
30
0.0
11
0.076688
21
0.073900
31
0.0
0
LINE
8
0
6
CONTINUOUS
10
0.075839
20
0.070871
30
0.0
11
0.077474
21
0.072004
31
0.0
0
LINE
8
0
6
CONTINUOUS
10
0.074559
20
0.069985
30
0.0
11
0.075839
21
0.070871
31
0.0
0
LINE
8
0
6
CONTINUOUS
10
0.074363
20
0.070268
30
0.0
11
0.074559
21
0.069985
31
0.0
0
LINE
8
0
6
CONTINUOUS
10
0.080692
20
0.074620
30
0.0
11
0.081394
21
0.075106
31
0.0
0
LINE
8
0
6
CONTINUOUS
10
0.081394
20
0.075106
30
0.0
11
0.080325
21
0.076650
31
0.0
0
LINE
8
0
6
CONTINUOUS
10
0.077971
20
0.072735
30
0.0
11
0.078980
21
0.073434
31
0.0
0
LINE
8
0
6
CONTINUOUS
10
0.077485
20
0.073437
30
0.0
11
0.077971
21
0.072735
31
0.0
0
LINE
8
0
6
CONTINUOUS
10
0.026531
20
0.036238
30
0.0
11
0.027233
21
0.036724
31
0.0
0
LINE
8
0
6
CONTINUOUS
10
0.027233
20
0.036724
30
0.0
11
0.026922
21
0.037174
31
0.0
0
LINE
8
0
6
CONTINUOUS
10
0.027206
20
0.037451
30
0.0
11
0.028486
21
0.038338
31
0.0
0
LINE
8
0
6
CONTINUOUS
10
0.028486
20
0.038338
30
0.0
11
0.030122
21
0.039470
31
0.0
0
LINE
8
0
6
CONTINUOUS
10
0.032905
20
0.041940
30
0.0
11
0.034398
21
0.042974
31
0.0
0
LINE
8
0
6
CONTINUOUS
10
0.034398
20
0.042974
30
0.0
11
0.035884
21
0.044004
31
0.0
0
LINE
8
0
6
CONTINUOUS
10
0.035884
20
0.044004
30
0.0
11
0.035501
21
0.044558
31
0.0
0
LINE
8
0
6
CONTINUOUS
10
0.041392
20
0.047970
30
0.0
11
0.043032
21
0.049106
31
0.0
0
LINE
8
0
6
CONTINUOUS
10
0.041023
20
0.047715
30
0.0
11
0.041392
21
0.047970
31
0.0
0
LINE
8
0
6
CONTINUOUS
10
0.043032
20
0.049106
30
0.0
11
0.044302
21
0.049986
31
0.0
0
LINE
8
0
6
CONTINUOUS
10
0.044302
20
0.049986
30
0.0
11
0.043810
21
0.050698
31
0.0
0
LINE
8
0
6
CONTINUOUS
10
0.043092
20
0.051036
30
0.0
11
0.044808
21
0.052225
31
0.0
0
LINE
8
0
6
CONTINUOUS
10
0.044808
20
0.052225
30
0.0
11
0.045775
21
0.052895
31
0.0
0
LINE
8
0
6
CONTINUOUS
10
0.045775
20
0.052895
30
0.0
11
0.045506
21
0.053284
31
0.0
0
LINE
8
0
6
CONTINUOUS
10
0.027947
20
0.039735
30
0.0
11
0.029434
21
0.040765
31
0.0
0
LINE
8
0
6
CONTINUOUS
10
0.029434
20
0.040765
30
0.0
11
0.029088
21
0.041265
31
0.0
0
LINE
8
0
6
CONTINUOUS
10
0.020992
20
0.034106
30
0.0
11
0.022272
21
0.034992
31
0.0
0
LINE
8
0
6
CONTINUOUS
10
0.022272
20
0.034992
30
0.0
11
0.023907
21
0.036125
31
0.0
0
LINE
8
0
6
CONTINUOUS
10
0.023907
20
0.036125
30
0.0
11
0.024263
21
0.036372
31
0.0
0
LINE
8
0
6
CONTINUOUS
10
0.024263
20
0.036372
30
0.0
11
0.024054
21
0.036674
31
0.0
0
LINE
8
0
6
CONTINUOUS
10
0.018650
20
0.031755
30
0.0
11
0.019659
21
0.032454
31
0.0
0
LINE
8
0
6
CONTINUOUS
10
0.018189
20
0.032420
30
0.0
11
0.018650
21
0.031755
31
0.0
0
LINE
8
0
6
CONTINUOUS
10
0.021371
20
0.033639
30
0.0
11
0.022073
21
0.034126
31
0.0
0
LINE
8
0
6
CONTINUOUS
10
0.022073
20
0.034126
30
0.0
11
0.021825
21
0.034484
31
0.0
0
LINE
8
0
6
CONTINUOUS
10
0.017826
20
0.033245
30
0.0
11
0.018528
21
0.033731
31
0.0
0
LINE
8
0
6
CONTINUOUS
10
0.018528
20
0.033731
30
0.0
11
0.018415
21
0.033895
31
0.0
0
LINE
8
0
6
CONTINUOUS
10
0.019398
20
0.035712
30
0.0
11
0.020678
21
0.036599
31
0.0
0
LINE
8
0
6
CONTINUOUS
10
0.020678
20
0.036599
30
0.0
11
0.022314
21
0.037732
31
0.0
0
LINE
8
0
6
CONTINUOUS
10
0.025732
20
0.040848
30
0.0
11
0.026101
21
0.041104
31
0.0
0
LINE
8
0
6
CONTINUOUS
10
0.034684
20
0.047117
30
0.0
11
0.036399
21
0.048305
31
0.0
0
LINE
8
0
6
CONTINUOUS
10
0.033935
20
0.046598
30
0.0
11
0.034684
21
0.047117
31
0.0
0
LINE
8
0
6
CONTINUOUS
10
0.044751
20
0.054122
30
0.0
11
0.046455
21
0.055302
31
0.0
0
LINE
8
0
6
CONTINUOUS
10
0.043693
20
0.053389
30
0.0
11
0.044751
21
0.054122
31
0.0
0
LINE
8
0
6
CONTINUOUS
10
0.046455
20
0.055302
30
0.0
11
0.047101
21
0.055750
31
0.0
0
LINE
8
0
6
CONTINUOUS
10
0.047101
20
0.055750
30
0.0
11
0.046869
21
0.056085
31
0.0
0
LINE
8
0
6
CONTINUOUS
10
0.023968
20
0.034126
30
0.0
11
0.024977
21
0.034825
31
0.0
0
LINE
8
0
6
CONTINUOUS
10
0.078173
20
0.072444
30
0.0
11
0.079182
21
0.073143
31
0.0
0
LINE
8
0
6
CONTINUOUS
10
0.077654
20
0.071745
30
0.0
11
0.078010
21
0.071992
31
0.0
0
LINE
8
0
6
CONTINUOUS
10
0.077357
20
0.073307
30
0.0
11
0.077415
21
0.073223
31
0.0
0
LINE
8
0
6
CONTINUOUS
10
0.049739
20
0.049307
30
0.0
11
0.050960
21
0.050153
31
0.0
0
LINE
8
0
6
CONTINUOUS
10
0.049129
20
0.048884
30
0.0
11
0.049739
21
0.049307
31
0.0
0
LINE
8
0
6
CONTINUOUS
10
0.051331
20
0.050990
30
0.0
11
0.051941
21
0.051413
31
0.0
0
LINE
8
0
6
CONTINUOUS
10
0.047815
20
0.047766
30
0.0
11
0.048426
21
0.048189
31
0.0
0
LINE
8
0
6
CONTINUOUS
10
0.055049
20
0.052886
30
0.0
11
0.056269
21
0.053731
31
0.0
0
LINE
8
0
6
CONTINUOUS
10
0.059615
20
0.055882
30
0.0
11
0.060835
21
0.056728
31
0.0
0
LINE
8
0
6
CONTINUOUS
10
0.059004
20
0.055459
30
0.0
11
0.059615
21
0.055882
31
0.0
0
LINE
8
0
6
CONTINUOUS
10
0.085229
20
0.079973
30
0.0
11
0.086941
21
0.081158
31
0.0
0
LINE
8
0
6
CONTINUOUS
10
0.086941
20
0.081158
30
0.0
11
0.087643
21
0.081644
31
0.0
0
LINE
8
0
6
CONTINUOUS
10
0.070618
20
0.064911
30
0.0
11
0.070008
21
0.064488
31
0.0
0
LINE
8
0
6
CONTINUOUS
10
0.071839
20
0.065756
30
0.0
11
0.070618
21
0.064911
31
0.0
0
LINE
8
0
6
CONTINUOUS
10
0.072449
20
0.066179
30
0.0
11
0.071839
21
0.065756
31
0.0
0
LINE
8
0
6
CONTINUOUS
10
0.039782
20
0.044560
30
0.0
11
0.039487
21
0.044355
31
0.0
0
LINE
8
0
6
CONTINUOUS
10
0.040907
20
0.045339
30
0.0
11
0.039782
21
0.044560
31
0.0
0
LINE
8
0
6
CONTINUOUS
10
0.041737
20
0.045914
30
0.0
11
0.040907
21
0.045339
31
0.0
0
LINE
8
0
6
CONTINUOUS
10
0.030427
20
0.037626
30
0.0
11
0.030131
21
0.037421
31
0.0
0
LINE
8
0
6
CONTINUOUS
10
0.031552
20
0.038405
30
0.0
11
0.030427
21
0.037626
31
0.0
0
LINE
8
0
6
CONTINUOUS
10
0.032382
20
0.038980
30
0.0
11
0.031552
21
0.038405
31
0.0
0
LINE
8
0
6
CONTINUOUS
10
0.030025
20
0.037185
30
0.0
11
0.029730
21
0.036980
31
0.0
0
LINE
8
0
6
CONTINUOUS
10
0.031150
20
0.037964
30
0.0
11
0.030025
21
0.037185
31
0.0
0
LINE
8
0
6
CONTINUOUS
10
0.031980
20
0.038539
30
0.0
11
0.031150
21
0.037964
31
0.0
0
LINE
8
0
6
CONTINUOUS
10
0.045315
20
0.048509
30
0.0
11
0.045020
21
0.048304
31
0.0
0
LINE
8
0
6
CONTINUOUS
10
0.046440
20
0.049288
30
0.0
11
0.045315
21
0.048509
31
0.0
0
LINE
8
0
6
CONTINUOUS
10
0.047270
20
0.049863
30
0.0
11
0.046440
21
0.049288
31
0.0
0
LINE
8
0
6
CONTINUOUS
10
0.062403
20
0.060462
30
0.0
11
0.061820
21
0.060058
31
0.0
0
LINE
8
0
6
CONTINUOUS
10
0.063569
20
0.061270
30
0.0
11
0.062403
21
0.060462
31
0.0
0
LINE
8
0
6
CONTINUOUS
10
0.064153
20
0.061674
30
0.0
11
0.063569
21
0.061270
31
0.0
0
LINE
8
0
6
CONTINUOUS
10
0.055094
20
0.060313
30
0.0
11
0.054036
21
0.059580
31
0.0
0
LINE
8
0
6
CONTINUOUS
10
0.056798
20
0.061493
30
0.0
11
0.055094
21
0.060313
31
0.0
0
LINE
8
0
6
CONTINUOUS
10
0.057444
20
0.061941
30
0.0
11
0.056798
21
0.061493
31
0.0
0
LINE
8
0
6
CONTINUOUS
10
0.064766
20
0.066517
30
0.0
11
0.064018
21
0.065998
31
0.0
0
LINE
8
0
6
CONTINUOUS
10
0.066482
20
0.067705
30
0.0
11
0.064766
21
0.066517
31
0.0
0
LINE
8
0
6
CONTINUOUS
10
0.067449
20
0.068375
30
0.0
11
0.066482
21
0.067705
31
0.0
0
LINE
8
0
6
CONTINUOUS
10
0.072927
20
0.071842
30
0.0
11
0.072558
21
0.071586
31
0.0
0
LINE
8
0
6
CONTINUOUS
10
0.074567
20
0.072978
30
0.0
11
0.072927
21
0.071842
31
0.0
0
LINE
8
0
6
CONTINUOUS
10
0.075838
20
0.073858
30
0.0
11
0.074567
21
0.072978
31
0.0
0
LINE
8
0
6
CONTINUOUS
10
0.084857
20
0.080510
30
0.0
11
0.083848
21
0.079811
31
0.0
0
LINE
8
0
6
CONTINUOUS
10
0.086568
20
0.081695
30
0.0
11
0.084857
21
0.080510
31
0.0
0
LINE
8
0
6
CONTINUOUS
10
0.087270
20
0.082182
30
0.0
11
0.086568
21
0.081695
31
0.0
0
LINE
8
0
6
CONTINUOUS
10
0.088782
20
0.083661
30
0.0
11
0.087072
21
0.082476
31
0.0
0
LINE
8
0
6
CONTINUOUS
10
0.089800
20
0.084365
30
0.0
11
0.088782
21
0.083661
31
0.0
0
LINE
8
0
6
CONTINUOUS
10
0.069133
20
0.064025
30
0.0
11
0.068522
21
0.063602
31
0.0
0
LINE
8
0
6
CONTINUOUS
10
0.070353
20
0.064870
30
0.0
11
0.069133
21
0.064025
31
0.0
0
LINE
8
0
6
CONTINUOUS
10
0.070964
20
0.065293
30
0.0
11
0.070353
21
0.064870
31
0.0
0
LINE
8
0
6
CONTINUOUS
10
0.065629
20
0.060779
30
0.0
11
0.065018
21
0.060356
31
0.0
0
LINE
8
0
6
CONTINUOUS
10
0.066849
20
0.061625
30
0.0
11
0.065629
21
0.060779
31
0.0
0
LINE
8
0
6
CONTINUOUS
10
0.067460
20
0.062047
30
0.0
11
0.066849
21
0.061625
31
0.0
0
LINE
8
0
6
CONTINUOUS
10
0.062367
20
0.058401
30
0.0
11
0.061757
21
0.057979
31
0.0
0
LINE
8
0
6
CONTINUOUS
10
0.063588
20
0.059247
30
0.0
11
0.062367
21
0.058401
31
0.0
0
LINE
8
0
6
CONTINUOUS
10
0.064198
20
0.059670
30
0.0
11
0.063588
21
0.059247
31
0.0
0
LINE
8
0
6
CONTINUOUS
10
0.064941
20
0.060946
30
0.0
11
0.064330
21
0.060523
31
0.0
0
LINE
8
0
6
CONTINUOUS
10
0.066161
20
0.061791
30
0.0
11
0.064941
21
0.060946
31
0.0
0
LINE
8
0
6
CONTINUOUS
10
0.066772
20
0.062214
30
0.0
11
0.066161
21
0.061791
31
0.0
0
LINE
8
0
6
CONTINUOUS
10
0.055009
20
0.052943
30
0.0
11
0.054398
21
0.052520
31
0.0
0
LINE
8
0
6
CONTINUOUS
10
0.056229
20
0.053789
30
0.0
11
0.055009
21
0.052943
31
0.0
0
LINE
8
0
6
CONTINUOUS
10
0.056840
20
0.054211
30
0.0
11
0.056229
21
0.053789
31
0.0
0
LINE
8
0
6
CONTINUOUS
10
0.058499
20
0.056481
30
0.0
11
0.057889
21
0.056058
31
0.0
0
LINE
8
0
6
CONTINUOUS
10
0.059720
20
0.057326
30
0.0
11
0.058499
21
0.056481
31
0.0
0
LINE
8
0
6
CONTINUOUS
10
0.060330
20
0.057749
30
0.0
11
0.059720
21
0.057326
31
0.0
0
LINE
8
0
6
CONTINUOUS
10
0.052726
20
0.053164
30
0.0
11
0.052115
21
0.052741
31
0.0
0
LINE
8
0
6
CONTINUOUS
10
0.050895
20
0.051896
30
0.0
11
0.050284
21
0.051473
31
0.0
0
LINE
8
0
6
CONTINUOUS
10
0.052115
20
0.052741
30
0.0
11
0.050895
21
0.051896
31
0.0
0
LINE
8
0
6
CONTINUOUS
10
0.048415
20
0.048204
30
0.0
11
0.047804
21
0.047782
31
0.0
0
LINE
8
0
6
CONTINUOUS
10
0.046583
20
0.046936
30
0.0
11
0.045973
21
0.046513
31
0.0
0
LINE
8
0
6
CONTINUOUS
10
0.047804
20
0.047782
30
0.0
11
0.046583
21
0.046936
31
0.0
0
LINE
8
0
6
CONTINUOUS
10
0.051855
20
0.051537
30
0.0
11
0.051244
21
0.051114
31
0.0
0
LINE
8
0
6
CONTINUOUS
10
0.050024
20
0.050269
30
0.0
11
0.049413
21
0.049846
31
0.0
0
LINE
8
0
6
CONTINUOUS
10
0.051244
20
0.051114
30
0.0
11
0.050024
21
0.050269
31
0.0
0
LINE
8
0
6
CONTINUOUS
10
0.045851
20
0.048075
30
0.0
11
0.045241
21
0.047652
31
0.0
0
LINE
8
0
6
CONTINUOUS
10
0.044020
20
0.046807
30
0.0
11
0.043410
21
0.046384
31
0.0
0
LINE
8
0
6
CONTINUOUS
10
0.045241
20
0.047652
30
0.0
11
0.044020
21
0.046807
31
0.0
0
LINE
8
0
6
CONTINUOUS
10
0.046501
20
0.047377
30
0.0
11
0.045891
21
0.046954
31
0.0
0
LINE
8
0
6
CONTINUOUS
10
0.044670
20
0.046109
30
0.0
11
0.044060
21
0.045686
31
0.0
0
LINE
8
0
6
CONTINUOUS
10
0.045891
20
0.046954
30
0.0
11
0.044670
21
0.046109
31
0.0
0
LINE
8
0
6
CONTINUOUS
10
0.043073
20
0.045105
30
0.0
11
0.042463
21
0.044682
31
0.0
0
LINE
8
0
6
CONTINUOUS
10
0.041242
20
0.043836
30
0.0
11
0.040632
21
0.043414
31
0.0
0
LINE
8
0
6
CONTINUOUS
10
0.042463
20
0.044682
30
0.0
11
0.041242
21
0.043836
31
0.0
0
LINE
8
0
6
CONTINUOUS
10
0.037600
20
0.042013
30
0.0
11
0.036989
21
0.041590
31
0.0
0
LINE
8
0
6
CONTINUOUS
10
0.035769
20
0.040745
30
0.0
11
0.035158
21
0.040322
31
0.0
0
LINE
8
0
6
CONTINUOUS
10
0.036989
20
0.041590
30
0.0
11
0.035769
21
0.040745
31
0.0
0
LINE
8
0
6
CONTINUOUS
10
0.037196
20
0.042731
30
0.0
11
0.036901
21
0.042526
31
0.0
0
LINE
8
0
6
CONTINUOUS
10
0.038321
20
0.043510
30
0.0
11
0.037196
21
0.042731
31
0.0
0
LINE
8
0
6
CONTINUOUS
10
0.039151
20
0.044085
30
0.0
11
0.038321
21
0.043510
31
0.0
0
LINE
8
0
6
CONTINUOUS
10
0.086091
20
0.079681
30
0.0
11
0.085074
21
0.078977
31
0.0
0
LINE
8
0
6
CONTINUOUS
10
0.082404
20
0.077072
30
0.0
11
0.081395
21
0.076373
31
0.0
0
LINE
8
0
6
CONTINUOUS
10
0.084115
20
0.078257
30
0.0
11
0.082404
21
0.077072
31
0.0
0
LINE
8
0
6
CONTINUOUS
10
0.084817
20
0.078744
30
0.0
11
0.084115
21
0.078257
31
0.0
0
LINE
8
0
6
CONTINUOUS
10
0.072297
20
0.069939
30
0.0
11
0.070804
21
0.068905
31
0.0
0
LINE
8
0
6
CONTINUOUS
10
0.073784
20
0.070969
30
0.0
11
0.072297
21
0.069939
31
0.0
0
LINE
8
0
6
CONTINUOUS
10
0.062687
20
0.063134
30
0.0
11
0.062318
21
0.062878
31
0.0
0
LINE
8
0
6
CONTINUOUS
10
0.064327
20
0.064270
30
0.0
11
0.062687
21
0.063134
31
0.0
0
LINE
8
0
6
CONTINUOUS
10
0.065597
20
0.065150
30
0.0
11
0.064327
21
0.064270
31
0.0
0
LINE
8
0
6
CONTINUOUS
10
0.060769
20
0.060453
30
0.0
11
0.060400
21
0.060198
31
0.0
0
LINE
8
0
6
CONTINUOUS
10
0.062409
20
0.061589
30
0.0
11
0.060769
21
0.060453
31
0.0
0
LINE
8
0
6
CONTINUOUS
10
0.063679
20
0.062469
30
0.0
11
0.062409
21
0.061589
31
0.0
0
LINE
8
0
6
CONTINUOUS
10
0.070467
20
0.067003
30
0.0
11
0.068974
21
0.065969
31
0.0
0
LINE
8
0
6
CONTINUOUS
10
0.071954
20
0.068033
30
0.0
11
0.070467
21
0.067003
31
0.0
0
LINE
8
0
6
CONTINUOUS
10
0.075839
20
0.070871
30
0.0
11
0.074559
21
0.069985
31
0.0
0
LINE
8
0
6
CONTINUOUS
10
0.077474
20
0.072004
30
0.0
11
0.075839
21
0.070871
31
0.0
0
LINE
8
0
6
CONTINUOUS
10
0.077830
20
0.072251
30
0.0
11
0.077474
21
0.072004
31
0.0
0
LINE
8
0
6
CONTINUOUS
10
0.078980
20
0.073434
30
0.0
11
0.077971
21
0.072735
31
0.0
0
LINE
8
0
6
CONTINUOUS
10
0.080692
20
0.074620
30
0.0
11
0.078980
21
0.073434
31
0.0
0
LINE
8
0
6
CONTINUOUS
10
0.081394
20
0.075106
30
0.0
11
0.080692
21
0.074620
31
0.0
0
LINE
8
0
6
CONTINUOUS
10
0.030122
20
0.039470
30
0.0
11
0.028486
21
0.038338
31
0.0
0
LINE
8
0
6
CONTINUOUS
10
0.030478
20
0.039717
30
0.0
11
0.030122
21
0.039470
31
0.0
0
LINE
8
0
6
CONTINUOUS
10
0.028486
20
0.038338
30
0.0
11
0.027206
21
0.037451
31
0.0
0
LINE
8
0
6
CONTINUOUS
10
0.035884
20
0.044004
30
0.0
11
0.034398
21
0.042974
31
0.0
0
LINE
8
0
6
CONTINUOUS
10
0.034398
20
0.042974
30
0.0
11
0.032905
21
0.041940
31
0.0
0
LINE
8
0
6
CONTINUOUS
10
0.044302
20
0.049986
30
0.0
11
0.043032
21
0.049106
31
0.0
0
LINE
8
0
6
CONTINUOUS
10
0.041392
20
0.047970
30
0.0
11
0.041023
21
0.047715
31
0.0
0
LINE
8
0
6
CONTINUOUS
10
0.043032
20
0.049106
30
0.0
11
0.041392
21
0.047970
31
0.0
0
LINE
8
0
6
CONTINUOUS
10
0.053902
20
0.056519
30
0.0
11
0.052934
21
0.055849
31
0.0
0
LINE
8
0
6
CONTINUOUS
10
0.051218
20
0.054660
30
0.0
11
0.050470
21
0.054142
31
0.0
0
LINE
8
0
6
CONTINUOUS
10
0.052934
20
0.055849
30
0.0
11
0.051218
21
0.054660
31
0.0
0
LINE
8
0
6
CONTINUOUS
10
0.045775
20
0.052895
30
0.0
11
0.044808
21
0.052225
31
0.0
0
LINE
8
0
6
CONTINUOUS
10
0.043092
20
0.051036
30
0.0
11
0.042344
21
0.050518
31
0.0
0
LINE
8
0
6
CONTINUOUS
10
0.044808
20
0.052225
30
0.0
11
0.043092
21
0.051036
31
0.0
0
LINE
8
0
6
CONTINUOUS
10
0.036554
20
0.046362
30
0.0
11
0.035284
21
0.045482
31
0.0
0
LINE
8
0
6
CONTINUOUS
10
0.033644
20
0.044346
30
0.0
11
0.033275
21
0.044090
31
0.0
0
LINE
8
0
6
CONTINUOUS
10
0.035284
20
0.045482
30
0.0
11
0.033644
21
0.044346
31
0.0
0
LINE
8
0
6
CONTINUOUS
10
0.023907
20
0.036125
30
0.0
11
0.022272
21
0.034992
31
0.0
0
LINE
8
0
6
CONTINUOUS
10
0.024263
20
0.036372
30
0.0
11
0.023907
21
0.036125
31
0.0
0
LINE
8
0
6
CONTINUOUS
10
0.022272
20
0.034992
30
0.0
11
0.020992
21
0.034106
31
0.0
0
LINE
8
0
6
CONTINUOUS
10
0.021371
20
0.033639
30
0.0
11
0.019659
21
0.032454
31
0.0
0
LINE
8
0
6
CONTINUOUS
10
0.022073
20
0.034126
30
0.0
11
0.021371
21
0.033639
31
0.0
0
LINE
8
0
6
CONTINUOUS
10
0.019659
20
0.032454
30
0.0
11
0.018650
21
0.031755
31
0.0
0
LINE
8
0
6
CONTINUOUS
10
0.017826
20
0.033245
30
0.0
11
0.016115
21
0.032060
31
0.0
0
LINE
8
0
6
CONTINUOUS
10
0.018528
20
0.033731
30
0.0
11
0.017826
21
0.033245
31
0.0
0
LINE
8
0
6
CONTINUOUS
10
0.016115
20
0.032060
30
0.0
11
0.015106
21
0.031361
31
0.0
0
LINE
8
0
6
CONTINUOUS
10
0.022314
20
0.037732
30
0.0
11
0.020678
21
0.036599
31
0.0
0
LINE
8
0
6
CONTINUOUS
10
0.022670
20
0.037978
30
0.0
11
0.022314
21
0.037732
31
0.0
0
LINE
8
0
6
CONTINUOUS
10
0.020678
20
0.036599
30
0.0
11
0.019398
21
0.035712
31
0.0
0
LINE
8
0
6
CONTINUOUS
10
0.028659
20
0.042876
30
0.0
11
0.027741
21
0.042239
31
0.0
0
LINE
8
0
6
CONTINUOUS
10
0.026101
20
0.041104
30
0.0
11
0.025732
21
0.040848
31
0.0
0
LINE
8
0
6
CONTINUOUS
10
0.027741
20
0.042239
30
0.0
11
0.026101
21
0.041104
31
0.0
0
LINE
8
0
6
CONTINUOUS
10
0.037367
20
0.048975
30
0.0
11
0.036399
21
0.048305
31
0.0
0
LINE
8
0
6
CONTINUOUS
10
0.034684
20
0.047117
30
0.0
11
0.033935
21
0.046598
31
0.0
0
LINE
8
0
6
CONTINUOUS
10
0.036399
20
0.048305
30
0.0
11
0.034684
21
0.047117
31
0.0
0
LINE
8
0
6
CONTINUOUS
10
0.047101
20
0.055750
30
0.0
11
0.046455
21
0.055302
31
0.0
0
LINE
8
0
6
CONTINUOUS
10
0.044751
20
0.054122
30
0.0
11
0.043693
21
0.053389
31
0.0
0
LINE
8
0
6
CONTINUOUS
10
0.046455
20
0.055302
30
0.0
11
0.044751
21
0.054122
31
0.0
0
LINE
8
0
6
CONTINUOUS
10
0.019718
20
0.032369
30
0.0
11
0.018709
21
0.031670
31
0.0
0
LINE
8
0
6
CONTINUOUS
10
0.021429
20
0.033555
30
0.0
11
0.019718
21
0.032369
31
0.0
0
LINE
8
0
6
CONTINUOUS
10
0.022132
20
0.034041
30
0.0
11
0.021429
21
0.033555
31
0.0
0
LINE
8
0
6
CONTINUOUS
10
0.024977
20
0.034825
30
0.0
11
0.023968
21
0.034126
31
0.0
0
LINE
8
0
6
CONTINUOUS
10
0.026689
20
0.036010
30
0.0
11
0.024977
21
0.034825
31
0.0
0
LINE
8
0
6
CONTINUOUS
10
0.027391
20
0.036497
30
0.0
11
0.026689
21
0.036010
31
0.0
0
LINE
8
0
6
CONTINUOUS
10
0.080893
20
0.074329
30
0.0
11
0.079182
21
0.073143
31
0.0
0
LINE
8
0
6
CONTINUOUS
10
0.081595
20
0.074815
30
0.0
11
0.080893
21
0.074329
31
0.0
0
LINE
8
0
6
CONTINUOUS
10
0.079182
20
0.073143
30
0.0
11
0.078173
21
0.072444
31
0.0
0
LINE
8
0
6
CONTINUOUS
10
0.078010
20
0.071992
30
0.0
11
0.077654
21
0.071745
31
0.0
0
LINE
8
0
6
CONTINUOUS
10
0.084320
20
0.077961
30
0.0
11
0.082609
21
0.076776
31
0.0
0
LINE
8
0
6
CONTINUOUS
10
0.085023
20
0.078448
30
0.0
11
0.084320
21
0.077961
31
0.0
0
LINE
8
0
6
CONTINUOUS
10
0.082609
20
0.076776
30
0.0
11
0.081600
21
0.076077
31
0.0
0
LINE
8
0
6
CONTINUOUS
10
0.051941
20
0.051413
30
0.0
11
0.051331
21
0.050990
31
0.0
0
LINE
8
0
6
CONTINUOUS
10
0.046594
20
0.046920
30
0.0
11
0.045984
21
0.046498
31
0.0
0
LINE
8
0
6
CONTINUOUS
10
0.047815
20
0.047766
30
0.0
11
0.046594
21
0.046920
31
0.0
0
LINE
8
0
6
CONTINUOUS
10
0.048426
20
0.048189
30
0.0
11
0.047815
21
0.047766
31
0.0
0
LINE
8
0
6
CONTINUOUS
10
0.056880
20
0.054154
30
0.0
11
0.056269
21
0.053731
31
0.0
0
LINE
8
0
6
CONTINUOUS
10
0.055049
20
0.052886
30
0.0
11
0.054438
21
0.052463
31
0.0
0
LINE
8
0
6
CONTINUOUS
10
0.056269
20
0.053731
30
0.0
11
0.055049
21
0.052886
31
0.0
0
LINE
8
0
6
CONTINUOUS
10
0.058677
20
0.055638
30
0.0
11
0.058067
21
0.055215
31
0.0
0
LINE
8
0
6
CONTINUOUS
10
0.058067
20
0.055215
30
0.0
11
0.056846
21
0.054370
31
0.0
0
LINE
8
0
6
CONTINUOUS
10
0.064955
20
0.060925
30
0.0
11
0.064345
21
0.060502
31
0.0
0
LINE
8
0
6
CONTINUOUS
10
0.060835
20
0.056728
30
0.0
11
0.061446
21
0.057150
31
0.0
0
LINE
8
0
6
CONTINUOUS
10
0.089225
20
0.083022
30
0.0
11
0.087514
21
0.081838
31
0.0
0
LINE
8
0
6
CONTINUOUS
10
0.090242
20
0.083727
30
0.0
11
0.089225
21
0.083022
31
0.0
0
LINE
8
0
6
CONTINUOUS
10
0.087514
20
0.081838
30
0.0
11
0.086821
21
0.081358
31
0.0
0
LINE
8
0
6
CONTINUOUS
10
0.086941
20
0.081158
30
0.0
11
0.085229
21
0.079973
31
0.0
0
LINE
8
0
6
CONTINUOUS
10
0.087643
20
0.081644
30
0.0
11
0.086941
21
0.081158
31
0.0
0
LINE
8
0
6
CONTINUOUS
10
0.067749
20
0.064030
30
0.0
11
0.067166
21
0.063626
31
0.0
0
LINE
8
0
6
CONTINUOUS
10
0.067185
20
0.063691
30
0.0
11
0.066602
21
0.063287
31
0.0
0
LINE
8
0
6
CONTINUOUS
10
0.092533
20
0.090412
30
0.0
11
0.092053
21
0.091580
31
0.0
0
LINE
8
0
6
CONTINUOUS
10
-0.004821
20
0.046713
30
0.0
11
-0.007252
21
0.043829
31
0.0
0
LINE
8
0
6
CONTINUOUS
10
0.077600
20
0.101182
30
0.0
11
0.073377
21
0.098253
31
0.0
0
LINE
8
0
6
CONTINUOUS
10
0.082917
20
0.104782
30
0.0
11
0.082368
21
0.104587
31
0.0
0
LINE
8
0
6
CONTINUOUS
10
0.073377
20
0.098253
30
0.0
11
0.068115
21
0.094546
31
0.0
0
LINE
8
0
6
CONTINUOUS
10
-0.057818
20
-0.078805
30
0.0
11
-0.049578
21
-0.065317
31
0.0
0
LINE
8
0
6
CONTINUOUS
10
-0.070059
20
-0.053299
30
0.0
11
-0.078471
21
-0.066829
31
0.0
0
LINE
8
0
6
CONTINUOUS
10
-0.051443
20
-0.023801
30
0.0
11
-0.070059
21
-0.053299
31
0.0
0
LINE
8
0
6
CONTINUOUS
10
-0.031260
20
-0.035663
30
0.0
11
-0.016575
21
-0.012968
31
0.0
0
LINE
8
0
6
CONTINUOUS
10
-0.016575
20
-0.012968
30
0.0
11
-0.006654
21
0.004417
31
0.0
0
LINE
8
0
6
CONTINUOUS
10
-0.037176
20
-0.001139
30
0.0
11
-0.051443
21
-0.023801
31
0.0
0
LINE
8
0
6
CONTINUOUS
10
-0.025401
20
0.017511
30
0.0
11
-0.037176
21
-0.001139
31
0.0
0
LINE
8
0
6
CONTINUOUS
10
-0.019165
20
0.027188
30
0.0
11
-0.025401
21
0.017511
31
0.0
0
LINE
8
0
6
CONTINUOUS
10
-0.014716
20
0.033821
30
0.0
11
-0.019165
21
0.027188
31
0.0
0
LINE
8
0
6
CONTINUOUS
10
-0.012072
20
0.037573
30
0.0
11
-0.014716
21
0.033821
31
0.0
0
LINE
8
0
6
CONTINUOUS
10
-0.007252
20
0.043829
30
0.0
11
-0.009515
21
0.040940
31
0.0
0
LINE
8
0
6
CONTINUOUS
10
0.084521
20
0.104316
30
0.0
11
0.082917
21
0.104782
31
0.0
0
LINE
8
0
6
CONTINUOUS
10
0.084955
20
0.103603
30
0.0
11
0.084521
21
0.104316
31
0.0
0
LINE
8
0
6
CONTINUOUS
10
0.091969
20
0.091732
30
0.0
11
0.089684
21
0.095836
31
0.0
0
LINE
8
0
6
CONTINUOUS
10
-0.009515
20
0.040940
30
0.0
11
-0.012072
21
0.037573
31
0.0
0
LINE
8
0
6
CONTINUOUS
10
-0.049578
20
-0.065317
30
0.0
11
-0.031260
21
-0.035663
31
0.0
0
LINE
8
0
6
CONTINUOUS
10
-0.001834
20
0.050065
30
0.0
11
-0.004821
21
0.046713
31
0.0
0
LINE
8
0
6
CONTINUOUS
10
0.001282
20
0.053439
30
0.0
11
-0.001834
21
0.050065
31
0.0
0
LINE
8
0
6
CONTINUOUS
10
0.011505
20
0.062970
30
0.0
11
0.008929
21
0.060685
31
0.0
0
LINE
8
0
6
CONTINUOUS
10
0.006353
20
0.058400
30
0.0
11
0.003817
21
0.055919
31
0.0
0
LINE
8
0
6
CONTINUOUS
10
0.026173
20
0.074419
30
0.0
11
0.011505
21
0.062970
31
0.0
0
LINE
8
0
6
CONTINUOUS
10
0.042752
20
0.085450
30
0.0
11
0.034463
21
0.079935
31
0.0
0
LINE
8
0
6
CONTINUOUS
10
0.060581
20
0.095250
30
0.0
11
0.051667
21
0.090350
31
0.0
0
LINE
8
0
6
CONTINUOUS
10
0.074187
20
0.101431
30
0.0
11
0.067384
21
0.098340
31
0.0
0
LINE
8
0
6
CONTINUOUS
10
0.020399
20
0.039824
30
0.0
11
0.024175
21
0.042420
31
0.0
0
LINE
8
0
6
CONTINUOUS
10
0.082368
20
0.104587
30
0.0
11
0.074187
21
0.101431
31
0.0
0
LINE
8
0
6
CONTINUOUS
10
0.015588
20
0.036141
30
0.0
11
0.017609
21
0.037721
31
0.0
0
LINE
8
0
6
CONTINUOUS
10
0.089375
20
0.087984
30
0.0
11
0.091459
21
0.089413
31
0.0
0
LINE
8
0
6
CONTINUOUS
10
0.011830
20
0.032955
30
0.0
11
0.015588
21
0.036141
31
0.0
0
LINE
8
0
6
CONTINUOUS
10
0.029017
20
0.045742
30
0.0
11
0.036272
21
0.050886
31
0.0
0
LINE
8
0
6
CONTINUOUS
10
0.089684
20
0.095836
30
0.0
11
0.084955
21
0.103603
31
0.0
0
LINE
8
0
6
CONTINUOUS
10
0.092053
20
0.091580
30
0.0
11
0.091969
21
0.091732
31
0.0
0
LINE
8
0
6
CONTINUOUS
10
-0.058325
20
-0.079040
30
0.0
11
-0.057891
21
-0.078928
31
0.0
0
LINE
8
0
6
CONTINUOUS
10
-0.072480
20
-0.070831
30
0.0
11
-0.068752
21
-0.072993
31
0.0
0
LINE
8
0
6
CONTINUOUS
10
-0.073297
20
-0.070357
30
0.0
11
-0.072996
21
-0.070532
31
0.0
0
LINE
8
0
6
CONTINUOUS
10
-0.072996
20
-0.070532
30
0.0
11
-0.072480
21
-0.070831
31
0.0
0
LINE
8
0
6
CONTINUOUS
10
-0.075475
20
-0.069095
30
0.0
11
-0.073297
21
-0.070357
31
0.0
0
LINE
8
0
6
CONTINUOUS
10
-0.078546
20
-0.066951
30
0.0
11
-0.078438
21
-0.067377
31
0.0
0
LINE
8
0
6
CONTINUOUS
10
-0.057891
20
-0.078928
30
0.0
11
-0.057818
21
-0.078805
31
0.0
0
LINE
8
0
6
CONTINUOUS
10
-0.078471
20
-0.066829
30
0.0
11
-0.078546
21
-0.066951
31
0.0
0
LINE
8
0
6
CONTINUOUS
10
-0.005442
20
0.007764
30
0.0
11
-0.005161
21
0.009885
31
0.0
0
LINE
8
0
6
CONTINUOUS
10
-0.005367
20
0.006783
30
0.0
11
-0.005442
21
0.007764
31
0.0
0
LINE
8
0
6
CONTINUOUS
10
-0.005389
20
0.006502
30
0.0
11
-0.005367
21
0.006783
31
0.0
0
LINE
8
0
6
CONTINUOUS
10
-0.006654
20
0.004417
30
0.0
11
-0.005389
21
0.006502
31
0.0
0
LINE
8
0
6
CONTINUOUS
10
-0.005161
20
0.009885
30
0.0
11
-0.000389
21
0.018142
31
0.0
0
LINE
8
0
6
CONTINUOUS
10
-0.000389
20
0.018142
30
0.0
11
0.005798
21
0.025540
31
0.0
0
LINE
8
0
6
CONTINUOUS
10
0.009038
20
0.030209
30
0.0
11
0.011830
21
0.032955
31
0.0
0
LINE
8
0
6
CONTINUOUS
10
0.083163
20
0.083478
30
0.0
11
0.086600
21
0.085860
31
0.0
0
LINE
8
0
6
CONTINUOUS
10
0.086600
20
0.085860
30
0.0
11
0.089375
21
0.087984
31
0.0
0
LINE
8
0
6
CONTINUOUS
10
0.092102
20
0.089838
30
0.0
11
0.092533
21
0.090412
31
0.0
0
LINE
8
0
6
CONTINUOUS
10
0.091459
20
0.089413
30
0.0
11
0.092102
21
0.089838
31
0.0
0
LINE
8
0
6
CONTINUOUS
10
0.052163
20
0.061814
30
0.0
11
0.059217
21
0.066663
31
0.0
0
LINE
8
0
6
CONTINUOUS
10
0.078297
20
0.080094
30
0.0
11
0.083163
21
0.083478
31
0.0
0
LINE
8
0
6
CONTINUOUS
10
0.072114
20
0.075688
30
0.0
11
0.078297
21
0.080094
31
0.0
0
LINE
8
0
6
CONTINUOUS
10
0.036272
20
0.050886
30
0.0
11
0.044459
21
0.056514
31
0.0
0
LINE
8
0
6
CONTINUOUS
10
0.008534
20
0.028831
30
0.0
11
0.009038
21
0.030209
31
0.0
0
LINE
8
0
6
CONTINUOUS
10
0.005798
20
0.025540
30
0.0
11
0.008483
21
0.028691
31
0.0
0
LINE
8
0
6
CONTINUOUS
10
0.008483
20
0.028691
30
0.0
11
0.008534
21
0.028831
31
0.0
0
LINE
8
0
6
CONTINUOUS
10
0.008929
20
0.060685
30
0.0
11
0.006353
21
0.058400
31
0.0
0
LINE
8
0
6
CONTINUOUS
10
0.024175
20
0.042420
30
0.0
11
0.029017
21
0.045742
31
0.0
0
LINE
8
0
6
CONTINUOUS
10
0.003817
20
0.055919
30
0.0
11
0.001282
21
0.053439
31
0.0
0
LINE
8
0
6
CONTINUOUS
10
0.017609
20
0.037721
30
0.0
11
0.020399
21
0.039824
31
0.0
0
LINE
8
0
6
CONTINUOUS
10
0.034463
20
0.079935
30
0.0
11
0.026173
21
0.074419
31
0.0
0
LINE
8
0
6
CONTINUOUS
10
0.044459
20
0.056514
30
0.0
11
0.052163
21
0.061814
31
0.0
0
LINE
8
0
6
CONTINUOUS
10
0.067384
20
0.098340
30
0.0
11
0.060581
21
0.095250
31
0.0
0
LINE
8
0
6
CONTINUOUS
10
0.065931
20
0.071281
30
0.0
11
0.072114
21
0.075688
31
0.0
0
LINE
8
0
6
CONTINUOUS
10
0.051667
20
0.090350
30
0.0
11
0.042752
21
0.085450
31
0.0
0
LINE
8
0
6
CONTINUOUS
10
0.059217
20
0.066663
30
0.0
11
0.065931
21
0.071281
31
0.0
0
LINE
8
0
6
CONTINUOUS
10
-0.079573
20
-0.069143
30
0.0
11
-0.092310
21
-0.094136
31
0.0
0
LINE
8
0
6
CONTINUOUS
10
-0.074660
20
-0.104371
30
0.0
11
-0.059295
21
-0.080903
31
0.0
0
LINE
8
0
6
CONTINUOUS
10
-0.078521
20
-0.067328
30
0.0
11
-0.078568
21
-0.067409
31
0.0
0
LINE
8
0
6
CONTINUOUS
10
-0.059601
20
-0.078300
30
0.0
11
-0.061212
21
-0.077366
31
0.0
0
LINE
8
0
6
CONTINUOUS
10
-0.065757
20
-0.074730
30
0.0
11
-0.068382
21
-0.073208
31
0.0
0
LINE
8
0
6
CONTINUOUS
10
-0.058289
20
-0.079169
30
0.0
11
-0.058242
21
-0.079088
31
0.0
0
LINE
8
0
6
CONTINUOUS
10
-0.078568
20
-0.067409
30
0.0
11
-0.079573
21
-0.069143
31
0.0
0
LINE
8
0
6
CONTINUOUS
10
-0.059295
20
-0.080903
30
0.0
11
-0.058289
21
-0.079169
31
0.0
0
LINE
8
0
6
CONTINUOUS
10
-0.092310
20
-0.094136
30
0.0
11
-0.092533
21
-0.094574
31
0.0
0
LINE
8
0
6
CONTINUOUS
10
-0.074929
20
-0.104782
30
0.0
11
-0.074660
21
-0.104371
31
0.0
0
LINE
8
0
6
CONTINUOUS
10
0.015588
20
0.036141
30
0.0
11
0.011830
21
0.032955
31
0.0
0
LINE
8
0
6
CONTINUOUS
10
0.091459
20
0.089413
30
0.0
11
0.089375
21
0.087984
31
0.0
0
LINE
8
0
6
CONTINUOUS
10
0.021942
20
0.034315
30
0.0
11
0.023066
21
0.034857
31
0.0
0
LINE
8
0
6
CONTINUOUS
10
0.012715
20
0.029812
30
0.0
11
0.013640
21
0.029912
31
0.0
0
LINE
8
0
6
CONTINUOUS
10
0.009038
20
0.030209
30
0.0
11
0.008534
21
0.028831
31
0.0
0
LINE
8
0
6
CONTINUOUS
10
0.011830
20
0.032955
30
0.0
11
0.009038
21
0.030209
31
0.0
0
LINE
8
0
6
CONTINUOUS
10
0.072114
20
0.075688
30
0.0
11
0.065931
21
0.071281
31
0.0
0
LINE
8
0
6
CONTINUOUS
10
0.086600
20
0.085860
30
0.0
11
0.083163
21
0.083478
31
0.0
0
LINE
8
0
6
CONTINUOUS
10
0.083163
20
0.083478
30
0.0
11
0.078297
21
0.080094
31
0.0
0
LINE
8
0
6
CONTINUOUS
10
0.089375
20
0.087984
30
0.0
11
0.086600
21
0.085860
31
0.0
0
LINE
8
0
6
CONTINUOUS
10
0.077205
20
0.073153
30
0.0
11
0.077485
21
0.073437
31
0.0
0
LINE
8
0
6
CONTINUOUS
10
0.092102
20
0.089838
30
0.0
11
0.091459
21
0.089413
31
0.0
0
LINE
8
0
6
CONTINUOUS
10
0.088796
20
0.085814
30
0.0
11
0.092102
21
0.089838
31
0.0
0
LINE
8
0
6
CONTINUOUS
10
0.055801
20
0.064315
30
0.0
11
0.052163
21
0.061814
31
0.0
0
LINE
8
0
6
CONTINUOUS
10
0.060705
20
0.058219
30
0.0
11
0.061260
21
0.058696
31
0.0
0
LINE
8
0
6
CONTINUOUS
10
0.063525
20
0.060641
30
0.0
11
0.063979
21
0.061031
31
0.0
0
LINE
8
0
6
CONTINUOUS
10
0.042474
20
0.055150
30
0.0
11
0.036272
21
0.050886
31
0.0
0
LINE
8
0
6
CONTINUOUS
10
0.047862
20
0.049002
30
0.0
11
0.048659
21
0.049563
31
0.0
0
LINE
8
0
6
CONTINUOUS
10
0.051726
20
0.051723
30
0.0
11
0.052707
21
0.052414
31
0.0
0
LINE
8
0
6
CONTINUOUS
10
0.036272
20
0.050886
30
0.0
11
0.029017
21
0.045742
31
0.0
0
LINE
8
0
6
CONTINUOUS
10
0.037182
20
0.042616
30
0.0
11
0.037461
21
0.042775
31
0.0
0
LINE
8
0
6
CONTINUOUS
10
0.042634
20
0.045739
30
0.0
11
0.043629
21
0.046309
31
0.0
0
LINE
8
0
6
CONTINUOUS
10
0.024175
20
0.042420
30
0.0
11
0.020399
21
0.039824
31
0.0
0
LINE
8
0
6
CONTINUOUS
10
0.020399
20
0.039824
30
0.0
11
0.017609
21
0.037721
31
0.0
0
LINE
8
0
6
CONTINUOUS
10
0.014031
20
0.030119
30
0.0
11
0.018189
21
0.032420
31
0.0
0
LINE
8
0
6
CONTINUOUS
10
0.013640
20
0.029912
30
0.0
11
0.013724
21
0.029934
31
0.0
0
LINE
8
0
6
CONTINUOUS
10
0.013724
20
0.029934
30
0.0
11
0.014031
21
0.030119
31
0.0
0
LINE
8
0
6
CONTINUOUS
10
0.008483
20
0.028691
30
0.0
11
0.012715
21
0.029812
31
0.0
0
LINE
8
0
6
CONTINUOUS
10
0.008534
20
0.028831
30
0.0
11
0.008483
21
0.028691
31
0.0
0
LINE
8
0
6
CONTINUOUS
10
0.029017
20
0.045742
30
0.0
11
0.024175
21
0.042420
31
0.0
0
LINE
8
0
6
CONTINUOUS
10
0.031571
20
0.039431
30
0.0
11
0.033581
21
0.040563
31
0.0
0
LINE
8
0
6
CONTINUOUS
10
0.017609
20
0.037721
30
0.0
11
0.015588
21
0.036141
31
0.0
0
LINE
8
0
6
CONTINUOUS
10
0.023066
20
0.034857
30
0.0
11
0.023356
21
0.035009
31
0.0
0
LINE
8
0
6
CONTINUOUS
10
0.052163
20
0.061814
30
0.0
11
0.044459
21
0.056514
31
0.0
0
LINE
8
0
6
CONTINUOUS
10
0.052707
20
0.052414
30
0.0
11
0.053894
21
0.053249
31
0.0
0
LINE
8
0
6
CONTINUOUS
10
0.078297
20
0.080094
30
0.0
11
0.072114
21
0.075688
31
0.0
0
LINE
8
0
6
CONTINUOUS
10
0.080459
20
0.076455
30
0.0
11
0.080975
21
0.076979
31
0.0
0
LINE
8
0
6
CONTINUOUS
10
0.062157
20
0.068685
30
0.0
11
0.059217
21
0.066663
31
0.0
0
LINE
8
0
6
CONTINUOUS
10
0.008475
20
0.028481
30
0.0
11
0.012354
21
0.029503
31
0.0
0
LINE
8
0
6
CONTINUOUS
10
0.005783
20
0.025349
30
0.0
11
0.008475
21
0.028481
31
0.0
0
LINE
8
0
6
CONTINUOUS
10
0.013281
20
0.029601
30
0.0
11
0.013368
21
0.029620
31
0.0
0
LINE
8
0
6
CONTINUOUS
10
-0.004899
20
0.010080
30
0.0
11
-0.000315
21
0.018011
31
0.0
0
LINE
8
0
6
CONTINUOUS
10
-0.000315
20
0.018011
30
0.0
11
0.005783
21
0.025349
31
0.0
0
LINE
8
0
6
CONTINUOUS
10
-0.005113
20
0.007199
30
0.0
11
-0.005135
21
0.008263
31
0.0
0
LINE
8
0
6
CONTINUOUS
10
-0.005135
20
0.008263
30
0.0
11
-0.004899
21
0.010080
31
0.0
0
LINE
8
0
6
CONTINUOUS
10
-0.005142
20
0.006908
30
0.0
11
-0.005113
21
0.007199
31
0.0
0
LINE
8
0
6
CONTINUOUS
10
0.012354
20
0.029503
30
0.0
11
0.013281
21
0.029601
31
0.0
0
LINE
8
0
6
CONTINUOUS
10
-0.005113
20
0.007199
30
0.0
11
-0.005142
21
0.006908
31
0.0
0
LINE
8
0
6
CONTINUOUS
10
-0.005142
20
0.006908
30
0.0
11
0.000465
21
0.016145
31
0.0
0
LINE
8
0
6
CONTINUOUS
10
-0.005135
20
0.008263
30
0.0
11
-0.005113
21
0.007199
31
0.0
0
LINE
8
0
6
CONTINUOUS
10
0.005783
20
0.025349
30
0.0
11
-0.000315
21
0.018011
31
0.0
0
LINE
8
0
6
CONTINUOUS
10
0.000465
20
0.016145
30
0.0
11
0.005237
21
0.022442
31
0.0
0
LINE
8
0
6
CONTINUOUS
10
0.012354
20
0.029503
30
0.0
11
0.008475
21
0.028481
31
0.0
0
LINE
8
0
6
CONTINUOUS
10
0.008475
20
0.028481
30
0.0
11
0.005783
21
0.025349
31
0.0
0
LINE
8
0
6
CONTINUOUS
10
-0.004899
20
0.010080
30
0.0
11
-0.005135
21
0.008263
31
0.0
0
LINE
8
0
6
CONTINUOUS
10
-0.000315
20
0.018011
30
0.0
11
-0.004899
21
0.010080
31
0.0
0
LINE
8
0
6
CONTINUOUS
10
0.013281
20
0.029601
30
0.0
11
0.012354
21
0.029503
31
0.0
0
LINE
8
0
6
CONTINUOUS
10
0.013368
20
0.029620
30
0.0
11
0.013281
21
0.029601
31
0.0
0
LINE
8
0
6
CONTINUOUS
10
0.005237
20
0.022442
30
0.0
11
0.013368
21
0.029620
31
0.0
0
LINE
8
0
6
CONTINUOUS
10
0.027650
20
0.037686
30
0.0
11
0.027107
21
0.037191
31
0.0
0
LINE
8
0
6
CONTINUOUS
10
0.027107
20
0.037191
30
0.0
11
0.027128
21
0.036984
31
0.0
0
LINE
8
0
6
CONTINUOUS
10
0.034332
20
0.041391
30
0.0
11
0.033966
21
0.041117
31
0.0
0
LINE
8
0
6
CONTINUOUS
10
0.033966
20
0.041117
30
0.0
11
0.033563
21
0.040725
31
0.0
0
LINE
8
0
6
CONTINUOUS
10
0.062664
20
0.060581
30
0.0
11
0.061527
21
0.059614
31
0.0
0
LINE
8
0
6
CONTINUOUS
10
0.072455
20
0.072887
30
0.0
11
0.071008
21
0.071800
31
0.0
0
LINE
8
0
6
CONTINUOUS
10
0.069769
20
0.070399
30
0.0
11
0.069942
21
0.070573
31
0.0
0
LINE
8
0
6
CONTINUOUS
10
0.061755
20
0.064941
30
0.0
11
0.061553
21
0.064771
31
0.0
0
LINE
8
0
6
CONTINUOUS
10
0.051537
20
0.056395
30
0.0
11
0.050494
21
0.055706
31
0.0
0
LINE
8
0
6
CONTINUOUS
10
0.027747
20
0.042545
30
0.0
11
0.027569
21
0.042487
31
0.0
0
LINE
8
0
6
CONTINUOUS
10
0.073365
20
0.074714
30
0.0
11
0.073636
21
0.074878
31
0.0
0
LINE
8
0
6
CONTINUOUS
10
0.085550
20
0.083166
30
0.0
11
0.085824
21
0.083342
31
0.0
0
LINE
8
0
6
CONTINUOUS
10
0.042659
20
0.048450
30
0.0
11
0.042086
21
0.048025
31
0.0
0
LINE
8
0
6
CONTINUOUS
10
0.045481
20
0.050673
30
0.0
11
0.044380
21
0.049859
31
0.0
0
LINE
8
0
6
CONTINUOUS
10
0.042144
20
0.049936
30
0.0
11
0.040755
21
0.048889
31
0.0
0
LINE
8
0
6
CONTINUOUS
10
0.065319
20
0.069383
30
0.0
11
0.066405
21
0.069882
31
0.0
0
LINE
8
0
6
CONTINUOUS
10
0.065319
20
0.069383
30
0.0
11
0.063736
21
0.068004
31
0.0
0
LINE
8
0
6
CONTINUOUS
10
0.081021
20
0.079895
30
0.0
11
0.081284
21
0.079922
31
0.0
0
LINE
8
0
6
CONTINUOUS
10
0.075321
20
0.072951
30
0.0
11
0.074743
21
0.072453
31
0.0
0
LINE
8
0
6
CONTINUOUS
10
0.053999
20
0.059940
30
0.0
11
0.052351
21
0.058654
31
0.0
0
LINE
8
0
6
CONTINUOUS
10
0.055758
20
0.062994
30
0.0
11
0.054032
21
0.061846
31
0.0
0
LINE
8
0
6
CONTINUOUS
10
0.044284
20
0.055102
30
0.0
11
0.044135
21
0.055012
31
0.0
0
LINE
8
0
6
CONTINUOUS
10
0.049375
20
0.051372
30
0.0
11
0.049297
21
0.051318
31
0.0
0
LINE
8
0
6
CONTINUOUS
10
0.036043
20
0.048819
30
0.0
11
0.034307
21
0.047660
31
0.0
0
LINE
8
0
6
CONTINUOUS
10
0.042086
20
0.048025
30
0.0
11
0.041931
21
0.047926
31
0.0
0
LINE
8
0
6
CONTINUOUS
10
0.040039
20
0.046592
30
0.0
11
0.038872
21
0.045874
31
0.0
0
LINE
8
0
6
CONTINUOUS
10
0.037451
20
0.044767
30
0.0
11
0.036283
21
0.044048
31
0.0
0
LINE
8
0
6
CONTINUOUS
10
0.029745
20
0.040015
30
0.0
11
0.030273
21
0.040012
31
0.0
0
LINE
8
0
6
CONTINUOUS
10
0.027569
20
0.042487
30
0.0
11
0.025840
21
0.041480
31
0.0
0
LINE
8
0
6
CONTINUOUS
10
0.056692
20
0.056320
30
0.0
11
0.055881
21
0.055763
31
0.0
0
LINE
8
0
6
CONTINUOUS
10
0.055461
20
0.054898
30
0.0
11
0.054240
21
0.054053
31
0.0
0
LINE
8
0
6
CONTINUOUS
10
0.083012
20
0.079695
30
0.0
11
0.081564
21
0.078284
31
0.0
0
LINE
8
0
6
CONTINUOUS
10
0.079014
20
0.077143
30
0.0
11
0.077507
21
0.075824
31
0.0
0
LINE
8
0
6
CONTINUOUS
10
0.060796
20
0.063189
30
0.0
11
0.059626
21
0.062103
31
0.0
0
LINE
8
0
6
CONTINUOUS
10
0.065537
20
0.064825
30
0.0
11
0.064432
21
0.063927
31
0.0
0
LINE
8
0
6
CONTINUOUS
10
0.067849
20
0.066378
30
0.0
11
0.066744
21
0.065481
31
0.0
0
ENDSEC
0
EOF
